  0
SECTION
  2
HEADER
  9
$ACADVER
  1
AC1018
  9
$ACADMAINTVER
 70
     0
  9
$DWGCODEPAGE
  3
ANSI_1250
  9
$INSBASE
 10
0.0
 20
0.0
 30
0.0
  9
$EXTMIN
 10
1.000000000000000E+20
 20
1.000000000000000E+20
 30
1.000000000000000E+20
  9
$EXTMAX
 10
-1.000000000000000E+20
 20
-1.000000000000000E+20
 30
-1.000000000000000E+20
  9
$LIMMIN
 10
0.0
 20
0.0
  9
$LIMMAX
 10
12.0
 20
9.0
  9
$ORTHOMODE
 70
     0
  9
$REGENMODE
 70
     1
  9
$FILLMODE
 70
     1
  9
$QTEXTMODE
 70
     0
  9
$MIRRTEXT
 70
     1
  9
$LTSCALE
 40
1.0
  9
$ATTMODE
 70
     1
  9
$TEXTSIZE
 40
0.2
  9
$TRACEWID
 40
0.05
  9
$TEXTSTYLE
  7
Standard
  9
$CLAYER
  8
0
  9
$CELTYPE
  6
ByLayer
  9
$CECOLOR
 62
   256
  9
$CELTSCALE
 40
1.0
  9
$DISPSILH
 70
     0
  9
$DIMSCALE
 40
1.0
  9
$DIMASZ
 40
0.18
  9
$DIMEXO
 40
0.0625
  9
$DIMDLI
 40
0.38
  9
$DIMRND
 40
0.0
  9
$DIMDLE
 40
0.0
  9
$DIMEXE
 40
0.18
  9
$DIMTP
 40
0.0
  9
$DIMTM
 40
0.0
  9
$DIMTXT
 40
0.18
  9
$DIMCEN
 40
0.09
  9
$DIMTSZ
 40
0.0
  9
$DIMTOL
 70
     0
  9
$DIMLIM
 70
     0
  9
$DIMTIH
 70
     1
  9
$DIMTOH
 70
     1
  9
$DIMSE1
 70
     0
  9
$DIMSE2
 70
     0
  9
$DIMTAD
 70
     0
  9
$DIMZIN
 70
     0
  9
$DIMBLK
  1

  9
$DIMASO
 70
     1
  9
$DIMSHO
 70
     1
  9
$DIMPOST
  1

  9
$DIMAPOST
  1

  9
$DIMALT
 70
     0
  9
$DIMALTD
 70
     2
  9
$DIMALTF
 40
25.4
  9
$DIMLFAC
 40
1.0
  9
$DIMTOFL
 70
     0
  9
$DIMTVP
 40
0.0
  9
$DIMTIX
 70
     0
  9
$DIMSOXD
 70
     0
  9
$DIMSAH
 70
     0
  9
$DIMBLK1
  1

  9
$DIMBLK2
  1

  9
$DIMSTYLE
  2
Standard
  9
$DIMCLRD
 70
     0
  9
$DIMCLRE
 70
     0
  9
$DIMCLRT
 70
     0
  9
$DIMTFAC
 40
1.0
  9
$DIMGAP
 40
0.09
  9
$DIMJUST
 70
     0
  9
$DIMSD1
 70
     0
  9
$DIMSD2
 70
     0
  9
$DIMTOLJ
 70
     1
  9
$DIMTZIN
 70
     0
  9
$DIMALTZ
 70
     0
  9
$DIMALTTZ
 70
     0
  9
$DIMUPT
 70
     0
  9
$DIMDEC
 70
     4
  9
$DIMTDEC
 70
     4
  9
$DIMALTU
 70
     2
  9
$DIMALTTD
 70
     2
  9
$DIMTXSTY
  7
Standard
  9
$DIMAUNIT
 70
     0
  9
$DIMADEC
 70
     0
  9
$DIMALTRND
 40
0.0
  9
$DIMAZIN
 70
     0
  9
$DIMDSEP
 70
    46
  9
$DIMATFIT
 70
     3
  9
$DIMFRAC
 70
     0
  9
$DIMLDRBLK
  1

  9
$DIMLUNIT
 70
     2
  9
$DIMLWD
 70
    -2
  9
$DIMLWE
 70
    -2
  9
$DIMTMOVE
 70
     0
  9
$LUNITS
 70
     2
  9
$LUPREC
 70
     4
  9
$SKETCHINC
 40
0.1
  9
$FILLETRAD
 40
0.5
  9
$AUNITS
 70
     0
  9
$AUPREC
 70
     0
  9
$MENU
  1
.
  9
$ELEVATION
 40
0.0
  9
$PELEVATION
 40
0.0
  9
$THICKNESS
 40
0.0
  9
$LIMCHECK
 70
     0
  9
$CHAMFERA
 40
0.5
  9
$CHAMFERB
 40
0.5
  9
$CHAMFERC
 40
1.0
  9
$CHAMFERD
 40
0.0
  9
$SKPOLY
 70
     0
  9
$TDCREATE
 40
2459968.66477522
  9
$TDUCREATE
 40
2459968.623108553
  9
$TDUPDATE
 40
2459968.664775231
  9
$TDUUPDATE
 40
2459968.623108565
  9
$TDINDWG
 40
0.0000000116
  9
$TDUSRTIMER
 40
0.0000000116
  9
$USRTIMER
 70
     1
  9
$ANGBASE
 50
0.0
  9
$ANGDIR
 70
     0
  9
$PDMODE
 70
     0
  9
$PDSIZE
 40
0.0
  9
$PLINEWID
 40
0.0
  9
$SPLFRAME
 70
     0
  9
$SPLINETYPE
 70
     6
  9
$SPLINESEGS
 70
     8
  9
$HANDSEED
  5
1AB
  9
$SURFTAB1
 70
     6
  9
$SURFTAB2
 70
     6
  9
$SURFTYPE
 70
     6
  9
$SURFU
 70
     6
  9
$SURFV
 70
     6
  9
$UCSBASE
  2

  9
$UCSNAME
  2

  9
$UCSORG
 10
0.0
 20
0.0
 30
0.0
  9
$UCSXDIR
 10
1.0
 20
0.0
 30
0.0
  9
$UCSYDIR
 10
0.0
 20
1.0
 30
0.0
  9
$UCSORTHOREF
  2

  9
$UCSORTHOVIEW
 70
     0
  9
$UCSORGTOP
 10
0.0
 20
0.0
 30
0.0
  9
$UCSORGBOTTOM
 10
0.0
 20
0.0
 30
0.0
  9
$UCSORGLEFT
 10
0.0
 20
0.0
 30
0.0
  9
$UCSORGRIGHT
 10
0.0
 20
0.0
 30
0.0
  9
$UCSORGFRONT
 10
0.0
 20
0.0
 30
0.0
  9
$UCSORGBACK
 10
0.0
 20
0.0
 30
0.0
  9
$PUCSBASE
  2

  9
$PUCSNAME
  2

  9
$PUCSORG
 10
0.0
 20
0.0
 30
0.0
  9
$PUCSXDIR
 10
1.0
 20
0.0
 30
0.0
  9
$PUCSYDIR
 10
0.0
 20
1.0
 30
0.0
  9
$PUCSORTHOREF
  2

  9
$PUCSORTHOVIEW
 70
     0
  9
$PUCSORGTOP
 10
0.0
 20
0.0
 30
0.0
  9
$PUCSORGBOTTOM
 10
0.0
 20
0.0
 30
0.0
  9
$PUCSORGLEFT
 10
0.0
 20
0.0
 30
0.0
  9
$PUCSORGRIGHT
 10
0.0
 20
0.0
 30
0.0
  9
$PUCSORGFRONT
 10
0.0
 20
0.0
 30
0.0
  9
$PUCSORGBACK
 10
0.0
 20
0.0
 30
0.0
  9
$USERI1
 70
     0
  9
$USERI2
 70
     0
  9
$USERI3
 70
     0
  9
$USERI4
 70
     0
  9
$USERI5
 70
     0
  9
$USERR1
 40
0.0
  9
$USERR2
 40
0.0
  9
$USERR3
 40
0.0
  9
$USERR4
 40
0.0
  9
$USERR5
 40
0.0
  9
$WORLDVIEW
 70
     1
  9
$SHADEDGE
 70
     3
  9
$SHADEDIF
 70
    70
  9
$TILEMODE
 70
     0
  9
$MAXACTVP
 70
    64
  9
$PINSBASE
 10
0.0
 20
0.0
 30
0.0
  9
$PLIMCHECK
 70
     0
  9
$PEXTMIN
 10
-5.66909525307001
 20
0.0
 30
0.0
  9
$PEXTMAX
 10
210.0
 20
297.0
 30
0.0
  9
$PLIMMIN
 10
-5.66909525307001
 20
0.0
  9
$PLIMMAX
 10
210.0
 20
297.0
  9
$UNITMODE
 70
     0
  9
$VISRETAIN
 70
     1
  9
$PLINEGEN
 70
     0
  9
$PSLTSCALE
 70
     0
  9
$TREEDEPTH
 70
  3020
  9
$CMLSTYLE
  2
Standard
  9
$CMLJUST
 70
     0
  9
$CMLSCALE
 40
1.0
  9
$PROXYGRAPHICS
 70
     1
  9
$MEASUREMENT
 70
     0
  9
$CELWEIGHT
370
    -1
  9
$ENDCAPS
280
     0
  9
$JOINSTYLE
280
     0
  9
$LWDISPLAY
290
     1
  9
$INSUNITS
 70
     0
  9
$HYPERLINKBASE
  1

  9
$STYLESHEET
  1

  9
$XEDIT
290
     1
  9
$CEPSNTYPE
380
     0
  9
$PSTYLEMODE
290
     1
  9
$FINGERPRINTGUID
  2
{8142F706-1E34-43D6-8179-1397857945BA}
  9
$VERSIONGUID
  2
{FAEB1C32-E019-11D5-929B-00C0DF256EC4}
  9
$EXTNAMES
290
     1
  9
$PSVPSCALE
 40
0.0
  9
$OLESTARTUP
290
     0
  9
$SORTENTS
280
   127
  9
$INDEXCTL
280
     0
  9
$HIDETEXT
280
     1
  9
$XCLIPFRAME
290
     0
  9
$HALOGAP
280
     0
  9
$OBSCOLOR
 70
   257
  9
$OBSLTYPE
280
     0
  9
$INTERSECTIONDISPLAY
280
     0
  9
$INTERSECTIONCOLOR
 70
   257
  9
$DIMASSOC
280
     2
  9
$PROJECTNAME
  1

  0
ENDSEC
  0
SECTION
  2
CLASSES
  0
CLASS
  1
ACDBDICTIONARYWDFLT
  2
AcDbDictionaryWithDefault
  3
ObjectDBX Classes
 90
        0
 91
        3
280
     0
281
     0
  0
CLASS
  1
VISUALSTYLE
  2
AcDbVisualStyle
  3
ObjectDBX Classes
 90
     4095
 91
        3
280
     0
281
     0
  0
CLASS
  1
SCALE
  2
AcDbScale
  3
ObjectDBX Classes
 90
     1153
 91
        3
280
     0
281
     0
  0
CLASS
  1
WIPEOUT
  2
AcDbWipeout
  3
WipeOut|AutoCAD Express Tool|expresstools@autodesk.com
 90
      127
 91
        3
280
     0
281
     1
  0
CLASS
  1
SPATIAL_FILTER
  2
AcDbSpatialFilter
  3
ObjectDBX Classes
 90
        0
 91
        3
280
     0
281
     0
  0
ENDSEC
  0
SECTION
  2
TABLES
  0
TABLE
  2
VPORT
  5
8
330
0
100
AcDbSymbolTable
 70
     1
  0
VPORT
  5
29
330
8
100
AcDbSymbolTableRecord
100
AcDbViewportTableRecord
  2
*Active
 70
     0
 10
0.0
 20
0.0
 11
1.0
 21
1.0
 12
10.42990654205607
 22
4.5
 13
0.0
 23
0.0
 14
0.5
 24
0.5
 15
0.5
 25
0.5
 16
0.0
 26
0.0
 36
1.0
 17
0.0
 27
0.0
 37
0.0
 40
9.0
 41
1.972972972850329
 42
50.0
 43
0.0
 44
0.0
 50
0.0
 51
0.0
 71
     0
 72
   100
 73
     1
 74
     3
 75
     0
 76
     0
 77
     0
 78
     0
281
     0
 65
     1
110
0.0
120
0.0
130
0.0
111
1.0
121
0.0
131
0.0
112
0.0
122
1.0
132
0.0
 79
     0
146
0.0
  0
ENDTAB
  0
TABLE
  2
LTYPE
  5
5
330
0
100
AcDbSymbolTable
 70
     6
  0
LTYPE
  5
14
330
5
100
AcDbSymbolTableRecord
100
AcDbLinetypeTableRecord
  2
ByBlock
 70
     0
  3

 72
    65
 73
     0
 40
0.0
  0
LTYPE
  5
15
330
5
100
AcDbSymbolTableRecord
100
AcDbLinetypeTableRecord
  2
ByLayer
 70
     0
  3

 72
    65
 73
     0
 40
0.0
  0
LTYPE
  5
16
330
5
100
AcDbSymbolTableRecord
100
AcDbLinetypeTableRecord
  2
Continuous
 70
     0
  3
Solid line
 72
    65
 73
     0
 40
0.0
  0
LTYPE
  5
81
330
5
100
AcDbSymbolTableRecord
100
AcDbLinetypeTableRecord
  2
Wipeout_Contour
 70
     0
  3
- - - - - 
 72
    65
 73
     2
 40
1000.0
 49
0.0
 74
     0
 49
-1000.0
 74
     0
  0
LTYPE
  5
11B
330
5
100
AcDbSymbolTableRecord
100
AcDbLinetypeTableRecord
  2
Przerywana b. gęsta
 70
     0
  3
- - - - - 
 72
    65
 73
     2
 40
9.000000000000002
 49
5.0
 74
     0
 49
-4.0
 74
     0
  0
LTYPE
  5
138
330
5
100
AcDbSymbolTableRecord
100
AcDbLinetypeTableRecord
  2
Krawędzie ukryte
 70
     0
  3
- - - - - 
 72
    65
 73
     2
 40
19.56111116409302
 49
14.11111116409302
 74
     0
 49
-5.449999999999995
 74
     0
  0
LTYPE
  5
156
330
5
100
AcDbSymbolTableRecord
100
AcDbLinetypeTableRecord
  2
IZOLACJA CIENKA
 70
     0
  3
??????????
 72
    65
 73
     3
 40
20.0
 49
0.0
 74
     4
 75
     1
340
157
 46
0.1587301587301587
 50
0.0
 44
0.0
 45
0.0
 49
-20.0
 74
     0
 49
0.0
 74
     0
  0
LTYPE
  5
188
330
5
100
AcDbSymbolTableRecord
100
AcDbLinetypeTableRecord
  2
Przerywana gęsta
 70
     0
  3
- - - - - 
 72
    65
 73
     2
 40
15.0
 49
10.0
 74
     0
 49
-5.0
 74
     0
  0
ENDTAB
  0
TABLE
  2
LAYER
  5
2
330
0
100
AcDbSymbolTable
 70
     4
  0
LAYER
  5
10
330
2
100
AcDbSymbolTableRecord
100
AcDbLayerTableRecord
  2
0
 70
     0
 62
     7
  6
Continuous
370
    -3
390
F
  0
LAYER
  5
5F
330
2
100
AcDbSymbolTableRecord
100
AcDbLayerTableRecord
  2
@__WIDOCZNE
 70
     0
 62
     7
  6
Continuous
370
    -3
390
F
  0
LAYER
  5
159
330
2
100
AcDbSymbolTableRecord
100
AcDbLayerTableRecord
  2
Linia Izolacji - ARCHICAD
 70
     0
 62
     7
  6
Continuous
370
    -3
390
F
  0
LAYER
  5
1A2
330
2
100
AcDbSymbolTableRecord
100
AcDbLayerTableRecord
  2
NonPlottable_0
 70
     0
 62
     7
  6
Continuous
290
     0
370
    -3
390
F
  0
ENDTAB
  0
TABLE
  2
STYLE
  5
3
330
0
100
AcDbSymbolTable
 70
     4
  0
STYLE
  5
11
330
3
100
AcDbSymbolTableRecord
100
AcDbTextStyleTableRecord
  2
Standard
 70
     0
 40
0.0
 41
1.0
 50
0.0
 71
     0
 42
0.2
  3
txt
  4
BIGFONT.SHX
  0
STYLE
  5
8B
330
3
100
AcDbSymbolTableRecord
100
AcDbTextStyleTableRecord
  2
GENERATED_STYLE_1
 70
     0
 40
0.0
 41
1.0
 50
0.0
 71
     0
 42
0.2
  3

  4

1001
ACAD
1000
Arial
1071
    60966
  0
STYLE
  5
157
330
3
100
AcDbSymbolTableRecord
100
AcDbTextStyleTableRecord
  2

 70
     1
 40
0.2
 41
1.0
 50
0.0
 71
     0
 42
0.2
  3
08.02.01_BASEN stal_2301231.Shx
  4

  0
STYLE
  5
16F
330
3
100
AcDbSymbolTableRecord
100
AcDbTextStyleTableRecord
  2
GENERATED_STYLE_2
 70
     0
 40
0.0
 41
1.0
 50
0.0
 71
     0
 42
0.2
  3

  4

1001
ACAD
1000
Arial
1071
 33615398
  0
ENDTAB
  0
TABLE
  2
VIEW
  5
6
330
0
100
AcDbSymbolTable
 70
     0
  0
ENDTAB
  0
TABLE
  2
UCS
  5
7
330
0
100
AcDbSymbolTable
 70
     0
  0
ENDTAB
  0
TABLE
  2
APPID
  5
9
330
0
100
AcDbSymbolTable
 70
     1
  0
APPID
  5
12
330
9
100
AcDbSymbolTableRecord
100
AcDbRegAppTableRecord
  2
ACAD
 70
     0
  0
ENDTAB
  0
TABLE
  2
DIMSTYLE
  5
A
330
0
100
AcDbSymbolTable
 70
     1
100
AcDbDimStyleTable
  0
DIMSTYLE
105
27
330
A
100
AcDbSymbolTableRecord
100
AcDbDimStyleTableRecord
  2
Standard
 70
     0
340
11
  0
ENDTAB
  0
TABLE
  2
BLOCK_RECORD
  5
1
330
0
100
AcDbSymbolTable
 70
    14
  0
BLOCK_RECORD
  5
1F
330
1
100
AcDbSymbolTableRecord
100
AcDbBlockTableRecord
  2
*Model_Space
340
22
  0
BLOCK_RECORD
  5
1B
330
1
100
AcDbSymbolTableRecord
100
AcDbBlockTableRecord
  2
*Paper_Space
340
1E
  0
BLOCK_RECORD
  5
23
330
1
100
AcDbSymbolTableRecord
100
AcDbBlockTableRecord
  2
*Paper_Space0
340
26
  0
BLOCK_RECORD
  5
87
330
1
100
AcDbSymbolTableRecord
100
AcDbBlockTableRecord
  2
Sygnał termostatu 12
340
0
102
{BLKREFS
331
8D
331
9A
102
}
  0
BLOCK_RECORD
  5
90
330
1
100
AcDbSymbolTableRecord
100
AcDbBlockTableRecord
  2
InsulFib_zygzak 65
340
0
102
{BLKREFS
331
99
102
}
  0
BLOCK_RECORD
  5
9D
330
1
100
AcDbSymbolTableRecord
100
AcDbBlockTableRecord
  2
Sygnał termostatu 12_2
340
0
102
{BLKREFS
331
A2
331
BD
102
}
  0
BLOCK_RECORD
  5
A5
330
1
100
AcDbSymbolTableRecord
100
AcDbBlockTableRecord
  2
Sygnał termostatu 12_3
340
0
102
{BLKREFS
331
AA
331
E7
102
}
  0
BLOCK_RECORD
  5
AD
330
1
100
AcDbSymbolTableRecord
100
AcDbBlockTableRecord
  2
Sygnał termostatu 12_4
340
0
102
{BLKREFS
331
B2
331
C0
102
}
  0
BLOCK_RECORD
  5
B5
330
1
100
AcDbSymbolTableRecord
100
AcDbBlockTableRecord
  2
Sygnał termostatu 12_5
340
0
102
{BLKREFS
331
BA
331
CB
102
}
  0
BLOCK_RECORD
  5
C3
330
1
100
AcDbSymbolTableRecord
100
AcDbBlockTableRecord
  2
Sygnał termostatu 12_6
340
0
102
{BLKREFS
331
C8
331
CE
102
}
  0
BLOCK_RECORD
  5
D1
330
1
100
AcDbSymbolTableRecord
100
AcDbBlockTableRecord
  2
InsulFib_zygzak 65_2
340
0
102
{BLKREFS
331
E6
102
}
  0
BLOCK_RECORD
  5
EA
330
1
100
AcDbSymbolTableRecord
100
AcDbBlockTableRecord
  2
Sygnał termostatu 12_7
340
0
102
{BLKREFS
331
EF
331
F2
102
}
  0
BLOCK_RECORD
  5
F5
330
1
100
AcDbSymbolTableRecord
100
AcDbBlockTableRecord
  2
Sygnał termostatu 12_8
340
0
102
{BLKREFS
331
FA
331
FD
102
}
  0
BLOCK_RECORD
  5
196
330
1
100
AcDbSymbolTableRecord
100
AcDbBlockTableRecord
  2
Bez nazwy_STORY_MARKER
340
0
  0
BLOCK_RECORD
  5
199
330
1
100
AcDbSymbolTableRecord
100
AcDbBlockTableRecord
  2
Rysunek_1
340
0
102
{BLKREFS
331
19D
102
}
  0
BLOCK_RECORD
  5
1A4
330
1
100
AcDbSymbolTableRecord
100
AcDbBlockTableRecord
  2
A.01 08.02.01_BASEN stal_STORY_MARKER
340
0
  0
ENDTAB
  0
ENDSEC
  0
SECTION
  2
BLOCKS
  0
BLOCK
  5
20
330
1F
100
AcDbEntity
  8
0
100
AcDbBlockBegin
  2
*Model_Space
 70
     0
 10
0.0
 20
0.0
 30
0.0
  3
*Model_Space
  1

  0
ENDBLK
  5
21
330
1F
100
AcDbEntity
  8
0
100
AcDbBlockEnd
  0
BLOCK
  5
1C
330
1B
100
AcDbEntity
 67
     1
  8
0
100
AcDbBlockBegin
  2
*Paper_Space
 70
     0
 10
0.0
 20
0.0
 30
0.0
  3
*Paper_Space
  1

  0
ENDBLK
  5
1D
330
1B
100
AcDbEntity
 67
     1
  8
0
100
AcDbBlockEnd
  0
BLOCK
  5
24
330
23
100
AcDbEntity
  8
0
100
AcDbBlockBegin
  2
*Paper_Space0
 70
     0
 10
0.0
 20
0.0
 30
0.0
  3
*Paper_Space0
  1

  0
ENDBLK
  5
25
330
23
100
AcDbEntity
  8
0
100
AcDbBlockEnd
  0
BLOCK
  5
88
330
87
100
AcDbEntity
  8
0
100
AcDbBlockBegin
  2
Sygnał termostatu 12
 70
     2
 10
0.0
 20
0.0
 30
0.0
  3
Sygnał termostatu 12
  1

  0
CIRCLE
  5
8A
330
87
100
AcDbEntity
  8
@__WIDOCZNE
  6
Continuous
370
    13
100
AcDbCircle
 10
0.0
 20
0.0
 30
0.0
 40
15.0
  0
ATTDEF
  5
8C
330
87
100
AcDbEntity
  8
@__WIDOCZNE
370
    13
100
AcDbText
 10
-10.70832499999996
 20
-6.249182936508113
 30
0.0
 40
14.11111111111111
  1
01
  7
GENERATED_STYLE_1
 11
-10.70832499999996
 21
-10.41967772817478
 31
0.0
100
AcDbAttributeDefinition
  3
Tekst
  2
txt
 70
     0
 74
     1
  0
ENDBLK
  5
89
330
87
100
AcDbEntity
  8
0
100
AcDbBlockEnd
  0
BLOCK
  5
91
330
90
100
AcDbEntity
  8
0
100
AcDbBlockBegin
  2
InsulFib_zygzak 65
 70
     0
 10
0.0
 20
0.0
 30
0.0
  3
InsulFib_zygzak 65
  1

  0
LINE
  5
93
330
90
100
AcDbEntity
  8
0
  6
Continuous
370
    13
100
AcDbLine
 10
0.0
 20
0.0
 30
0.0
 11
37.30765132623673
 21
194.3740141837278
 31
0.0
  0
LINE
  5
94
330
90
100
AcDbEntity
  8
0
  6
Continuous
370
    13
100
AcDbLine
 10
37.30765132623673
 20
194.3740141837278
 30
0.0
 11
74.61524810982463
 21
0.0000348703750728
 31
0.0
  0
LINE
  5
95
330
90
100
AcDbEntity
  8
0
  6
Continuous
370
    13
100
AcDbLine
 10
74.61687420339733
 20
0.0
 30
0.0
 11
111.9245255296341
 21
194.3740141837278
 31
0.0
  0
LINE
  5
96
330
90
100
AcDbEntity
  8
0
  6
Continuous
370
    13
100
AcDbLine
 10
111.9245255296341
 20
194.3740141837278
 30
0.0
 11
149.232122313222
 21
0.0000348703750728
 31
0.0
  0
LINE
  5
97
330
90
100
AcDbEntity
  8
0
  6
Continuous
370
    13
100
AcDbLine
 10
149.2337484067947
 20
0.0
 30
0.0
 11
186.5413997330314
 21
194.3740141837278
 31
0.0
  0
LINE
  5
98
330
90
100
AcDbEntity
  8
0
  6
Continuous
370
    13
100
AcDbLine
 10
186.5413997330314
 20
194.3740141837278
 30
0.0
 11
223.8489965166193
 21
0.0000348703750728
 31
0.0
  0
ENDBLK
  5
92
330
90
100
AcDbEntity
  8
0
100
AcDbBlockEnd
  0
BLOCK
  5
9E
330
9D
100
AcDbEntity
  8
0
100
AcDbBlockBegin
  2
Sygnał termostatu 12_2
 70
     2
 10
0.0
 20
0.0
 30
0.0
  3
Sygnał termostatu 12_2
  1

  0
CIRCLE
  5
A0
330
9D
100
AcDbEntity
  8
@__WIDOCZNE
  6
Continuous
370
    13
100
AcDbCircle
 10
0.0
 20
0.0
 30
0.0
 40
15.0
  0
ATTDEF
  5
A1
330
9D
100
AcDbEntity
  8
@__WIDOCZNE
370
    13
100
AcDbText
 10
-10.70832499999996
 20
-6.249182936508113
 30
0.0
 40
14.11111111111111
  1
02
  7
GENERATED_STYLE_1
 11
-10.70832499999996
 21
-10.41967772817478
 31
0.0
100
AcDbAttributeDefinition
  3
Tekst
  2
txt
 70
     0
 74
     1
  0
ENDBLK
  5
9F
330
9D
100
AcDbEntity
  8
0
100
AcDbBlockEnd
  0
BLOCK
  5
A6
330
A5
100
AcDbEntity
  8
0
100
AcDbBlockBegin
  2
Sygnał termostatu 12_3
 70
     2
 10
0.0
 20
0.0
 30
0.0
  3
Sygnał termostatu 12_3
  1

  0
CIRCLE
  5
A8
330
A5
100
AcDbEntity
  8
@__WIDOCZNE
  6
Continuous
370
    13
100
AcDbCircle
 10
0.0
 20
0.0
 30
0.0
 40
15.0
  0
ATTDEF
  5
A9
330
A5
100
AcDbEntity
  8
@__WIDOCZNE
370
    13
100
AcDbText
 10
-10.70832499999996
 20
-6.249182936508113
 30
0.0
 40
14.11111111111111
  1
03
  7
GENERATED_STYLE_1
 11
-10.70832499999996
 21
-10.41967772817478
 31
0.0
100
AcDbAttributeDefinition
  3
Tekst
  2
txt
 70
     0
 74
     1
  0
ENDBLK
  5
A7
330
A5
100
AcDbEntity
  8
0
100
AcDbBlockEnd
  0
BLOCK
  5
AE
330
AD
100
AcDbEntity
  8
0
100
AcDbBlockBegin
  2
Sygnał termostatu 12_4
 70
     2
 10
0.0
 20
0.0
 30
0.0
  3
Sygnał termostatu 12_4
  1

  0
CIRCLE
  5
B0
330
AD
100
AcDbEntity
  8
@__WIDOCZNE
  6
Continuous
370
    13
100
AcDbCircle
 10
0.0
 20
0.0
 30
0.0
 40
15.0
  0
ATTDEF
  5
B1
330
AD
100
AcDbEntity
  8
@__WIDOCZNE
370
    13
100
AcDbText
 10
-10.70832499999996
 20
-6.249182936508113
 30
0.0
 40
14.11111111111111
  1
04
  7
GENERATED_STYLE_1
 11
-10.70832499999996
 21
-10.41967772817478
 31
0.0
100
AcDbAttributeDefinition
  3
Tekst
  2
txt
 70
     0
 74
     1
  0
ENDBLK
  5
AF
330
AD
100
AcDbEntity
  8
0
100
AcDbBlockEnd
  0
BLOCK
  5
B6
330
B5
100
AcDbEntity
  8
0
100
AcDbBlockBegin
  2
Sygnał termostatu 12_5
 70
     2
 10
0.0
 20
0.0
 30
0.0
  3
Sygnał termostatu 12_5
  1

  0
CIRCLE
  5
B8
330
B5
100
AcDbEntity
  8
@__WIDOCZNE
  6
Continuous
370
    13
100
AcDbCircle
 10
0.0
 20
0.0
 30
0.0
 40
15.0
  0
ATTDEF
  5
B9
330
B5
100
AcDbEntity
  8
@__WIDOCZNE
370
    13
100
AcDbText
 10
-10.70832499999996
 20
-6.249182936508113
 30
0.0
 40
14.11111111111111
  1
a1
  7
GENERATED_STYLE_1
 11
-10.70832499999996
 21
-10.41967772817478
 31
0.0
100
AcDbAttributeDefinition
  3
Tekst
  2
txt
 70
     0
 74
     1
  0
ENDBLK
  5
B7
330
B5
100
AcDbEntity
  8
0
100
AcDbBlockEnd
  0
BLOCK
  5
C4
330
C3
100
AcDbEntity
  8
0
100
AcDbBlockBegin
  2
Sygnał termostatu 12_6
 70
     2
 10
0.0
 20
0.0
 30
0.0
  3
Sygnał termostatu 12_6
  1

  0
CIRCLE
  5
C6
330
C3
100
AcDbEntity
  8
@__WIDOCZNE
  6
Continuous
370
    13
100
AcDbCircle
 10
0.0
 20
0.0
 30
0.0
 40
15.0
  0
ATTDEF
  5
C7
330
C3
100
AcDbEntity
  8
@__WIDOCZNE
370
    13
100
AcDbText
 10
-10.70832499999996
 20
-6.249182936508113
 30
0.0
 40
14.11111111111111
  1
a2
  7
GENERATED_STYLE_1
 11
-10.70832499999996
 21
-10.41967772817478
 31
0.0
100
AcDbAttributeDefinition
  3
Tekst
  2
txt
 70
     0
 74
     1
  0
ENDBLK
  5
C5
330
C3
100
AcDbEntity
  8
0
100
AcDbBlockEnd
  0
BLOCK
  5
D2
330
D1
100
AcDbEntity
  8
0
100
AcDbBlockBegin
  2
InsulFib_zygzak 65_2
 70
     0
 10
0.0
 20
0.0
 30
0.0
  3
InsulFib_zygzak 65_2
  1

  0
LINE
  5
D4
330
D1
100
AcDbEntity
  8
0
  6
Continuous
370
    13
100
AcDbLine
 10
0.0
 20
0.0
 30
0.0
 11
14.59152322379737
 21
69.99999860466703
 31
0.0
  0
LINE
  5
D5
330
D1
100
AcDbEntity
  8
0
  6
Continuous
370
    13
100
AcDbLine
 10
14.59152322379737
 20
69.99999860466703
 30
0.0
 11
29.18302511523265
 21
0.0000125578834017
 31
0.0
  0
LINE
  5
D6
330
D1
100
AcDbEntity
  8
0
  6
Continuous
370
    13
100
AcDbLine
 10
29.1836611022564
 20
0.0
 30
0.0
 11
43.77518432605377
 21
69.99999860466703
 31
0.0
  0
LINE
  5
D7
330
D1
100
AcDbEntity
  8
0
  6
Continuous
370
    13
100
AcDbLine
 10
43.77518432605377
 20
69.99999860466703
 30
0.0
 11
58.36668621748904
 21
0.0000125578834017
 31
0.0
  0
LINE
  5
D8
330
D1
100
AcDbEntity
  8
0
  6
Continuous
370
    13
100
AcDbLine
 10
58.3673222045128
 20
0.0
 30
0.0
 11
72.95884542831016
 21
69.99999860466703
 31
0.0
  0
LINE
  5
D9
330
D1
100
AcDbEntity
  8
0
  6
Continuous
370
    13
100
AcDbLine
 10
72.95884542831016
 20
69.99999860466703
 30
0.0
 11
87.55034731974544
 21
0.0000125578834017
 31
0.0
  0
LINE
  5
DA
330
D1
100
AcDbEntity
  8
0
  6
Continuous
370
    13
100
AcDbLine
 10
87.5509833067692
 20
0.0
 30
0.0
 11
102.1425065305665
 21
69.99999860466703
 31
0.0
  0
LINE
  5
DB
330
D1
100
AcDbEntity
  8
0
  6
Continuous
370
    13
100
AcDbLine
 10
102.1425065305665
 20
69.99999860466703
 30
0.0
 11
116.7340084220018
 21
0.0000125578834017
 31
0.0
  0
LINE
  5
DC
330
D1
100
AcDbEntity
  8
0
  6
Continuous
370
    13
100
AcDbLine
 10
116.7346444090256
 20
0.0
 30
0.0
 11
131.3261676328229
 21
69.99999860466703
 31
0.0
  0
LINE
  5
DD
330
D1
100
AcDbEntity
  8
0
  6
Continuous
370
    13
100
AcDbLine
 10
131.3261676328229
 20
69.99999860466703
 30
0.0
 11
145.9176695242583
 21
0.0000125578834017
 31
0.0
  0
LINE
  5
DE
330
D1
100
AcDbEntity
  8
0
  6
Continuous
370
    13
100
AcDbLine
 10
145.918305511282
 20
0.0
 30
0.0
 11
160.5098287350793
 21
69.99999860466703
 31
0.0
  0
LINE
  5
DF
330
D1
100
AcDbEntity
  8
0
  6
Continuous
370
    13
100
AcDbLine
 10
160.5098287350793
 20
69.99999860466703
 30
0.0
 11
175.1013306265147
 21
0.0000125578834017
 31
0.0
  0
LINE
  5
E0
330
D1
100
AcDbEntity
  8
0
  6
Continuous
370
    13
100
AcDbLine
 10
175.1019666135384
 20
0.0
 30
0.0
 11
189.6934898373358
 21
69.99999860466703
 31
0.0
  0
LINE
  5
E1
330
D1
100
AcDbEntity
  8
0
  6
Continuous
370
    13
100
AcDbLine
 10
189.6934898373358
 20
69.99999860466703
 30
0.0
 11
204.284991728771
 21
0.0000125578834017
 31
0.0
  0
LINE
  5
E2
330
D1
100
AcDbEntity
  8
0
  6
Continuous
370
    13
100
AcDbLine
 10
204.2856277157948
 20
0.0
 30
0.0
 11
218.8771509395922
 21
69.99999860466703
 31
0.0
  0
LINE
  5
E3
330
D1
100
AcDbEntity
  8
0
  6
Continuous
370
    13
100
AcDbLine
 10
218.8771509395922
 20
69.99999860466703
 30
0.0
 11
233.4686528310274
 21
0.0000125578834017
 31
0.0
  0
LINE
  5
E4
330
D1
100
AcDbEntity
  8
0
  6
Continuous
370
    13
100
AcDbLine
 10
233.4692888180512
 20
0.0
 30
0.0
 11
248.0608120418485
 21
69.99999860466703
 31
0.0
  0
LINE
  5
E5
330
D1
100
AcDbEntity
  8
0
  6
Continuous
370
    13
100
AcDbLine
 10
248.0608120418485
 20
69.99999860466703
 30
0.0
 11
262.6523139332838
 21
0.0000125578834017
 31
0.0
  0
ENDBLK
  5
D3
330
D1
100
AcDbEntity
  8
0
100
AcDbBlockEnd
  0
BLOCK
  5
EB
330
EA
100
AcDbEntity
  8
0
100
AcDbBlockBegin
  2
Sygnał termostatu 12_7
 70
     2
 10
0.0
 20
0.0
 30
0.0
  3
Sygnał termostatu 12_7
  1

  0
CIRCLE
  5
ED
330
EA
100
AcDbEntity
  8
@__WIDOCZNE
  6
Continuous
370
    13
100
AcDbCircle
 10
0.0
 20
0.0
 30
0.0
 40
15.0
  0
ATTDEF
  5
EE
330
EA
100
AcDbEntity
  8
@__WIDOCZNE
370
    13
100
AcDbText
 10
-10.70832499999996
 20
-6.249182936508113
 30
0.0
 40
14.11111111111111
  1
a3
  7
GENERATED_STYLE_1
 11
-10.70832499999996
 21
-10.41967772817478
 31
0.0
100
AcDbAttributeDefinition
  3
Tekst
  2
txt
 70
     0
 74
     1
  0
ENDBLK
  5
EC
330
EA
100
AcDbEntity
  8
0
100
AcDbBlockEnd
  0
BLOCK
  5
F6
330
F5
100
AcDbEntity
  8
0
100
AcDbBlockBegin
  2
Sygnał termostatu 12_8
 70
     2
 10
0.0
 20
0.0
 30
0.0
  3
Sygnał termostatu 12_8
  1

  0
CIRCLE
  5
F8
330
F5
100
AcDbEntity
  8
@__WIDOCZNE
  6
Continuous
370
    13
100
AcDbCircle
 10
0.0
 20
0.0
 30
0.0
 40
15.0
  0
ATTDEF
  5
F9
330
F5
100
AcDbEntity
  8
@__WIDOCZNE
370
    13
100
AcDbText
 10
-10.70832499999996
 20
-6.249182936508113
 30
0.0
 40
14.11111111111111
  1
05
  7
GENERATED_STYLE_1
 11
-10.70832499999996
 21
-10.41967772817478
 31
0.0
100
AcDbAttributeDefinition
  3
Tekst
  2
txt
 70
     0
 74
     1
  0
ENDBLK
  5
F7
330
F5
100
AcDbEntity
  8
0
100
AcDbBlockEnd
  0
BLOCK
  5
197
330
196
100
AcDbEntity
  8
0
100
AcDbBlockBegin
  2
Bez nazwy_STORY_MARKER
 70
     0
 10
0.0
 20
0.0
 30
0.0
  3
Bez nazwy_STORY_MARKER
  1

  0
ENDBLK
  5
198
330
196
100
AcDbEntity
  8
0
100
AcDbBlockEnd
  0
BLOCK
  5
19A
330
199
100
AcDbEntity
  8
0
100
AcDbBlockBegin
  2
Rysunek_1
 70
     0
 10
0.0
 20
0.0
 30
0.0
  3
Rysunek_1
  1

  0
MTEXT
  5
19C
330
199
100
AcDbEntity
  8
@__WIDOCZNE
  6
Continuous
370
    13
100
AcDbMText
 10
-3.169952395927154
 20
5.064292155233355
 30
0.0
 40
1.999999999999999
 41
0.0
 71
     7
 72
     1
  1
{druk:230123 }
  7
GENERATED_STYLE_1
 11
6.123233995736766E-17
 21
1.0
 31
0.0
 73
     1
 44
1.0
  0
ENDBLK
  5
19B
330
199
100
AcDbEntity
  8
0
100
AcDbBlockEnd
  0
BLOCK
  5
1A5
330
1A4
100
AcDbEntity
  8
0
100
AcDbBlockBegin
  2
A.01 08.02.01_BASEN stal_STORY_MARKER
 70
     0
 10
0.0
 20
0.0
 30
0.0
  3
A.01 08.02.01_BASEN stal_STORY_MARKER
  1

  0
ENDBLK
  5
1A6
330
1A4
100
AcDbEntity
  8
0
100
AcDbBlockEnd
  0
ENDSEC
  0
SECTION
  2
ENTITIES
  0
HATCH
  5
5E
330
1F
100
AcDbEntity
  8
@__WIDOCZNE
  6
Continuous
 62
   142
370
    13
100
AcDbHatch
 10
0.0
 20
0.0
 30
0.0
210
0.0
220
0.0
230
1.0
  2
SOLID
 70
     1
 71
     1
 91
        1
 92
        2
 72
     1
 73
     1
 93
        6
 10
-1173.661764398558
 20
569.1191553354776
 42
0.0
 10
-1173.661764398558
 20
581.4082665233467
 42
0.0
 10
-1185.950875586427
 20
581.4082665233467
 42
0.414213562373095
 10
-1200.697809011871
 20
566.6613330979043
 42
0.0
 10
-1200.697809011871
 20
554.3722219100351
 42
0.0
 10
-1188.408697824001
 20
554.3722219100351
 42
0.414213562373095
 97
        1
330
60
 75
     0
 76
     1
 98
        0
  0
LWPOLYLINE
  5
60
102
{ACAD_REACTORS
330
5E
102
}
330
1F
100
AcDbEntity
  8
@__WIDOCZNE
  6
Continuous
 62
   142
370
    13
100
AcDbPolyline
 90
        6
 70
   129
 43
0.0
 10
-1173.661764398558
 20
569.1191553354776
 10
-1173.661764398558
 20
581.4082665233467
 10
-1185.950875586427
 20
581.4082665233467
 42
0.414213562373095
 10
-1200.697809011871
 20
566.6613330979043
 10
-1200.697809011871
 20
554.3722219100351
 10
-1188.408697824001
 20
554.3722219100351
 42
0.414213562373095
  0
HATCH
  5
61
330
1F
100
AcDbEntity
  8
@__WIDOCZNE
  6
Continuous
370
    13
100
AcDbHatch
 10
0.0
 20
0.0
 30
0.0
210
0.0
220
0.0
230
1.0
  2
SOLID
 70
     1
 71
     1
 91
        3
 92
        2
 72
     1
 73
     1
 93
        8
 10
-1400.965259216787
 20
554.7797329701854
 42
0.0723831287448308
 10
-1418.801211958055
 20
554.6276587015064
 42
0.0
 10
-1418.801211958055
 20
520.3123169614403
 42
0.0475754375093521
 10
-1409.156003255648
 20
519.2604277697482
 42
0.0
 10
-1407.771273220438
 20
519.2604277697482
 42
0.0201526900432898
 10
-1403.659729998148
 20
519.482047158937
 42
0.1117820670402823
 10
-1394.893248896082
 20
522.2513231255355
 42
0.5989391739264164
 10
-1397.802685589712
 20
538.6893586488228
 42
0.7144612958116017
 97
        1
330
62
 92
        2
 72
     1
 73
     1
 93
        4
 10
-1412.384082104109
 20
540.7239929752496
 42
0.018587651104709
 10
-1403.585817116705
 20
540.7324645067392
 42
0.8637728306683231
 10
-1403.84236196068
 20
549.8727389156737
 42
0.0363046036528515
 10
-1412.384082104109
 20
549.8727389156737
 42
0.0
 97
        1
330
63
 92
        2
 72
     1
 73
     1
 93
        4
 10
-1412.284876745285
 20
524.8476668447024
 42
0.0570602598095221
 10
-1403.214419603571
 20
524.9352034139871
 42
0.9504624262000833
 10
-1403.309566746856
 20
535.6006952486127
 42
0.0333151677067815
 10
-1412.284876745285
 20
535.6006952486127
 42
0.0
 97
        1
330
64
 75
     0
 76
     1
 98
        0
  0
LWPOLYLINE
  5
62
102
{ACAD_REACTORS
330
61
102
}
330
1F
100
AcDbEntity
  8
@__WIDOCZNE
  6
Continuous
370
    13
100
AcDbPolyline
 90
        8
 70
   129
 43
0.0
 10
-1400.965259216787
 20
554.7797329701854
 42
0.0723831287448308
 10
-1418.801211958055
 20
554.6276587015064
 10
-1418.801211958055
 20
520.3123169614403
 42
0.0475754375093521
 10
-1409.156003255648
 20
519.2604277697482
 10
-1407.771273220438
 20
519.2604277697482
 42
0.0201526900432898
 10
-1403.659729998148
 20
519.482047158937
 42
0.1117820670402823
 10
-1394.893248896082
 20
522.2513231255355
 42
0.5989391739264164
 10
-1397.802685589712
 20
538.6893586488228
 42
0.7144612958116017
  0
LWPOLYLINE
  5
63
102
{ACAD_REACTORS
330
61
102
}
330
1F
100
AcDbEntity
  8
@__WIDOCZNE
  6
Continuous
370
    13
100
AcDbPolyline
 90
        4
 70
   129
 43
0.0
 10
-1412.384082104109
 20
540.7239929752496
 42
0.018587651104709
 10
-1403.585817116705
 20
540.7324645067392
 42
0.8637728306683231
 10
-1403.84236196068
 20
549.8727389156737
 42
0.0363046036528515
 10
-1412.384082104109
 20
549.8727389156737
  0
LWPOLYLINE
  5
64
102
{ACAD_REACTORS
330
61
102
}
330
1F
100
AcDbEntity
  8
@__WIDOCZNE
  6
Continuous
370
    13
100
AcDbPolyline
 90
        4
 70
   129
 43
0.0
 10
-1412.284876745285
 20
524.8476668447024
 42
0.0570602598095221
 10
-1403.214419603571
 20
524.9352034139871
 42
0.9504624262000833
 10
-1403.309566746856
 20
535.6006952486127
 42
0.0333151677067815
 10
-1412.284876745285
 20
535.6006952486127
  0
HATCH
  5
65
330
1F
100
AcDbEntity
  8
@__WIDOCZNE
  6
Continuous
370
    13
100
AcDbHatch
 10
0.0
 20
0.0
 30
0.0
210
0.0
220
0.0
230
1.0
  2
SOLID
 70
     1
 71
     1
 91
        1
 92
        2
 72
     1
 73
     1
 93
       12
 10
-1343.362127138828
 20
546.9246446504319
 42
0.0
 10
-1351.322836876563
 20
546.9246446504319
 42
0.0
 10
-1351.322836876563
 20
554.6675489681661
 42
0.0
 10
-1357.462469223311
 20
553.418810185776
 42
0.0
 10
-1357.462469223311
 20
527.8925546297102
 42
0.3686923280690939
 10
-1348.83039380258
 20
519.2902280601588
 42
0.0
 10
-1342.607147729752
 20
519.3117124113982
 42
0.0
 10
-1341.280895834846
 20
525.1140644516123
 42
0.0
 10
-1347.636103520202
 20
525.1140644516123
 42
-0.3159610186060354
 10
-1351.322836876563
 20
528.8007978079734
 42
0.0
 10
-1351.322836876563
 20
541.191576274878
 42
0.0
 10
-1343.362127138828
 20
541.191576274878
 42
0.0
 97
        1
330
66
 75
     0
 76
     1
 98
        0
  0
LWPOLYLINE
  5
66
102
{ACAD_REACTORS
330
65
102
}
330
1F
100
AcDbEntity
  8
@__WIDOCZNE
  6
Continuous
370
    13
100
AcDbPolyline
 90
       12
 70
   129
 43
0.0
 10
-1343.362127138828
 20
546.9246446504319
 10
-1351.322836876563
 20
546.9246446504319
 10
-1351.322836876563
 20
554.6675489681661
 10
-1357.462469223311
 20
553.418810185776
 10
-1357.462469223311
 20
527.8925546297102
 42
0.3686923280690939
 10
-1348.83039380258
 20
519.2902280601588
 10
-1342.607147729752
 20
519.3117124113982
 10
-1341.280895834846
 20
525.1140644516123
 10
-1347.636103520202
 20
525.1140644516123
 42
-0.3159610186060354
 10
-1351.322836876563
 20
528.8007978079734
 10
-1351.322836876563
 20
541.191576274878
 10
-1343.362127138828
 20
541.191576274878
  0
HATCH
  5
67
330
1F
100
AcDbEntity
  8
@__WIDOCZNE
  6
Continuous
370
    13
100
AcDbHatch
 10
0.0
 20
0.0
 30
0.0
210
0.0
220
0.0
230
1.0
  2
SOLID
 70
     1
 71
     1
 91
        2
 92
        2
 72
     1
 73
     1
 93
       14
 10
-1326.350242683204
 20
541.0243623385835
 42
-0.387209016979461
 10
-1322.482494633415
 20
536.966150323996
 42
0.0
 10
-1322.447933988236
 20
535.4310532091303
 42
0.1185067504646354
 10
-1331.33498900496
 20
535.511114018952
 42
0.2642193030162518
 10
-1337.693545021077
 20
530.463894082454
 42
0.1757337626801403
 10
-1337.701233303327
 20
524.8752086095028
 42
0.2604621029539542
 10
-1331.563009360793
 20
519.4153267235495
 42
0.0083652857947627
 10
-1329.790914102349
 20
519.2604277697482
 42
0.0
 10
-1322.305219604305
 20
519.2604277697482
 42
0.028992295246684
 10
-1316.19557706082
 20
520.0494110030891
 42
0.0
 10
-1316.509024303064
 20
537.3822075566142
 42
0.4278697545607686
 10
-1325.2179291332
 20
546.5818851541992
 42
0.0
 10
-1333.944645229886
 20
546.6185197361146
 42
0.0
 10
-1335.32555268163
 20
541.0243623385835
 42
0.0
 97
        1
330
68
 92
        2
 72
     1
 73
     1
 93
        6
 10
-1322.393032249823
 20
531.178661732983
 42
0.1273826308893613
 10
-1329.184151102893
 20
531.3534629016599
 42
0.2091253650713026
 10
-1331.86812084089
 20
528.8056642870314
 42
0.067218802794298
 10
-1331.836591616894
 20
526.8518949833884
 42
0.2977682718343915
 10
-1329.076415021375
 20
524.0143748827193
 42
0.0710664823309622
 10
-1322.393032249823
 20
524.0274401662033
 42
0.0
 97
        1
330
69
 75
     0
 76
     1
 98
        0
  0
LWPOLYLINE
  5
68
102
{ACAD_REACTORS
330
67
102
}
330
1F
100
AcDbEntity
  8
@__WIDOCZNE
  6
Continuous
370
    13
100
AcDbPolyline
 90
       14
 70
   129
 43
0.0
 10
-1326.350242683204
 20
541.0243623385835
 42
-0.387209016979461
 10
-1322.482494633415
 20
536.966150323996
 10
-1322.447933988236
 20
535.4310532091303
 42
0.1185067504646354
 10
-1331.33498900496
 20
535.511114018952
 42
0.2642193030162518
 10
-1337.693545021077
 20
530.463894082454
 42
0.1757337626801403
 10
-1337.701233303327
 20
524.8752086095028
 42
0.2604621029539542
 10
-1331.563009360793
 20
519.4153267235495
 42
0.0083652857947627
 10
-1329.790914102349
 20
519.2604277697482
 10
-1322.305219604305
 20
519.2604277697482
 42
0.028992295246684
 10
-1316.19557706082
 20
520.0494110030891
 10
-1316.509024303064
 20
537.3822075566142
 42
0.4278697545607686
 10
-1325.2179291332
 20
546.5818851541992
 10
-1333.944645229886
 20
546.6185197361146
 10
-1335.32555268163
 20
541.0243623385835
  0
LWPOLYLINE
  5
69
102
{ACAD_REACTORS
330
67
102
}
330
1F
100
AcDbEntity
  8
@__WIDOCZNE
  6
Continuous
370
    13
100
AcDbPolyline
 90
        6
 70
   129
 43
0.0
 10
-1322.393032249823
 20
531.178661732983
 42
0.1273826308893613
 10
-1329.184151102893
 20
531.3534629016599
 42
0.2091253650713026
 10
-1331.86812084089
 20
528.8056642870314
 42
0.067218802794298
 10
-1331.836591616894
 20
526.8518949833884
 42
0.2977682718343915
 10
-1329.076415021375
 20
524.0143748827193
 42
0.0710664823309622
 10
-1322.393032249823
 20
524.0274401662033
  0
HATCH
  5
6A
330
1F
100
AcDbEntity
  8
@__WIDOCZNE
  6
Continuous
370
    13
100
AcDbHatch
 10
0.0
 20
0.0
 30
0.0
210
0.0
220
0.0
230
1.0
  2
SOLID
 70
     1
 71
     1
 91
        1
 92
        2
 72
     1
 73
     1
 93
       26
 10
-1305.759964096685
 20
546.7077626290719
 42
0.0863077155126181
 10
-1311.552143044837
 20
545.2885205651543
 42
0.0
 10
-1311.552143044837
 20
519.2604277697482
 42
0.0
 10
-1305.053292145093
 20
519.2604277697482
 42
0.0
 10
-1305.053292145093
 20
541.0536604260745
 42
-0.12168371550613
 10
-1300.221902440699
 20
541.5298757752895
 42
-0.3861329478031837
 10
-1296.27958275793
 20
536.9385384152305
 42
0.0
 10
-1296.27958275793
 20
519.2604277697482
 42
0.0
 10
-1290.035888845983
 20
519.2604277697482
 42
0.0
 10
-1290.126841584839
 20
536.3614947158908
 42
0.0
 10
-1290.035888845983
 20
536.3633703745184
 42
0.0799288732000265
 10
-1290.662667069705
 20
539.9156999064083
 42
0.0
 10
-1290.030320265779
 20
540.306756880571
 42
-0.1916235362829357
 10
-1284.442147023567
 20
541.3944502989676
 42
-0.3589776600930252
 10
-1281.052474816349
 20
537.3404988018575
 42
0.0
 10
-1281.049353279718
 20
519.2604277697482
 42
0.0
 10
-1275.095185386984
 20
519.2604277697482
 42
0.0
 10
-1275.097831652716
 20
538.5944417775952
 42
0.3475935087177212
 10
-1282.344100212404
 20
546.9246446504319
 42
0.0
 10
-1287.24621624795
 20
546.9246446504319
 42
0.0002381544695914
 10
-1287.279943407078
 20
546.9222710845459
 42
0.1173548723086789
 10
-1290.280320160133
 20
546.0549239874753
 42
0.1053500657717058
 10
-1293.385752307657
 20
544.103561505529
 42
0.1560368886834541
 10
-1297.986546461682
 20
546.7636727506498
 42
0.0158994515272265
 10
-1300.200076129769
 20
546.9246446504319
 42
0.0
 10
-1303.047450827098
 20
546.9246446504319
 42
0.0194967579096993
 97
        1
330
6B
 75
     0
 76
     1
 98
        0
  0
LWPOLYLINE
  5
6B
102
{ACAD_REACTORS
330
6A
102
}
330
1F
100
AcDbEntity
  8
@__WIDOCZNE
  6
Continuous
370
    13
100
AcDbPolyline
 90
       26
 70
   129
 43
0.0
 10
-1305.759964096685
 20
546.7077626290719
 42
0.0863077155126181
 10
-1311.552143044837
 20
545.2885205651543
 10
-1311.552143044837
 20
519.2604277697482
 10
-1305.053292145093
 20
519.2604277697482
 10
-1305.053292145093
 20
541.0536604260745
 42
-0.12168371550613
 10
-1300.221902440699
 20
541.5298757752895
 42
-0.3861329478031837
 10
-1296.27958275793
 20
536.9385384152305
 10
-1296.27958275793
 20
519.2604277697482
 10
-1290.035888845983
 20
519.2604277697482
 10
-1290.126841584839
 20
536.3614947158908
 10
-1290.035888845983
 20
536.3633703745184
 42
0.0799288732000265
 10
-1290.662667069705
 20
539.9156999064083
 10
-1290.030320265779
 20
540.306756880571
 42
-0.1916235362829357
 10
-1284.442147023567
 20
541.3944502989676
 42
-0.3589776600930252
 10
-1281.052474816349
 20
537.3404988018575
 10
-1281.049353279718
 20
519.2604277697482
 10
-1275.095185386984
 20
519.2604277697482
 10
-1275.097831652716
 20
538.5944417775952
 42
0.3475935087177212
 10
-1282.344100212404
 20
546.9246446504319
 10
-1287.24621624795
 20
546.9246446504319
 42
0.0002381544695914
 10
-1287.279943407078
 20
546.9222710845459
 42
0.1173548723086789
 10
-1290.280320160133
 20
546.0549239874753
 42
0.1053500657717058
 10
-1293.385752307657
 20
544.103561505529
 42
0.1560368886834541
 10
-1297.986546461682
 20
546.7636727506498
 42
0.0158994515272265
 10
-1300.200076129769
 20
546.9246446504319
 10
-1303.047450827098
 20
546.9246446504319
 42
0.0194967579096993
  0
HATCH
  5
6C
330
1F
100
AcDbEntity
  8
@__WIDOCZNE
  6
Continuous
370
    13
100
AcDbHatch
 10
0.0
 20
0.0
 30
0.0
210
0.0
220
0.0
230
1.0
  2
SOLID
 70
     1
 71
     1
 91
        2
 92
        2
 72
     1
 73
     1
 93
       14
 10
-1260.742914938603
 20
546.3020694039355
 42
0.2809658966461606
 10
-1269.940658935243
 20
536.7868504833451
 42
0.1091159824470767
 10
-1269.933761419163
 20
528.3024470465763
 42
0.2766399819923606
 10
-1260.693809174695
 20
519.6310267346909
 42
0.0392105095801167
 10
-1258.160043934681
 20
519.2715245175567
 42
0.0
 10
-1249.352294879
 20
519.2604277697482
 42
0.0
 10
-1248.252981779307
 20
524.6976693344252
 42
0.0
 10
-1257.454004055175
 20
524.6976693344252
 42
-0.1667294674755062
 10
-1261.442927257442
 20
526.0658449412628
 42
-0.081638462027361
 10
-1263.491787882554
 20
528.7007174892125
 42
-0.0661503038161424
 10
-1263.768437397358
 20
530.470121703471
 42
0.0
 10
-1246.182032878705
 20
530.470121703471
 42
0.0
 10
-1246.182032878705
 20
536.089446224224
 42
0.3105787245802772
 10
-1254.5739578931
 20
546.3158072765597
 42
0.1083142208160692
 97
        1
330
6D
 92
        2
 72
     1
 73
     1
 93
        5
 10
-1256.24117651682
 20
541.618888870488
 42
0.1431069476368757
 10
-1259.213548185855
 20
541.7243665528604
 42
0.3279495498710064
 10
-1263.766115297208
 20
535.5194587049513
 42
0.0
 10
-1252.07966780021
 20
535.5194587049513
 42
0.0
 10
-1252.07966780021
 20
535.9972458496082
 42
0.3298596086471468
 97
        1
330
6E
 75
     0
 76
     1
 98
        0
  0
LWPOLYLINE
  5
6D
102
{ACAD_REACTORS
330
6C
102
}
330
1F
100
AcDbEntity
  8
@__WIDOCZNE
  6
Continuous
370
    13
100
AcDbPolyline
 90
       14
 70
   129
 43
0.0
 10
-1260.742914938603
 20
546.3020694039355
 42
0.2809658966461606
 10
-1269.940658935243
 20
536.7868504833451
 42
0.1091159824470767
 10
-1269.933761419163
 20
528.3024470465763
 42
0.2766399819923606
 10
-1260.693809174695
 20
519.6310267346909
 42
0.0392105095801167
 10
-1258.160043934681
 20
519.2715245175567
 10
-1249.352294879
 20
519.2604277697482
 10
-1248.252981779307
 20
524.6976693344252
 10
-1257.454004055175
 20
524.6976693344252
 42
-0.1667294674755062
 10
-1261.442927257442
 20
526.0658449412628
 42
-0.081638462027361
 10
-1263.491787882554
 20
528.7007174892125
 42
-0.0661503038161424
 10
-1263.768437397358
 20
530.470121703471
 10
-1246.182032878705
 20
530.470121703471
 10
-1246.182032878705
 20
536.089446224224
 42
0.3105787245802772
 10
-1254.5739578931
 20
546.3158072765597
 42
0.1083142208160692
  0
LWPOLYLINE
  5
6E
102
{ACAD_REACTORS
330
6C
102
}
330
1F
100
AcDbEntity
  8
@__WIDOCZNE
  6
Continuous
370
    13
100
AcDbPolyline
 90
        5
 70
   129
 43
0.0
 10
-1256.24117651682
 20
541.618888870488
 42
0.1431069476368757
 10
-1259.213548185855
 20
541.7243665528604
 42
0.3279495498710064
 10
-1263.766115297208
 20
535.5194587049513
 10
-1252.07966780021
 20
535.5194587049513
 10
-1252.07966780021
 20
535.9972458496082
 42
0.3298596086471468
  0
HATCH
  5
6F
330
1F
100
AcDbEntity
  8
@__WIDOCZNE
  6
Continuous
370
    13
100
AcDbHatch
 10
0.0
 20
0.0
 30
0.0
210
0.0
220
0.0
230
1.0
  2
SOLID
 70
     1
 71
     1
 91
        1
 92
        2
 72
     1
 73
     1
 93
       13
 10
-1227.437379232544
 20
546.746286124145
 42
0.0175531184166386
 10
-1230.245540962752
 20
546.9246446504319
 42
0.0
 10
-1232.516350605567
 20
546.9246446504319
 42
0.0177750747803509
 10
-1235.359918367691
 20
546.7427703049804
 42
0.0683229953867364
 10
-1241.680361260394
 20
545.4959769391523
 42
0.0
 10
-1241.680361260394
 20
519.2604277697482
 42
0.0
 10
-1235.431875967991
 20
519.2604277697482
 42
0.0
 10
-1235.431875967991
 20
541.0758973722152
 42
-0.0958663550348273
 10
-1229.341044844417
 20
541.3536527775211
 42
-0.3633763851128492
 10
-1225.663288539821
 20
536.9613247721987
 42
0.0
 10
-1225.663288539821
 20
519.2604277697482
 42
0.0
 10
-1219.578218277296
 20
519.2604277697482
 42
0.0
 10
-1219.578218277296
 20
537.9079160713052
 42
0.3803017440747632
 97
        1
330
70
 75
     0
 76
     1
 98
        0
  0
LWPOLYLINE
  5
70
102
{ACAD_REACTORS
330
6F
102
}
330
1F
100
AcDbEntity
  8
@__WIDOCZNE
  6
Continuous
370
    13
100
AcDbPolyline
 90
       13
 70
   129
 43
0.0
 10
-1227.437379232544
 20
546.746286124145
 42
0.0175531184166386
 10
-1230.245540962752
 20
546.9246446504319
 10
-1232.516350605567
 20
546.9246446504319
 42
0.0177750747803509
 10
-1235.359918367691
 20
546.7427703049804
 42
0.0683229953867364
 10
-1241.680361260394
 20
545.4959769391523
 10
-1241.680361260394
 20
519.2604277697482
 10
-1235.431875967991
 20
519.2604277697482
 10
-1235.431875967991
 20
541.0758973722152
 42
-0.0958663550348273
 10
-1229.341044844417
 20
541.3536527775211
 42
-0.3633763851128492
 10
-1225.663288539821
 20
536.9613247721987
 10
-1225.663288539821
 20
519.2604277697482
 10
-1219.578218277296
 20
519.2604277697482
 10
-1219.578218277296
 20
537.9079160713052
 42
0.3803017440747632
  0
HATCH
  5
71
330
1F
100
AcDbEntity
  8
@__WIDOCZNE
  6
Continuous
370
    13
100
AcDbHatch
 10
0.0
 20
0.0
 30
0.0
210
0.0
220
0.0
230
1.0
  2
SOLID
 70
     1
 71
     1
 91
        1
 92
        2
 72
     1
 73
     1
 93
       12
 10
-1214.837213707628
 20
527.8925546297102
 42
0.3564817226562251
 10
-1206.205138286899
 20
519.2902280601588
 42
0.0
 10
-1199.981892214069
 20
519.3117124113982
 42
0.0
 10
-1198.655640319165
 20
525.1140644516123
 42
0.0
 10
-1205.010848004519
 20
525.1140644516123
 42
-0.3014632934563285
 10
-1208.69758136088
 20
528.8007978079734
 42
0.0
 10
-1208.69758136088
 20
541.191576274878
 42
0.0
 10
-1200.736871623146
 20
541.191576274878
 42
0.0
 10
-1200.736871623146
 20
546.9246446504319
 42
0.0
 10
-1208.69758136088
 20
546.9246446504319
 42
0.0
 10
-1208.69758136088
 20
554.6675489681661
 42
0.0
 10
-1214.837213707628
 20
553.418810185776
 42
0.0
 97
        1
330
72
 75
     0
 76
     1
 98
        0
  0
LWPOLYLINE
  5
72
102
{ACAD_REACTORS
330
71
102
}
330
1F
100
AcDbEntity
  8
@__WIDOCZNE
  6
Continuous
370
    13
100
AcDbPolyline
 90
       12
 70
   129
 43
0.0
 10
-1214.837213707628
 20
527.8925546297102
 42
0.3564817226562251
 10
-1206.205138286899
 20
519.2902280601588
 10
-1199.981892214069
 20
519.3117124113982
 10
-1198.655640319165
 20
525.1140644516123
 10
-1205.010848004519
 20
525.1140644516123
 42
-0.3014632934563285
 10
-1208.69758136088
 20
528.8007978079734
 10
-1208.69758136088
 20
541.191576274878
 10
-1200.736871623146
 20
541.191576274878
 10
-1200.736871623146
 20
546.9246446504319
 10
-1208.69758136088
 20
546.9246446504319
 10
-1208.69758136088
 20
554.6675489681661
 10
-1214.837213707628
 20
553.418810185776
  0
HATCH
  5
73
330
1F
100
AcDbEntity
  8
@__WIDOCZNE
  6
Continuous
370
    13
100
AcDbHatch
 10
0.0
 20
0.0
 30
0.0
210
0.0
220
0.0
230
1.0
  2
SOLID
 70
     1
 71
     1
 91
        2
 92
        2
 72
     1
 73
     1
 93
        9
 10
-1377.837357683145
 20
546.687220731124
 42
0.2820479307333718
 10
-1387.259435793923
 20
537.1610158911473
 42
0.0886832537999132
 10
-1387.242292971482
 20
528.5109452739591
 42
0.2508564250541997
 10
-1378.526285642429
 20
519.2604277697482
 42
0.0
 10
-1371.018925491214
 20
519.2604277697482
 42
0.2670900430231695
 10
-1362.196351017721
 20
529.3514279902757
 42
0.1207336614180937
 10
-1362.17432715687
 20
536.695757157897
 42
0.3094451166888095
 10
-1371.516629935181
 20
546.6699532670432
 42
0.0268897328129527
 10
-1373.189185951356
 20
546.9246446504319
 42
0.074328415179198
 97
        1
330
74
 92
        2
 72
     1
 73
     1
 93
        8
 10
-1381.055747859788
 20
535.8553284705225
 42
0.0948073731652809
 10
-1381.103776207314
 20
530.2459488678442
 42
0.0590800675341869
 10
-1380.558029475339
 20
528.3802133853638
 42
0.6394418664691048
 10
-1369.097496880128
 20
528.0320762933873
 42
0.0835238969854629
 10
-1368.380117977928
 20
530.3788289835541
 42
0.0916297819744675
 10
-1368.493887154931
 20
536.1385836003832
 42
0.2559732989582162
 10
-1372.699908450857
 20
541.3532917397008
 42
0.1954327814670101
 10
-1376.976323926036
 20
541.1790250269466
 42
0.2505066079508973
 97
        1
330
75
 75
     0
 76
     1
 98
        0
  0
LWPOLYLINE
  5
74
102
{ACAD_REACTORS
330
73
102
}
330
1F
100
AcDbEntity
  8
@__WIDOCZNE
  6
Continuous
370
    13
100
AcDbPolyline
 90
        9
 70
   129
 43
0.0
 10
-1377.837357683145
 20
546.687220731124
 42
0.2820479307333718
 10
-1387.259435793923
 20
537.1610158911473
 42
0.0886832537999132
 10
-1387.242292971482
 20
528.5109452739591
 42
0.2508564250541997
 10
-1378.526285642429
 20
519.2604277697482
 10
-1371.018925491214
 20
519.2604277697482
 42
0.2670900430231695
 10
-1362.196351017721
 20
529.3514279902757
 42
0.1207336614180937
 10
-1362.17432715687
 20
536.695757157897
 42
0.3094451166888095
 10
-1371.516629935181
 20
546.6699532670432
 42
0.0268897328129527
 10
-1373.189185951356
 20
546.9246446504319
 42
0.074328415179198
  0
LWPOLYLINE
  5
75
102
{ACAD_REACTORS
330
73
102
}
330
1F
100
AcDbEntity
  8
@__WIDOCZNE
  6
Continuous
370
    13
100
AcDbPolyline
 90
        8
 70
   129
 43
0.0
 10
-1381.055747859788
 20
535.8553284705225
 42
0.0948073731652809
 10
-1381.103776207314
 20
530.2459488678442
 42
0.0590800675341869
 10
-1380.558029475339
 20
528.3802133853638
 42
0.6394418664691048
 10
-1369.097496880128
 20
528.0320762933873
 42
0.0835238969854629
 10
-1368.380117977928
 20
530.3788289835541
 42
0.0916297819744675
 10
-1368.493887154931
 20
536.1385836003832
 42
0.2559732989582162
 10
-1372.699908450857
 20
541.3532917397008
 42
0.1954327814670101
 10
-1376.976323926036
 20
541.1790250269466
 42
0.2505066079508973
  0
HATCH
  5
76
330
1F
100
AcDbEntity
  8
0
  6
Continuous
370
    13
100
AcDbHatch
 10
0.0
 20
0.0
 30
0.0
210
0.0
220
0.0
230
1.0
  2
Beton_0002
 70
     0
 71
     1
 91
        1
 92
        2
 72
     0
 73
     1
 93
        4
 10
-1183.978485769378
 20
1301.744866076767
 10
-1183.978485769378
 20
1371.744866076767
 10
-1411.195853344059
 20
1371.744866076767
 10
-1411.195853344059
 20
1301.744866076767
 97
        1
330
77
 75
     0
 76
     2
 52
0.0
 41
1.0
 77
     0
 78
     2
 53
44.99999999999999
 43
0.0
 44
0.0
 45
-9.192387818250328
 46
9.19238781825033
 79
     2
 49
9.749999642372131
 49
-3.24999988079071
 53
44.99999999999999
 43
0.0000000000000009
 44
9.192387818250328
 45
-9.192387818250328
 46
9.19238781825033
 79
     2
 49
9.749999642372131
 49
-3.24999988079071
 98
        0
  0
LWPOLYLINE
  5
77
102
{ACAD_REACTORS
330
76
102
}
330
1F
100
AcDbEntity
  8
0
  6
Continuous
370
    35
100
AcDbPolyline
 90
        4
 70
   129
 43
0.0
 10
-1183.978485769378
 20
1301.744866076767
 10
-1183.978485769378
 20
1371.744866076767
 10
-1411.195853344059
 20
1371.744866076767
 10
-1411.195853344059
 20
1301.744866076767
  0
HATCH
  5
78
330
1F
100
AcDbEntity
  8
0
  6
Continuous
370
    13
100
AcDbHatch
 10
0.0
 20
0.0
 30
0.0
210
0.0
220
0.0
230
1.0
  2
Beton_zbrojony_0002
 70
     0
 71
     1
 91
        1
 92
        2
 72
     0
 73
     1
 93
        4
 10
-1408.799416601116
 20
861.8361696109341
 10
-1110.331919787526
 20
861.8361696109341
 10
-1110.331919787526
 20
1101.744866076767
 10
-1408.799416601116
 20
1101.744866076767
 97
        1
330
79
 75
     0
 76
     2
 52
0.0
 41
1.0
 77
     0
 78
     2
 53
44.99999999999999
 43
0.0
 44
0.0
 45
-9.192387818250328
 46
9.19238781825033
 79
     0
 53
44.99999999999999
 43
-4.596193909125164
 44
4.596193909125165
 45
-9.192387818250328
 46
9.19238781825033
 79
     2
 49
9.749999642372131
 49
-3.24999988079071
 98
        0
  0
LWPOLYLINE
  5
79
102
{ACAD_REACTORS
330
78
102
}
330
1F
100
AcDbEntity
  8
0
  6
Continuous
370
    13
100
AcDbPolyline
 90
        4
 70
   129
 43
0.0
 10
-1408.799416601116
 20
861.8361696109341
 10
-1110.331919787526
 20
861.8361696109341
 10
-1110.331919787526
 20
1101.744866076767
 10
-1408.799416601116
 20
1101.744866076767
  0
HATCH
  5
7A
330
1F
100
AcDbEntity
  8
0
  6
Continuous
370
    13
100
AcDbHatch
 10
0.0
 20
0.0
 30
0.0
210
0.0
220
0.0
230
1.0
  2
Płyty_kamienne_0002
 70
     0
 71
     1
 91
        1
 92
        2
 72
     0
 73
     1
 93
        4
 10
-1208.346801479157
 20
1376.744866076767
 10
-1208.346801479157
 20
1381.744866076767
 10
-1408.799416601116
 20
1381.744866076767
 10
-1408.799416601116
 20
1376.744866076767
 97
        1
330
7B
 75
     0
 76
     2
 52
0.0
 41
1.0
 77
     0
 78
     2
 53
45.0
 43
0.0
 44
17.5
 45
-5.568465901844061
 46
5.568465901844062
 79
     4
 49
0.0
 49
-5.249999999999999
 49
0.0
 49
-7.875
 53
110.0
 43
17.5
 44
17.5
 45
7.400079388689027
 46
2.693408628689645
 79
     4
 49
0.0
 49
-3.85
 49
0.0
 49
-6.649999999999999
 98
        0
  0
LWPOLYLINE
  5
7B
102
{ACAD_REACTORS
330
7A
102
}
330
1F
100
AcDbEntity
  8
0
  6
Continuous
370
    13
100
AcDbPolyline
 90
        4
 70
   129
 43
0.0
 10
-1208.346801479157
 20
1376.744866076767
 10
-1208.346801479157
 20
1381.744866076767
 10
-1408.799416601116
 20
1381.744866076767
 10
-1408.799416601116
 20
1376.744866076767
  0
LWPOLYLINE
  5
7C
330
1F
100
AcDbEntity
  8
0
  6
Continuous
370
    13
100
AcDbPolyline
 90
        2
 70
   129
 43
0.0
 10
-1345.147649816847
 20
1336.855701514037
 42
0.9999999999999999
 10
-1354.961457562452
 20
1336.855701514037
 42
0.9999999999999999
  0
LWPOLYLINE
  5
7D
330
1F
100
AcDbEntity
  8
0
  6
Continuous
370
    13
100
AcDbPolyline
 90
        2
 70
   129
 43
0.0
 10
-1245.238823660329
 20
1336.855701514037
 42
0.9999999999999999
 10
-1255.052631405934
 20
1336.855701514037
 42
0.9999999999999999
  0
HATCH
  5
7E
330
1F
100
AcDbEntity
  8
0
  6
Continuous
370
    13
100
AcDbHatch
 10
0.0
 20
0.0
 30
0.0
210
0.0
220
0.0
230
1.0
  2
Beton_zbrojony_0002
 70
     0
 71
     1
 91
        1
 92
        2
 72
     0
 73
     1
 93
        4
 10
-1350.331919787526
 20
862.2197193383195
 10
-1350.331919787526
 20
638.4090071047948
 10
-1110.331919787526
 20
638.4090071047948
 10
-1110.331919787526
 20
862.2197193383195
 97
        1
330
7F
 75
     0
 76
     2
 52
0.0
 41
1.0
 77
     0
 78
     2
 53
44.99999999999999
 43
0.0
 44
0.0
 45
-9.192387818250328
 46
9.19238781825033
 79
     0
 53
44.99999999999999
 43
-4.596193909125164
 44
4.596193909125165
 45
-9.192387818250328
 46
9.19238781825033
 79
     2
 49
9.749999642372131
 49
-3.24999988079071
 98
        0
  0
LWPOLYLINE
  5
7F
102
{ACAD_REACTORS
330
7E
102
}
330
1F
100
AcDbEntity
  8
0
  6
Continuous
370
    13
100
AcDbPolyline
 90
        4
 70
   129
 43
0.0
 10
-1350.331919787526
 20
862.2197193383195
 10
-1350.331919787526
 20
638.4090071047948
 10
-1110.331919787526
 20
638.4090071047948
 10
-1110.331919787526
 20
862.2197193383195
  0
WIPEOUT
  5
80
330
1F
100
AcDbEntity
  8
0
  6
Wipeout_Contour
 62
   254
 48
6758.534549822738
370
     0
 92
      140
310
8C0000000100000084000000060000000500000049E1C7E2537192C0D8FD3DDB566A9540000000000000000049E1C7E2537192C0743E2CBEFA4A9140000000000000000049E1C7E2535991C0743E2CBEFA4A9140000000000000000049E1C7E2535991C0D8FD3DDB566A9540000000000000000049E1C7E2537192C0D8FD3D
310
DB566A95400000000000000000
100
AcDbWipeout
 90
        0
 10
-1180.331919787526
 20
1106.744866076767
 30
0.0
 11
70.0
 21
0.0
 31
0.0
 12
0.0
 22
263.8399546406808
 32
0.0
 13
1.0
 23
1.0
340
0
 70
    15
280
     1
281
    50
282
    50
283
     0
360
0
 71
     2
 91
        5
 14
-0.5
 24
-0.5
 14
-0.5
 24
0.5
 14
0.5
 24
0.5
 14
0.5
 24
-0.5
 14
-0.5
 24
-0.5
  0
LWPOLYLINE
  5
82
330
1F
100
AcDbEntity
  8
0
  6
Continuous
370
    35
100
AcDbPolyline
 90
        4
 70
   129
 43
0.0
 10
-1180.331919787526
 20
1370.584820717448
 10
-1180.331919787526
 20
1106.744866076767
 10
-1110.331919787526
 20
1106.744866076767
 10
-1110.331919787526
 20
1370.584820717448
  0
HATCH
  5
83
330
1F
100
AcDbEntity
  8
0
  6
Continuous
370
    13
100
AcDbHatch
 10
0.0
 20
0.0
 30
0.0
210
0.0
220
0.0
230
1.0
  2
__Cegła_licówka_0002
 70
     0
 71
     1
 91
        1
 92
        2
 72
     0
 73
     1
 93
        4
 10
-1208.346801479157
 20
1396.839021520432
 10
-1408.799416601116
 20
1396.839021520432
 10
-1408.799416601116
 20
1381.744866076767
 10
-1208.346801479157
 20
1381.744866076767
 97
        1
330
84
 75
     0
 76
     2
 52
0.0
 41
1.0
 77
     0
 78
     1
 53
45.0
 43
0.0
 44
0.0
 45
-3.181980431045766
 46
3.181980431045767
 79
     0
 98
        0
  0
LWPOLYLINE
  5
84
102
{ACAD_REACTORS
330
83
102
}
330
1F
100
AcDbEntity
  8
0
  6
Continuous
370
    13
100
AcDbPolyline
 90
        4
 70
   129
 43
0.0
 10
-1208.346801479157
 20
1396.839021520432
 10
-1408.799416601116
 20
1396.839021520432
 10
-1408.799416601116
 20
1381.744866076767
 10
-1208.346801479157
 20
1381.744866076767
  0
HATCH
  5
85
330
1F
100
AcDbEntity
  8
0
  6
Continuous
370
    13
100
AcDbHatch
 10
0.0
 20
0.0
 30
0.0
210
0.0
220
0.0
230
1.0
  2
__kropki_1_10n_0_5x0_5___A8
 70
     0
 71
     1
 91
        1
 92
        2
 72
     1
 73
     1
 93
        6
 10
-1181.418001240127
 20
1396.659690053051
 42
0.0
 10
-1208.346801479157
 20
1396.659690053051
 42
0.0
 10
-1208.346801479157
 20
1388.762955726292
 42
0.0
 10
-1201.711352379193
 20
1388.762955726292
 42
-0.4541121907782806
 10
-1192.675926240182
 20
1388.762955726292
 42
0.0
 10
-1181.418001240127
 20
1388.762955726292
 42
0.0
 97
        1
330
86
 75
     0
 76
     2
 52
0.0
 41
1.0
 77
     0
 78
     1
 53
0.0
 43
0.0
 44
0.0
 45
0.0
 46
2.5
 79
     2
 49
0.0
 49
-2.5
 98
        0
  0
LWPOLYLINE
  5
86
102
{ACAD_REACTORS
330
85
102
}
330
1F
100
AcDbEntity
  8
0
  6
Continuous
370
    13
100
AcDbPolyline
 90
        6
 70
   129
 43
0.0
 10
-1181.418001240127
 20
1396.659690053051
 10
-1208.346801479157
 20
1396.659690053051
 10
-1208.346801479157
 20
1388.762955726292
 10
-1201.711352379193
 20
1388.762955726292
 42
-0.4541121907782806
 10
-1192.675926240182
 20
1388.762955726292
 10
-1181.418001240127
 20
1388.762955726292
  0
INSERT
  5
8D
330
1F
100
AcDbEntity
  8
@__WIDOCZNE
  6
Continuous
370
    13
100
AcDbBlockReference
 66
     1
  2
Sygnał termostatu 12
 10
-1188.27870929763
 20
1453.273283106673
 30
0.0
  0
ATTRIB
  5
8E
330
8D
100
AcDbEntity
  8
@__WIDOCZNE
  6
Continuous
370
    13
100
AcDbText
 10
-1198.987034297629
 20
1447.024100170165
 30
0.0
 40
14.11111111111111
  1
01
  7
GENERATED_STYLE_1
 11
-1198.987034297629
 21
1442.853605378499
 31
0.0
100
AcDbAttribute
  2
txt
 70
     0
 74
     1
  0
SEQEND
  5
8F
330
8D
100
AcDbEntity
  8
@__WIDOCZNE
  6
Continuous
370
    13
  0
INSERT
  5
99
330
1F
100
AcDbEntity
  8
0
  6
Continuous
370
    13
100
AcDbBlockReference
  2
InsulFib_zygzak 65
 10
-1408.799416601116
 20
1106.744866076767
 30
0.0
  0
INSERT
  5
9A
330
1F
100
AcDbEntity
  8
@__WIDOCZNE
  6
Continuous
370
    13
100
AcDbBlockReference
 66
     1
  2
Sygnał termostatu 12
 10
-905.088279830087
 20
1837.813276400721
 30
0.0
  0
ATTRIB
  5
9B
330
9A
100
AcDbEntity
  8
@__WIDOCZNE
  6
Continuous
370
    13
100
AcDbText
 10
-915.796604830087
 20
1831.564093464213
 30
0.0
 40
14.11111111111111
  1
01
  7
GENERATED_STYLE_1
 11
-915.796604830087
 21
1827.393598672547
 31
0.0
100
AcDbAttribute
  2
txt
 70
     0
 74
     1
  0
SEQEND
  5
9C
330
9A
100
AcDbEntity
  8
@__WIDOCZNE
  6
Continuous
370
    13
  0
INSERT
  5
A2
330
1F
100
AcDbEntity
  8
@__WIDOCZNE
  6
Continuous
370
    13
100
AcDbBlockReference
 66
     1
  2
Sygnał termostatu 12_2
 10
-905.088279830087
 20
1802.813276400721
 30
0.0
  0
ATTRIB
  5
A3
330
A2
100
AcDbEntity
  8
@__WIDOCZNE
  6
Continuous
370
    13
100
AcDbText
 10
-915.796604830087
 20
1796.564093464213
 30
0.0
 40
14.11111111111111
  1
02
  7
GENERATED_STYLE_1
 11
-915.796604830087
 21
1792.393598672547
 31
0.0
100
AcDbAttribute
  2
txt
 70
     0
 74
     1
  0
SEQEND
  5
A4
330
A2
100
AcDbEntity
  8
@__WIDOCZNE
  6
Continuous
370
    13
  0
INSERT
  5
AA
330
1F
100
AcDbEntity
  8
@__WIDOCZNE
  6
Continuous
370
    13
100
AcDbBlockReference
 66
     1
  2
Sygnał termostatu 12_3
 10
-905.088279830087
 20
1753.554067012296
 30
0.0
  0
ATTRIB
  5
AB
330
AA
100
AcDbEntity
  8
@__WIDOCZNE
  6
Continuous
370
    13
100
AcDbText
 10
-915.796604830087
 20
1747.304884075788
 30
0.0
 40
14.11111111111111
  1
03
  7
GENERATED_STYLE_1
 11
-915.796604830087
 21
1743.134389284122
 31
0.0
100
AcDbAttribute
  2
txt
 70
     0
 74
     1
  0
SEQEND
  5
AC
330
AA
100
AcDbEntity
  8
@__WIDOCZNE
  6
Continuous
370
    13
  0
INSERT
  5
B2
330
1F
100
AcDbEntity
  8
@__WIDOCZNE
  6
Continuous
370
    13
100
AcDbBlockReference
 66
     1
  2
Sygnał termostatu 12_4
 10
-905.088279830087
 20
1718.936836202925
 30
0.0
  0
ATTRIB
  5
B3
330
B2
100
AcDbEntity
  8
@__WIDOCZNE
  6
Continuous
370
    13
100
AcDbText
 10
-915.796604830087
 20
1712.687653266418
 30
0.0
 40
14.11111111111111
  1
04
  7
GENERATED_STYLE_1
 11
-915.796604830087
 21
1708.517158474751
 31
0.0
100
AcDbAttribute
  2
txt
 70
     0
 74
     1
  0
SEQEND
  5
B4
330
B2
100
AcDbEntity
  8
@__WIDOCZNE
  6
Continuous
370
    13
  0
INSERT
  5
BA
330
1F
100
AcDbEntity
  8
@__WIDOCZNE
  6
Continuous
370
    13
100
AcDbBlockReference
 66
     1
  2
Sygnał termostatu 12_5
 10
-905.088279830087
 20
1626.280222692032
 30
0.0
  0
ATTRIB
  5
BB
330
BA
100
AcDbEntity
  8
@__WIDOCZNE
  6
Continuous
370
    13
100
AcDbText
 10
-915.796604830087
 20
1620.031039755524
 30
0.0
 40
14.11111111111111
  1
a1
  7
GENERATED_STYLE_1
 11
-915.796604830087
 21
1615.860544963857
 31
0.0
100
AcDbAttribute
  2
txt
 70
     0
 74
     1
  0
SEQEND
  5
BC
330
BA
100
AcDbEntity
  8
@__WIDOCZNE
  6
Continuous
370
    13
  0
INSERT
  5
BD
330
1F
100
AcDbEntity
  8
@__WIDOCZNE
  6
Continuous
370
    13
100
AcDbBlockReference
 66
     1
  2
Sygnał termostatu 12_2
 10
-1273.391805032981
 20
1453.273283106673
 30
0.0
  0
ATTRIB
  5
BE
330
BD
100
AcDbEntity
  8
@__WIDOCZNE
  6
Continuous
370
    13
100
AcDbText
 10
-1284.100130032981
 20
1447.024100170165
 30
0.0
 40
14.11111111111111
  1
02
  7
GENERATED_STYLE_1
 11
-1284.100130032981
 21
1442.853605378499
 31
0.0
100
AcDbAttribute
  2
txt
 70
     0
 74
     1
  0
SEQEND
  5
BF
330
BD
100
AcDbEntity
  8
@__WIDOCZNE
  6
Continuous
370
    13
  0
INSERT
  5
C0
330
1F
100
AcDbEntity
  8
@__WIDOCZNE
  6
Continuous
370
    13
100
AcDbBlockReference
 66
     1
  2
Sygnał termostatu 12_4
 10
-1355.901231271936
 20
1453.273283106673
 30
0.0
  0
ATTRIB
  5
C1
330
C0
100
AcDbEntity
  8
@__WIDOCZNE
  6
Continuous
370
    13
100
AcDbText
 10
-1366.609556271936
 20
1447.024100170165
 30
0.0
 40
14.11111111111111
  1
04
  7
GENERATED_STYLE_1
 11
-1366.609556271936
 21
1442.853605378499
 31
0.0
100
AcDbAttribute
  2
txt
 70
     0
 74
     1
  0
SEQEND
  5
C2
330
C0
100
AcDbEntity
  8
@__WIDOCZNE
  6
Continuous
370
    13
  0
INSERT
  5
C8
330
1F
100
AcDbEntity
  8
@__WIDOCZNE
  6
Continuous
370
    13
100
AcDbBlockReference
 66
     1
  2
Sygnał termostatu 12_6
 10
-905.088279830087
 20
1583.623609181137
 30
0.0
  0
ATTRIB
  5
C9
330
C8
100
AcDbEntity
  8
@__WIDOCZNE
  6
Continuous
370
    13
100
AcDbText
 10
-915.796604830087
 20
1577.374426244629
 30
0.0
 40
14.11111111111111
  1
a2
  7
GENERATED_STYLE_1
 11
-915.796604830087
 21
1573.203931452963
 31
0.0
100
AcDbAttribute
  2
txt
 70
     0
 74
     1
  0
SEQEND
  5
CA
330
C8
100
AcDbEntity
  8
@__WIDOCZNE
  6
Continuous
370
    13
  0
INSERT
  5
CB
330
1F
100
AcDbEntity
  8
@__WIDOCZNE
  6
Continuous
370
    13
100
AcDbBlockReference
 66
     1
  2
Sygnał termostatu 12_5
 10
-753.8474112048185
 20
1234.767366152252
 30
0.0
  0
ATTRIB
  5
CC
330
CB
100
AcDbEntity
  8
@__WIDOCZNE
  6
Continuous
370
    13
100
AcDbText
 10
-764.5557362048183
 20
1228.518183215744
 30
0.0
 40
14.11111111111111
  1
a1
  7
GENERATED_STYLE_1
 11
-764.5557362048183
 21
1224.347688424077
 31
0.0
100
AcDbAttribute
  2
txt
 70
     0
 74
     1
  0
SEQEND
  5
CD
330
CB
100
AcDbEntity
  8
@__WIDOCZNE
  6
Continuous
370
    13
  0
INSERT
  5
CE
330
1F
100
AcDbEntity
  8
@__WIDOCZNE
  6
Continuous
370
    13
100
AcDbBlockReference
 66
     1
  2
Sygnał termostatu 12_6
 10
-1042.978449287874
 20
1083.945875401308
 30
0.0
  0
ATTRIB
  5
CF
330
CE
100
AcDbEntity
  8
@__WIDOCZNE
  6
Continuous
370
    13
100
AcDbText
 10
-1053.686774287874
 20
1077.6966924648
 30
0.0
 40
14.11111111111111
  1
a2
  7
GENERATED_STYLE_1
 11
-1053.686774287874
 21
1073.526197673134
 31
0.0
100
AcDbAttribute
  2
txt
 70
     0
 74
     1
  0
SEQEND
  5
D0
330
CE
100
AcDbEntity
  8
@__WIDOCZNE
  6
Continuous
370
    13
  0
INSERT
  5
E6
330
1F
100
AcDbEntity
  8
0
  6
Continuous
370
    13
100
AcDbBlockReference
  2
InsulFib_zygzak 65_2
 10
-1180.331918392194
 20
1370.584820717448
 30
0.0
 50
270.0
  0
INSERT
  5
E7
330
1F
100
AcDbEntity
  8
@__WIDOCZNE
  6
Continuous
370
    13
100
AcDbBlockReference
 66
     1
  2
Sygnał termostatu 12_3
 10
-1233.565800120236
 20
1453.999735714156
 30
0.0
  0
ATTRIB
  5
E8
330
E7
100
AcDbEntity
  8
@__WIDOCZNE
  6
Continuous
370
    13
100
AcDbText
 10
-1244.274125120236
 20
1447.750552777648
 30
0.0
 40
14.11111111111111
  1
03
  7
GENERATED_STYLE_1
 11
-1244.274125120236
 21
1443.580057985981
 31
0.0
100
AcDbAttribute
  2
txt
 70
     0
 74
     1
  0
SEQEND
  5
E9
330
E7
100
AcDbEntity
  8
@__WIDOCZNE
  6
Continuous
370
    13
  0
INSERT
  5
EF
330
1F
100
AcDbEntity
  8
@__WIDOCZNE
  6
Continuous
370
    13
100
AcDbBlockReference
 66
     1
  2
Sygnał termostatu 12_7
 10
-905.088279830087
 20
1540.397883655616
 30
0.0
  0
ATTRIB
  5
F0
330
EF
100
AcDbEntity
  8
@__WIDOCZNE
  6
Continuous
370
    13
100
AcDbText
 10
-915.796604830087
 20
1534.148700719108
 30
0.0
 40
14.11111111111111
  1
a3
  7
GENERATED_STYLE_1
 11
-915.796604830087
 21
1529.978205927441
 31
0.0
100
AcDbAttribute
  2
txt
 70
     0
 74
     1
  0
SEQEND
  5
F1
330
EF
100
AcDbEntity
  8
@__WIDOCZNE
  6
Continuous
370
    13
  0
INSERT
  5
F2
330
1F
100
AcDbEntity
  8
@__WIDOCZNE
  6
Continuous
370
    13
100
AcDbBlockReference
 66
     1
  2
Sygnał termostatu 12_7
 10
-1042.978449287874
 20
1029.591880399307
 30
0.0
  0
ATTRIB
  5
F3
330
F2
100
AcDbEntity
  8
@__WIDOCZNE
  6
Continuous
370
    13
100
AcDbText
 10
-1053.686774287874
 20
1023.342697462799
 30
0.0
 40
14.11111111111111
  1
a3
  7
GENERATED_STYLE_1
 11
-1053.686774287874
 21
1019.172202671132
 31
0.0
100
AcDbAttribute
  2
txt
 70
     0
 74
     1
  0
SEQEND
  5
F4
330
F2
100
AcDbEntity
  8
@__WIDOCZNE
  6
Continuous
370
    13
  0
INSERT
  5
FA
330
1F
100
AcDbEntity
  8
@__WIDOCZNE
  6
Continuous
370
    13
100
AcDbBlockReference
 66
     1
  2
Sygnał termostatu 12_8
 10
-905.088279830087
 20
1684.240694487818
 30
0.0
  0
ATTRIB
  5
FB
330
FA
100
AcDbEntity
  8
@__WIDOCZNE
  6
Continuous
370
    13
100
AcDbText
 10
-915.796604830087
 20
1677.99151155131
 30
0.0
 40
14.11111111111111
  1
05
  7
GENERATED_STYLE_1
 11
-915.796604830087
 21
1673.821016759643
 31
0.0
100
AcDbAttribute
  2
txt
 70
     0
 74
     1
  0
SEQEND
  5
FC
330
FA
100
AcDbEntity
  8
@__WIDOCZNE
  6
Continuous
370
    13
  0
INSERT
  5
FD
330
1F
100
AcDbEntity
  8
@__WIDOCZNE
  6
Continuous
370
    13
100
AcDbBlockReference
 66
     1
  2
Sygnał termostatu 12_8
 10
-1042.978449287874
 20
934.6838651997195
 30
0.0
  0
ATTRIB
  5
FE
330
FD
100
AcDbEntity
  8
@__WIDOCZNE
  6
Continuous
370
    13
100
AcDbText
 10
-1053.686774287874
 20
928.4346822632115
 30
0.0
 40
14.11111111111111
  1
05
  7
GENERATED_STYLE_1
 11
-1053.686774287874
 21
924.2641874715448
 31
0.0
100
AcDbAttribute
  2
txt
 70
     0
 74
     1
  0
SEQEND
  5
FF
330
FD
100
AcDbEntity
  8
@__WIDOCZNE
  6
Continuous
370
    13
  0
LINE
  5
100
330
1F
100
AcDbEntity
  8
0
  6
Continuous
370
    13
100
AcDbLine
 10
-528.6607699187331
 20
590.6939318790032
 30
0.0
 11
-528.6607699187331
 21
480.6939318790031
 31
0.0
  0
LINE
  5
101
330
1F
100
AcDbEntity
  8
0
  6
Continuous
370
    13
100
AcDbLine
 10
-1428.660769918733
 20
480.6939318790024
 30
0.0
 11
-528.6607699187331
 21
480.6939318790024
 31
0.0
  0
LINE
  5
102
330
1F
100
AcDbEntity
  8
0
  6
Continuous
370
    13
100
AcDbLine
 10
-576.6831570708478
 20
1407.821973022068
 30
0.0
 11
-584.4481814484526
 21
1420.341039972333
 31
0.0
  0
LINE
  5
103
330
1F
100
AcDbEntity
  8
0
  6
Continuous
370
    13
100
AcDbLine
 10
-576.6831570708478
 20
1407.821973022068
 30
0.0
 11
-568.9181326932411
 21
1420.341039972333
 31
0.0
  0
LINE
  5
104
330
1F
100
AcDbEntity
  8
0
  6
Continuous
370
    13
100
AcDbLine
 10
-584.4481814484526
 20
1420.341039972333
 30
0.0
 11
-568.9181326932411
 21
1420.341039972333
 31
0.0
  0
LINE
  5
105
330
1F
100
AcDbEntity
  8
0
  6
Continuous
370
    13
100
AcDbLine
 10
-584.3172454883552
 20
1407.821973022068
 30
0.0
 11
-569.049068653342
 21
1407.821973022068
 31
0.0
  0
LINE
  5
106
330
1F
100
AcDbEntity
  8
0
  6
Continuous
370
    13
100
AcDbLine
 10
-649.8085971952587
 20
1397.607375876657
 30
0.0
 11
-633.4463812174018
 21
1397.607375876657
 31
0.0
  0
LINE
  5
107
330
1F
100
AcDbEntity
  8
0
  6
Continuous
370
    13
100
AcDbLine
 10
-617.7134812386918
 20
1397.607375876657
 30
0.0
 11
-601.3512652608348
 21
1397.607375876657
 31
0.0
  0
LINE
  5
108
330
1F
100
AcDbEntity
  8
0
  6
Continuous
370
    13
100
AcDbLine
 10
-587.5063132795706
 20
1397.607375876657
 30
0.0
 11
-571.1440973017137
 21
1397.607375876657
 31
0.0
  0
LINE
  5
109
330
1F
100
AcDbEntity
  8
0
  6
Continuous
370
    13
100
AcDbLine
 10
-567.4380191851325
 20
1397.607375876657
 30
0.0
 11
-559.4289597825648
 21
1397.607375876657
 31
0.0
  0
LINE
  5
10A
330
1F
100
AcDbEntity
  8
0
  6
Continuous
370
    13
100
AcDbLine
 10
-630.2998012216606
 20
1385.212584418524
 30
0.0
 11
-618.972113236989
 21
1385.212584418524
 31
0.0
  0
LINE
  5
10B
330
1F
100
AcDbEntity
  8
0
  6
Continuous
370
    13
100
AcDbLine
 10
-603.2392132582806
 20
1385.212584418524
 30
0.0
 11
-586.8769972804238
 21
1385.212584418524
 31
0.0
  0
LINE
  5
10C
330
1F
100
AcDbEntity
  8
0
  6
Continuous
370
    13
100
AcDbLine
 10
-579.3950231689527
 20
1385.212584418524
 30
0.0
 11
-568.0673351842811
 21
1385.212584418524
 31
0.0
  0
LINE
  5
10D
330
1F
100
AcDbEntity
  8
0
  6
Continuous
370
    13
100
AcDbLine
 10
-652.9551771910001
 20
1385.212584418524
 30
0.0
 11
-641.627489206332
 21
1385.212584418524
 31
0.0
  0
LINE
  5
10E
330
1F
100
AcDbEntity
  8
0
  6
Continuous
370
    13
100
AcDbLine
 10
-625.3515603725361
 20
1376.181083724353
 30
0.0
 11
-622.8349834914617
 21
1376.181083724353
 31
0.0
  0
LINE
  5
10F
330
1F
100
AcDbEntity
  8
0
  6
Continuous
370
    13
100
AcDbLine
 10
-594.3137788392843
 20
1375.761654244174
 30
0.0
 11
-592.006916698299
 21
1375.761654244174
 31
0.0
  0
LINE
  5
110
330
1F
100
AcDbEntity
  8
0
  6
Continuous
370
    13
100
AcDbLine
 10
-576.14133457076
 20
1375.761654244174
 30
0.0
 11
-571.9470397689698
 21
1375.761654244174
 31
0.0
  0
LINE
  5
111
330
1F
100
AcDbEntity
  8
0
  6
Continuous
370
    13
100
AcDbLine
 10
-638.9304206385518
 20
1375.783937039579
 30
0.0
 11
-633.4658195494214
 21
1375.783937039579
 31
0.0
  0
LINE
  5
112
330
1F
100
AcDbEntity
  8
0
  6
Continuous
370
    13
100
AcDbLine
 10
-612.4481230527686
 20
1375.783937039579
 30
0.0
 11
-606.9835219636382
 21
1375.783937039579
 31
0.0
  0
LINE
  5
113
330
1F
100
AcDbEntity
  8
0
  6
Continuous
370
    13
100
AcDbLine
 10
-580.5012243778549
 20
1375.783937039579
 30
0.0
 11
-575.0366232887245
 21
1375.783937039579
 31
0.0
  0
LINE
  5
114
330
1F
100
AcDbEntity
  8
0
  6
Continuous
370
    13
100
AcDbLine
 10
-562.2649930763044
 20
1375.783937039579
 30
0.0
 11
-559.4289597825648
 21
1375.783937039579
 31
0.0
  0
LINE
  5
115
330
1F
100
AcDbEntity
  8
0
  6
Continuous
370
    13
100
AcDbLine
 10
-656.8454108712025
 20
1375.783937039579
 30
0.0
 11
-651.3808097820721
 21
1375.783937039579
 31
0.0
  0
LINE
  5
116
330
1F
100
AcDbEntity
  8
0
  6
Continuous
370
    13
100
AcDbLine
 10
-653.9443652441488
 20
1397.582196208066
 30
0.0
 11
-659.3364869784182
 21
1397.582196208066
 31
0.0
  0
LINE
  5
117
330
1F
100
AcDbEntity
  8
0
  6
Continuous
370
    13
100
AcDbLine
 10
-1188.27870929763
 20
1438.273283106673
 30
0.0
 11
-1191.35092721292
 21
1389.223905719001
 31
0.0
  0
CIRCLE
  5
118
330
1F
100
AcDbEntity
  8
0
  6
Continuous
370
    13
100
AcDbCircle
 10
-1191.507208971093
 20
1386.728795298185
 30
0.0
 40
2.5
  0
HATCH
  5
119
330
1F
100
AcDbEntity
  8
0
  6
Continuous
370
    13
100
AcDbHatch
 10
0.0
 20
0.0
 30
0.0
210
0.0
220
0.0
230
1.0
  2
SOLID
 70
     1
 71
     0
 91
        1
 92
        2
 72
     0
 73
     1
 93
       16
 10
-1189.007208971093
 20
1386.728795298185
 10
-1189.197510139815
 20
1387.685503879098
 10
-1189.739442018127
 20
1388.496562251151
 10
-1190.55050039018
 20
1389.038494129463
 10
-1191.507208971093
 20
1389.228795298185
 10
-1192.463917552006
 20
1389.038494129463
 10
-1193.27497592406
 20
1388.496562251151
 10
-1193.816907802372
 20
1387.685503879098
 10
-1194.007208971093
 20
1386.728795298185
 10
-1193.816907802372
 20
1385.772086717272
 10
-1193.27497592406
 20
1384.961028345219
 10
-1192.463917552006
 20
1384.419096466907
 10
-1191.507208971093
 20
1384.228795298185
 10
-1190.55050039018
 20
1384.419096466907
 10
-1189.739442018127
 20
1384.961028345219
 10
-1189.197510139815
 20
1385.772086717272
 97
        0
 75
     0
 76
     1
 98
        0
  0
LINE
  5
11A
330
1F
100
AcDbEntity
  8
0
  6
Continuous
370
    13
100
AcDbLine
 10
-1400.346801479158
 20
1381.744866076767
 30
0.0
 11
-1208.346801479157
 21
1381.744866076767
 31
0.0
  0
LINE
  5
11C
330
1F
100
AcDbEntity
  8
0
  6
Przerywana b. gęsta
370
    50
100
AcDbLine
 10
-1408.799416601116
 20
1299.744866076767
 30
0.0
 11
-1180.331919787526
 21
1299.744866076767
 31
0.0
  0
LINE
  5
11D
330
1F
100
AcDbEntity
  8
0
  6
Continuous
370
    13
100
AcDbLine
 10
-1387.892580054903
 20
836.0598439214585
 30
0.0
 11
-1387.892580054903
 21
1884.28611508367
 31
0.0
  0
LINE
  5
11E
330
1F
100
AcDbEntity
  8
0
  6
Continuous
370
    13
100
AcDbLine
 10
-1091.452605427777
 20
1272.416909400889
 30
0.0
 11
-1075.09038944992
 21
1272.416909400889
 31
0.0
  0
LINE
  5
11F
330
1F
100
AcDbEntity
  8
0
  6
Continuous
370
    13
100
AcDbLine
 10
-1059.35748947121
 20
1272.416909400889
 30
0.0
 11
-1042.995273493353
 21
1272.416909400889
 31
0.0
  0
LINE
  5
120
330
1F
100
AcDbEntity
  8
0
  6
Continuous
370
    13
100
AcDbLine
 10
-1029.150321512089
 20
1272.416909400889
 30
0.0
 11
-1012.788105534232
 21
1272.416909400889
 31
0.0
  0
LINE
  5
121
330
1F
100
AcDbEntity
  8
0
  6
Continuous
370
    13
100
AcDbLine
 10
-1009.082027417651
 20
1272.416909400889
 30
0.0
 11
-1001.072968015083
 21
1272.416909400889
 31
0.0
  0
LINE
  5
122
330
1F
100
AcDbEntity
  8
0
  6
Continuous
370
    13
100
AcDbLine
 10
-1071.943809454179
 20
1260.022117942756
 30
0.0
 11
-1060.616121469508
 21
1260.022117942756
 31
0.0
  0
LINE
  5
123
330
1F
100
AcDbEntity
  8
0
  6
Continuous
370
    13
100
AcDbLine
 10
-1044.883221490799
 20
1260.022117942756
 30
0.0
 11
-1028.521005512942
 21
1260.022117942756
 31
0.0
  0
LINE
  5
124
330
1F
100
AcDbEntity
  8
0
  6
Continuous
370
    13
100
AcDbLine
 10
-1021.039031401471
 20
1260.022117942756
 30
0.0
 11
-1009.7113434168
 21
1260.022117942756
 31
0.0
  0
LINE
  5
125
330
1F
100
AcDbEntity
  8
0
  6
Continuous
370
    13
100
AcDbLine
 10
-1094.599185423519
 20
1260.022117942756
 30
0.0
 11
-1083.271497438851
 21
1260.022117942756
 31
0.0
  0
LINE
  5
126
330
1F
100
AcDbEntity
  8
0
  6
Continuous
370
    13
100
AcDbLine
 10
-1066.995568605055
 20
1250.990617248585
 30
0.0
 11
-1064.47899172398
 21
1250.990617248585
 31
0.0
  0
LINE
  5
127
330
1F
100
AcDbEntity
  8
0
  6
Continuous
370
    13
100
AcDbLine
 10
-1035.957787071803
 20
1250.571187768405
 30
0.0
 11
-1033.650924930818
 21
1250.571187768405
 31
0.0
  0
LINE
  5
128
330
1F
100
AcDbEntity
  8
0
  6
Continuous
370
    13
100
AcDbLine
 10
-1017.785342803279
 20
1250.571187768405
 30
0.0
 11
-1013.591048001489
 21
1250.571187768405
 31
0.0
  0
LINE
  5
129
330
1F
100
AcDbEntity
  8
0
  6
Continuous
370
    13
100
AcDbLine
 10
-1080.57442887107
 20
1250.593470563811
 30
0.0
 11
-1075.10982778194
 21
1250.593470563811
 31
0.0
  0
LINE
  5
12A
330
1F
100
AcDbEntity
  8
0
  6
Continuous
370
    13
100
AcDbLine
 10
-1054.092131285287
 20
1250.593470563811
 30
0.0
 11
-1048.627530196157
 21
1250.593470563811
 31
0.0
  0
LINE
  5
12B
330
1F
100
AcDbEntity
  8
0
  6
Continuous
370
    13
100
AcDbLine
 10
-1022.145232610373
 20
1250.593470563811
 30
0.0
 11
-1016.680631521243
 21
1250.593470563811
 31
0.0
  0
LINE
  5
12C
330
1F
100
AcDbEntity
  8
0
  6
Continuous
370
    13
100
AcDbLine
 10
-1003.909001308823
 20
1250.593470563811
 30
0.0
 11
-1001.072968015083
 21
1250.593470563811
 31
0.0
  0
LINE
  5
12D
330
1F
100
AcDbEntity
  8
0
  6
Continuous
370
    13
100
AcDbLine
 10
-1098.489419103721
 20
1250.593470563811
 30
0.0
 11
-1093.024818014591
 21
1250.593470563811
 31
0.0
  0
LINE
  5
12E
330
1F
100
AcDbEntity
  8
0
  6
Continuous
370
    13
100
AcDbLine
 10
-1095.588373476667
 20
1272.391729732298
 30
0.0
 11
-1100.980495210937
 21
1272.391729732298
 31
0.0
  0
LINE
  5
12F
330
1F
100
AcDbEntity
  8
0
  6
Continuous
370
    13
100
AcDbLine
 10
-739.9561236134746
 20
1241.248973437138
 30
0.0
 11
-676.1191778564876
 21
1270.57394029185
 31
0.0
  0
CIRCLE
  5
130
330
1F
100
AcDbEntity
  8
0
  6
Continuous
370
    13
100
AcDbCircle
 10
-673.8474112048185
 20
1271.617528467504
 30
0.0
 40
2.5
  0
HATCH
  5
131
330
1F
100
AcDbEntity
  8
0
  6
Continuous
370
    13
100
AcDbHatch
 10
0.0
 20
0.0
 30
0.0
210
0.0
220
0.0
230
1.0
  2
SOLID
 70
     1
 71
     0
 91
        1
 92
        2
 72
     0
 73
     1
 93
       16
 10
-671.3474112048185
 20
1271.617528467504
 10
-671.5377123735403
 20
1272.574237048417
 10
-672.0796442518522
 20
1273.385295420471
 10
-672.8907026239058
 20
1273.927227298783
 10
-673.8474112048185
 20
1274.117528467504
 10
-674.8041197857311
 20
1273.927227298783
 10
-675.6151781577848
 20
1273.385295420471
 10
-676.1571100360967
 20
1272.574237048417
 10
-676.3474112048184
 20
1271.617528467504
 10
-676.1571100360967
 20
1270.660819886591
 10
-675.6151781577848
 20
1269.849761514538
 10
-674.8041197857311
 20
1269.307829636226
 10
-673.8474112048185
 20
1269.117528467504
 10
-672.8907026239058
 20
1269.307829636226
 10
-672.0796442518522
 20
1269.849761514538
 10
-671.5377123735403
 20
1270.660819886591
 97
        0
 75
     0
 76
     1
 98
        0
  0
LINE
  5
132
330
1F
100
AcDbEntity
  8
0
  6
Continuous
370
    13
100
AcDbLine
 10
-765.0963425614302
 20
1244.886277687888
 30
0.0
 11
-813.203003321163
 21
1288.075138919026
 31
0.0
  0
CIRCLE
  5
133
330
1F
100
AcDbEntity
  8
0
  6
Continuous
370
    13
100
AcDbCircle
 10
-815.0632972684681
 20
1289.745260600108
 30
0.0
 40
2.5
  0
HATCH
  5
134
330
1F
100
AcDbEntity
  8
0
  6
Continuous
370
    13
100
AcDbHatch
 10
0.0
 20
0.0
 30
0.0
210
0.0
220
0.0
230
1.0
  2
SOLID
 70
     1
 71
     0
 91
        1
 92
        2
 72
     0
 73
     1
 93
       16
 10
-812.5632972684681
 20
1289.745260600108
 10
-812.7535984371899
 20
1290.701969181021
 10
-813.2955303155018
 20
1291.513027553074
 10
-814.1065886875554
 20
1292.054959431386
 10
-815.0632972684681
 20
1292.245260600108
 10
-816.0200058493807
 20
1292.054959431386
 10
-816.8310642214344
 20
1291.513027553074
 10
-817.3729960997463
 20
1290.701969181021
 10
-817.563297268468
 20
1289.745260600108
 10
-817.3729960997463
 20
1288.788552019195
 10
-816.8310642214344
 20
1287.977493647142
 10
-816.0200058493807
 20
1287.43556176883
 10
-815.0632972684681
 20
1287.245260600108
 10
-814.1065886875554
 20
1287.43556176883
 10
-813.2955303155018
 20
1287.977493647142
 10
-812.7535984371899
 20
1288.788552019195
 97
        0
 75
     0
 76
     1
 98
        0
  0
LINE
  5
135
330
1F
100
AcDbEntity
  8
0
  6
Continuous
370
    13
100
AcDbLine
 10
-767.7660102308266
 20
1240.909633874047
 30
0.0
 11
-889.1540548778281
 21
1294.478090516408
 31
0.0
  0
CIRCLE
  5
136
330
1F
100
AcDbEntity
  8
0
  6
Continuous
370
    13
100
AcDbCircle
 10
-891.441245638629
 20
1295.487426151223
 30
0.0
 40
2.5
  0
HATCH
  5
137
330
1F
100
AcDbEntity
  8
0
  6
Continuous
370
    13
100
AcDbHatch
 10
0.0
 20
0.0
 30
0.0
210
0.0
220
0.0
230
1.0
  2
SOLID
 70
     1
 71
     0
 91
        1
 92
        2
 72
     0
 73
     1
 93
       16
 10
-888.941245638629
 20
1295.487426151223
 10
-889.1315468073508
 20
1296.444134732136
 10
-889.6734786856626
 20
1297.255193104189
 10
-890.4845370577162
 20
1297.797124982501
 10
-891.441245638629
 20
1297.987426151223
 10
-892.3979542195416
 20
1297.797124982501
 10
-893.2090125915953
 20
1297.255193104189
 10
-893.7509444699072
 20
1296.444134732136
 10
-893.9412456386289
 20
1295.487426151223
 10
-893.7509444699072
 20
1294.53071757031
 10
-893.2090125915953
 20
1293.719659198257
 10
-892.3979542195416
 20
1293.177727319945
 10
-891.441245638629
 20
1292.987426151223
 10
-890.4845370577162
 20
1293.177727319945
 10
-889.6734786856626
 20
1293.719659198257
 10
-889.1315468073508
 20
1294.53071757031
 97
        0
 75
     0
 76
     1
 98
        0
  0
LINE
  5
139
330
1F
100
AcDbEntity
  8
0
  6
Krawędzie ukryte
 62
   255
370
     0
100
AcDbLine
 10
-884.3595112463018
 20
1847.016232052762
 30
0.0
 11
-884.3595112463018
 21
1533.806288112116
 31
0.0
  0
LINE
  5
13A
330
1F
100
AcDbEntity
  8
0
  6
Continuous
370
    13
100
AcDbLine
 10
-1054.805762984273
 20
1093.130591913375
 30
0.0
 11
-1119.841522936938
 21
1143.63529937657
 31
0.0
  0
CIRCLE
  5
13B
330
1F
100
AcDbEntity
  8
0
  6
Continuous
370
    13
100
AcDbCircle
 10
-1121.816060288597
 20
1145.16866242781
 30
0.0
 40
2.5
  0
HATCH
  5
13C
330
1F
100
AcDbEntity
  8
0
  6
Continuous
370
    13
100
AcDbHatch
 10
0.0
 20
0.0
 30
0.0
210
0.0
220
0.0
230
1.0
  2
SOLID
 70
     1
 71
     0
 91
        1
 92
        2
 72
     0
 73
     1
 93
       16
 10
-1119.316060288597
 20
1145.16866242781
 10
-1119.506361457319
 20
1146.125371008722
 10
-1120.048293335631
 20
1146.936429380776
 10
-1120.859351707684
 20
1147.478361259088
 10
-1121.816060288597
 20
1147.668662427809
 10
-1122.77276886951
 20
1147.478361259088
 10
-1123.583827241564
 20
1146.936429380776
 10
-1124.125759119876
 20
1146.125371008722
 10
-1124.316060288597
 20
1145.16866242781
 10
-1124.125759119876
 20
1144.211953846897
 10
-1123.583827241564
 20
1143.400895474843
 10
-1122.77276886951
 20
1142.858963596531
 10
-1121.816060288597
 20
1142.66866242781
 10
-1120.859351707684
 20
1142.858963596531
 10
-1120.048293335631
 20
1143.400895474843
 10
-1119.506361457319
 20
1144.211953846897
 97
        0
 75
     0
 76
     1
 98
        0
  0
LINE
  5
13D
330
1F
100
AcDbEntity
  8
0
  6
Continuous
370
    13
100
AcDbLine
 10
-655.5958988931491
 20
1367.161136509495
 30
0.0
 11
-639.2336829152921
 21
1367.161136509495
 31
0.0
  0
LINE
  5
13E
330
1F
100
AcDbEntity
  8
0
  6
Continuous
370
    13
100
AcDbLine
 10
-623.500782936582
 20
1367.161136509495
 30
0.0
 11
-607.1385669587252
 21
1367.161136509495
 31
0.0
  0
LINE
  5
13F
330
1F
100
AcDbEntity
  8
0
  6
Continuous
370
    13
100
AcDbLine
 10
-593.293614977461
 20
1367.161136509495
 30
0.0
 11
-576.931398999604
 21
1367.161136509495
 31
0.0
  0
LINE
  5
140
330
1F
100
AcDbEntity
  8
0
  6
Continuous
370
    13
100
AcDbLine
 10
-573.2253208830228
 20
1367.161136509495
 30
0.0
 11
-565.2162614804552
 21
1367.161136509495
 31
0.0
  0
LINE
  5
141
330
1F
100
AcDbEntity
  8
0
  6
Continuous
370
    13
100
AcDbLine
 10
-659.731666942039
 20
1367.135956840904
 30
0.0
 11
-665.1237886763085
 21
1367.135956840904
 31
0.0
  0
LINE
  5
142
330
1F
100
AcDbEntity
  8
0
  6
Continuous
370
    13
100
AcDbLine
 10
-625.2835419494887
 20
1358.435844279758
 30
0.0
 11
-613.9558539648173
 21
1358.435844279758
 31
0.0
  0
LINE
  5
143
330
1F
100
AcDbEntity
  8
0
  6
Continuous
370
    13
100
AcDbLine
 10
-598.2229539861089
 20
1358.435844279758
 30
0.0
 11
-581.860738008252
 21
1358.435844279758
 31
0.0
  0
LINE
  5
144
330
1F
100
AcDbEntity
  8
0
  6
Continuous
370
    13
100
AcDbLine
 10
-574.3787638967809
 20
1358.435844279758
 30
0.0
 11
-563.0510759121094
 21
1358.435844279758
 31
0.0
  0
LINE
  5
145
330
1F
100
AcDbEntity
  8
0
  6
Continuous
370
    13
100
AcDbLine
 10
-647.9389179188283
 20
1358.435844279758
 30
0.0
 11
-636.6112299341603
 21
1358.435844279758
 31
0.0
  0
LINE
  5
146
330
1F
100
AcDbEntity
  8
0
  6
Continuous
370
    13
100
AcDbLine
 10
-1225.64676879212
 20
1441.108945692587
 30
0.0
 11
-1199.158568992982
 21
1397.99081577084
 31
0.0
  0
CIRCLE
  5
147
330
1F
100
AcDbEntity
  8
0
  6
Continuous
370
    13
100
AcDbCircle
 10
-1197.849975358223
 20
1395.860655518871
 30
0.0
 40
2.5
  0
HATCH
  5
148
330
1F
100
AcDbEntity
  8
0
  6
Continuous
370
    13
100
AcDbHatch
 10
0.0
 20
0.0
 30
0.0
210
0.0
220
0.0
230
1.0
  2
SOLID
 70
     1
 71
     0
 91
        1
 92
        2
 72
     0
 73
     1
 93
       16
 10
-1195.349975358223
 20
1395.860655518871
 10
-1195.540276526945
 20
1396.817364099784
 10
-1196.082208405257
 20
1397.628422471838
 10
-1196.89326677731
 20
1398.17035435015
 10
-1197.849975358223
 20
1398.360655518871
 10
-1198.806683939136
 20
1398.17035435015
 10
-1199.617742311189
 20
1397.628422471838
 10
-1200.159674189501
 20
1396.817364099784
 10
-1200.349975358223
 20
1395.860655518871
 10
-1200.159674189501
 20
1394.903946937959
 10
-1199.617742311189
 20
1394.092888565905
 10
-1198.806683939136
 20
1393.550956687593
 10
-1197.849975358223
 20
1393.360655518871
 10
-1196.89326677731
 20
1393.550956687593
 10
-1196.082208405257
 20
1394.092888565905
 10
-1195.540276526945
 20
1394.903946937959
 97
        0
 75
     0
 76
     1
 98
        0
  0
LINE
  5
149
330
1F
100
AcDbEntity
  8
0
  6
Continuous
370
    50
100
AcDbLine
 10
-1208.346801479157
 20
1396.659690053051
 30
0.0
 11
-1181.418001240127
 21
1396.659690053051
 31
0.0
  0
LINE
  5
14A
330
1F
100
AcDbEntity
  8
0
  6
Continuous
370
    50
100
AcDbLine
 10
-1109.824845730697
 20
1106.744866076767
 30
0.0
 11
-1109.824845730697
 21
1370.584820717448
 31
0.0
  0
LINE
  5
14B
330
1F
100
AcDbEntity
  8
0
  6
Continuous
370
    13
100
AcDbLine
 10
-1056.898304371275
 20
929.6090547630346
 30
0.0
 11
-1106.138029362422
 21
911.6575553553618
 31
0.0
  0
CIRCLE
  5
14C
330
1F
100
AcDbEntity
  8
0
  6
Continuous
370
    13
100
AcDbCircle
 10
-1108.486805178643
 20
910.8012539101115
 30
0.0
 40
2.5
  0
HATCH
  5
14D
330
1F
100
AcDbEntity
  8
0
  6
Continuous
370
    13
100
AcDbHatch
 10
0.0
 20
0.0
 30
0.0
210
0.0
220
0.0
230
1.0
  2
SOLID
 70
     1
 71
     0
 91
        1
 92
        2
 72
     0
 73
     1
 93
       16
 10
-1105.986805178643
 20
910.8012539101115
 10
-1106.177106347365
 20
911.7579624910243
 10
-1106.719038225677
 20
912.5690208630779
 10
-1107.53009659773
 20
913.1109527413897
 10
-1108.486805178643
 20
913.3012539101115
 10
-1109.443513759556
 20
913.1109527413897
 10
-1110.254572131609
 20
912.5690208630779
 10
-1110.796504009921
 20
911.7579624910243
 10
-1110.986805178643
 20
910.8012539101115
 10
-1110.796504009921
 20
909.8445453291989
 10
-1110.254572131609
 20
909.0334869571452
 10
-1109.443513759556
 20
908.4915550788334
 10
-1108.486805178643
 20
908.3012539101117
 10
-1107.53009659773
 20
908.4915550788334
 10
-1106.719038225677
 20
909.0334869571452
 10
-1106.177106347365
 20
909.8445453291989
 97
        0
 75
     0
 76
     1
 98
        0
  0
LWPOLYLINE
  5
14E
330
1F
100
AcDbEntity
  8
0
  6
Continuous
370
    13
100
AcDbPolyline
 90
        4
 70
   129
 43
0.0
 10
-1428.799416601116
 20
480.6939318790031
 10
-1428.799416601116
 20
1915.693931879015
 10
-528.6607699187331
 20
1915.693931879015
 10
-528.6607699187331
 20
480.6939318790031
  0
LWPOLYLINE
  5
14F
330
1F
100
AcDbEntity
  8
@__WIDOCZNE
  6
Continuous
370
    13
100
AcDbPolyline
 90
        2
 70
   129
 43
0.0
 10
-528.6607699187331
 20
510.6939318789998
 10
-1160.795630819306
 20
510.6939318789998
  0
LWPOLYLINE
  5
150
330
1F
100
AcDbEntity
  8
@__WIDOCZNE
  6
Continuous
370
    13
100
AcDbPolyline
 90
        4
 70
   129
 43
0.0
 10
-1428.660769918733
 20
590.6939318789912
 10
-1428.660769918733
 20
480.6939318790024
 10
-528.6607699187331
 20
480.6939318790031
 10
-528.6607699187331
 20
590.6939318789916
  0
LWPOLYLINE
  5
151
330
1F
100
AcDbEntity
  8
@__WIDOCZNE
  6
Continuous
370
    13
100
AcDbPolyline
 90
        2
 70
   128
 43
0.0
 10
-598.6607699186624
 20
565.6939318789944
 10
-598.6607699186624
 20
590.6939318789916
  0
LWPOLYLINE
  5
152
330
1F
100
AcDbEntity
  8
@__WIDOCZNE
  6
Continuous
370
    13
100
AcDbPolyline
 90
        2
 70
   128
 43
0.0
 10
-528.6607699187331
 20
565.6939318789944
 10
-683.6607699186899
 20
565.6939318789944
  0
LWPOLYLINE
  5
153
330
1F
100
AcDbEntity
  8
@__WIDOCZNE
  6
Continuous
370
    13
100
AcDbPolyline
 90
        2
 70
   128
 43
0.0
 10
-683.6607699186899
 20
510.6939318789998
 10
-683.6607699186899
 20
590.6939318789916
  0
LWPOLYLINE
  5
154
330
1F
100
AcDbEntity
  8
@__WIDOCZNE
  6
Continuous
370
    13
100
AcDbPolyline
 90
        2
 70
   128
 43
0.0
 10
-1160.795630819306
 20
590.6939318789912
 10
-1160.795630819306
 20
480.693931879002
  0
LWPOLYLINE
  5
155
330
1F
100
AcDbEntity
  8
@__WIDOCZNE
  6
Continuous
370
    13
100
AcDbPolyline
 90
        4
 70
   129
 43
0.0
 10
-503.6569186220005
 20
455.4690161498167
 10
-1553.818673084962
 20
455.4690161498167
 10
-1553.818673084961
 20
1940.697783175748
 10
-503.6569186219997
 20
1940.697783175748
  0
LWPOLYLINE
  5
158
330
1F
100
AcDbEntity
  8
Linia Izolacji - ARCHICAD
  6
IZOLACJA CIENKA
370
    35
100
AcDbPolyline
 90
        2
 70
   128
 43
0.0
 10
-1183.143679615713
 20
1374.297998127898
 10
-1407.824922090178
 20
1374.297998127898
  0
LWPOLYLINE
  5
15A
330
1F
100
AcDbEntity
  8
0
  6
Continuous
 62
    22
370
    50
100
AcDbPolyline
 90
        4
 70
   128
 43
0.0
 10
-1185.432503356457
 20
1394.538925808487
 10
-1185.432503356457
 20
1384.297998127898
 42
-0.414213562373095
 10
-1195.432503356457
 20
1374.297998127898
 10
-1245.51866755482
 20
1374.297998127898
  0
LWPOLYLINE
  5
15B
330
1F
100
AcDbEntity
  8
Linia Izolacji - ARCHICAD
  6
IZOLACJA CIENKA
370
    35
100
AcDbPolyline
 90
        2
 70
   128
 43
0.0
 10
-1108.486805178643
 20
1104.244866076767
 10
-1408.799416601116
 20
1104.244866076767
  0
LWPOLYLINE
  5
15C
330
1F
100
AcDbEntity
  8
Linia Izolacji - ARCHICAD
  6
IZOLACJA CIENKA
370
    35
100
AcDbPolyline
 90
        2
 70
   128
 43
0.0
 10
-1108.486805178643
 20
1106.744866076767
 10
-1108.486805178643
 20
640.4489417194859
  0
LWPOLYLINE
  5
15D
330
1F
100
AcDbEntity
  8
0
  6
Continuous
370
    35
100
AcDbPolyline
 90
        6
 70
   128
 43
0.0
 10
-1130.186242274883
 20
1383.450715124658
 10
-1130.186242274883
 20
1395.450715124658
 42
-0.414213562373095
 10
-1127.186242274883
 20
1398.450715124658
 10
-1111.186242274883
 20
1398.450715124658
 42
-0.414213562373095
 10
-1108.186242274883
 20
1395.450715124658
 10
-1108.186242274883
 20
1383.450715124658
  0
LWPOLYLINE
  5
15E
330
1F
100
AcDbEntity
  8
0
  6
Continuous
370
    35
100
AcDbPolyline
 90
        6
 70
   128
 43
0.0
 10
-1102.326242274883
 20
1383.450715124658
 10
-1102.326242274883
 20
1395.450715124658
 42
-0.414213562373095
 10
-1099.326242274883
 20
1398.450715124658
 10
-1083.326242274883
 20
1398.450715124658
 42
-0.414213562373095
 10
-1080.326242274883
 20
1395.450715124658
 10
-1080.326242274883
 20
1383.450715124658
  0
LWPOLYLINE
  5
15F
330
1F
100
AcDbEntity
  8
0
  6
Continuous
370
    35
100
AcDbPolyline
 90
        6
 70
   128
 43
0.0
 10
-1074.466242274883
 20
1383.450715124658
 10
-1074.466242274883
 20
1395.450715124658
 42
-0.414213562373095
 10
-1071.466242274883
 20
1398.450715124658
 10
-1055.466242274883
 20
1398.450715124658
 42
-0.414213562373095
 10
-1052.466242274883
 20
1395.450715124658
 10
-1052.466242274883
 20
1383.450715124658
  0
LWPOLYLINE
  5
160
330
1F
100
AcDbEntity
  8
0
  6
Continuous
370
    35
100
AcDbPolyline
 90
        6
 70
   128
 43
0.0
 10
-1046.606242274883
 20
1383.450715124658
 10
-1046.606242274883
 20
1395.450715124658
 42
-0.414213562373095
 10
-1043.606242274883
 20
1398.450715124658
 10
-1027.606242274883
 20
1398.450715124658
 42
-0.414213562373095
 10
-1024.606242274883
 20
1395.450715124658
 10
-1024.606242274883
 20
1383.450715124658
  0
LWPOLYLINE
  5
161
330
1F
100
AcDbEntity
  8
0
  6
Continuous
370
    35
100
AcDbPolyline
 90
        6
 70
   128
 43
0.0
 10
-1018.746242274883
 20
1383.450715124658
 10
-1018.746242274883
 20
1395.450715124658
 42
-0.414213562373095
 10
-1015.746242274883
 20
1398.450715124658
 10
-999.7462422748829
 20
1398.450715124658
 42
-0.414213562373095
 10
-996.746242274883
 20
1395.450715124658
 10
-996.746242274883
 20
1383.450715124658
  0
LWPOLYLINE
  5
162
330
1F
100
AcDbEntity
  8
0
  6
Continuous
370
    35
100
AcDbPolyline
 90
        6
 70
   128
 43
0.0
 10
-990.8862422748832
 20
1383.450715124658
 10
-990.8862422748832
 20
1395.450715124658
 42
-0.414213562373095
 10
-987.8862422748833
 20
1398.450715124658
 10
-971.8862422748829
 20
1398.450715124658
 42
-0.414213562373095
 10
-968.886242274883
 20
1395.450715124658
 10
-968.886242274883
 20
1383.450715124658
  0
LWPOLYLINE
  5
163
330
1F
100
AcDbEntity
  8
0
  6
Continuous
370
    35
100
AcDbPolyline
 90
        6
 70
   128
 43
0.0
 10
-963.0262422748832
 20
1383.450715124658
 10
-963.0262422748832
 20
1395.450715124658
 42
-0.414213562373095
 10
-960.0262422748833
 20
1398.450715124658
 10
-944.0262422748829
 20
1398.450715124658
 42
-0.414213562373095
 10
-941.026242274883
 20
1395.450715124658
 10
-941.026242274883
 20
1383.450715124658
  0
LWPOLYLINE
  5
164
330
1F
100
AcDbEntity
  8
0
  6
Continuous
370
    35
100
AcDbPolyline
 90
        6
 70
   128
 43
0.0
 10
-935.1662422748832
 20
1383.450715124658
 10
-935.1662422748832
 20
1395.450715124658
 42
-0.414213562373095
 10
-932.1662422748833
 20
1398.450715124658
 10
-916.1662422748828
 20
1398.450715124658
 42
-0.414213562373095
 10
-913.166242274883
 20
1395.450715124658
 10
-913.166242274883
 20
1383.450715124658
  0
LWPOLYLINE
  5
165
330
1F
100
AcDbEntity
  8
0
  6
Continuous
370
    35
100
AcDbPolyline
 90
        6
 70
   128
 43
0.0
 10
-907.3062422748832
 20
1383.450715124658
 10
-907.3062422748832
 20
1395.450715124658
 42
-0.414213562373095
 10
-904.3062422748833
 20
1398.450715124658
 10
-888.3062422748828
 20
1398.450715124658
 42
-0.414213562373095
 10
-885.306242274883
 20
1395.450715124658
 10
-885.306242274883
 20
1383.450715124658
  0
LWPOLYLINE
  5
166
330
1F
100
AcDbEntity
  8
0
  6
Continuous
370
    35
100
AcDbPolyline
 90
        6
 70
   129
 43
0.0
 10
-1133.106242274883
 20
1389.450715124658
 10
-827.0262422748829
 20
1389.450715124658
 10
-827.0262422748829
 20
1380.450715124657
 42
-0.414213562373095
 10
-831.0262422748829
 20
1376.450715124657
 10
-1129.106242274883
 20
1376.450715124657
 42
-0.414213562373095
 10
-1133.106242274883
 20
1380.450715124657
  0
LWPOLYLINE
  5
167
330
1F
100
AcDbEntity
  8
0
  6
Continuous
370
    35
100
AcDbPolyline
 90
        6
 70
   128
 43
0.0
 10
-873.8474112048185
 20
640.4489417194858
 10
-873.8474112048185
 20
1234.767366152252
 10
-833.8474112048184
 20
1234.767366152252
 10
-785.2738207053349
 20
1376.933972492207
 10
-673.8474112048185
 20
1376.933972492207
 10
-673.8474112048185
 20
640.4489417194858
  0
LWPOLYLINE
  5
168
330
1F
100
AcDbEntity
  8
0
  6
Continuous
370
    35
100
AcDbPolyline
 90
        4
 70
   129
 43
0.0
 10
-873.8474112048185
 20
1234.767366152252
 10
-1089.914470980236
 20
1234.767366152252
 10
-1064.26945345908
 20
1134.767366152252
 10
-873.8474112048185
 20
1134.767366152252
  0
LWPOLYLINE
  5
169
330
1F
100
AcDbEntity
  8
0
  6
Continuous
370
    50
100
AcDbPolyline
 90
        3
 70
   128
 43
0.0
 10
-1350.331919787526
 20
638.4090071047948
 10
-1350.331919787526
 20
861.8361696109341
 10
-1408.799416601116
 20
861.8361696109341
  0
LWPOLYLINE
  5
16A
330
1F
100
AcDbEntity
  8
0
  6
Continuous
370
    35
100
AcDbPolyline
 90
        6
 70
   128
 43
0.0
 10
-879.4462422748832
 20
1383.450715124658
 10
-879.4462422748832
 20
1395.450715124658
 42
-0.414213562373095
 10
-876.4462422748833
 20
1398.450715124658
 10
-860.4462422748828
 20
1398.450715124658
 42
-0.414213562373095
 10
-857.4462422748829
 20
1395.450715124658
 10
-857.4462422748829
 20
1383.450715124658
  0
LWPOLYLINE
  5
16B
330
1F
100
AcDbEntity
  8
0
  6
Continuous
370
    35
100
AcDbPolyline
 90
        6
 70
   128
 43
0.0
 10
-851.5862422748833
 20
1383.450715124658
 10
-851.5862422748833
 20
1395.450715124658
 42
-0.414213562373095
 10
-848.5862422748834
 20
1398.450715124658
 10
-832.5862422748829
 20
1398.450715124658
 42
-0.414213562373095
 10
-829.586242274883
 20
1395.450715124658
 10
-829.586242274883
 20
1383.450715124658
  0
CIRCLE
  5
16C
330
1F
100
AcDbEntity
  8
0
  6
Continuous
370
    35
100
AcDbCircle
 10
-1197.193639309687
 20
1384.814504305594
 30
0.0
 40
6.000000000000016
  0
SPLINE
  5
16D
330
1F
100
AcDbEntity
  8
0
  6
Continuous
370
    13
100
AcDbSpline
210
0.0
220
0.0
230
1.0
 70
     8
 71
     3
 72
    38
 73
    34
 74
     0
 42
0.00001
 43
0.00001
 40
0.0
 40
0.0
 40
0.0
 40
0.0
 40
1.0
 40
1.0
 40
1.0
 40
2.0
 40
2.0
 40
2.0
 40
3.0
 40
3.0
 40
3.0
 40
4.0
 40
4.0
 40
4.0
 40
5.0
 40
5.0
 40
5.0
 40
6.0
 40
6.0
 40
6.0
 40
7.0
 40
7.0
 40
7.0
 40
8.0
 40
8.0
 40
8.0
 40
9.0
 40
9.0
 40
9.0
 40
10.0
 40
10.0
 40
10.0
 40
11.0
 40
11.0
 40
11.0
 40
11.0
 10
-673.6607699187314
 20
1407.821973022068
 30
0.0
 10
-671.5744260681333
 20
1407.992880345208
 30
0.0
 10
-669.4874252672491
 20
1408.155627793523
 30
0.0
 10
-669.4874252672456
 20
1408.155627793523
 30
0.0
 10
-669.4874252672456
 20
1408.155627793523
 30
0.0
 10
-666.9959571711033
 20
1407.894335200588
 30
0.0
 10
-664.5205325318137
 20
1407.51730974075
 30
0.0
 10
-656.3782763254285
 20
1406.277183969354
 30
0.0
 10
-648.2676620349395
 20
1403.897356879263
 30
0.0
 10
-640.2917512512953
 20
1405.678197121058
 30
0.0
 10
-638.6723537540071
 20
1406.039771906542
 30
0.0
 10
-637.0973923178251
 20
1406.602773116426
 30
0.0
 10
-635.4563800036103
 20
1406.843770155859
 30
0.0
 10
-629.794718269455
 20
1407.675234797768
 30
0.0
 10
-624.2685035936422
 20
1404.929646133352
 30
0.0
 10
-618.5325806367157
 20
1405.231979739964
 30
0.0
 10
-612.6700190222393
 20
1405.540988318044
 30
0.0
 10
-607.1122146956895
 20
1409.148767273227
 30
0.0
 10
-601.6087812698192
 20
1407.381033627824
 30
0.0
 10
-598.0656863121858
 20
1406.242971679801
 30
0.0
 10
-595.34581776194
 20
1403.134378486775
 30
0.0
 10
-591.6694070384683
 20
1402.814294116122
 30
0.0
 10
-586.9964513856925
 20
1402.407446192505
 30
0.0
 10
-583.44733181087
 20
1406.740511162745
 30
0.0
 10
-578.7750837113101
 20
1407.649665363807
 30
0.0
 10
-574.4921298622235
 20
1408.483068342818
 30
0.0
 10
-570.2690551750215
 20
1406.210354253275
 30
0.0
 10
-565.880760384152
 20
1406.306506683894
 30
0.0
 10
-561.8453075292659
 20
1406.394927954374
 30
0.0
 10
-557.9816199416143
 20
1408.467625959436
 30
0.0
 10
-554.0609640009233
 20
1407.649665363807
 30
0.0
 10
-552.0750954855718
 20
1407.235356580218
 30
0.0
 10
-550.340387205937
 20
1406.131241787677
 30
0.0
 10
-548.6607699187332
 20
1404.963348003982
 30
0.0
  0
SPLINE
  5
16E
330
1F
100
AcDbEntity
  8
0
  6
Continuous
370
    13
100
AcDbSpline
210
0.0
220
0.0
230
1.0
 70
     8
 71
     3
 72
    35
 73
    31
 74
     0
 42
0.00001
 43
0.00001
 40
0.0
 40
0.0
 40
0.0
 40
0.0
 40
1.0
 40
1.0
 40
1.0
 40
2.0
 40
2.0
 40
2.0
 40
3.0
 40
3.0
 40
3.0
 40
4.0
 40
4.0
 40
4.0
 40
5.0
 40
5.0
 40
5.0
 40
6.0
 40
6.0
 40
6.0
 40
7.0
 40
7.0
 40
7.0
 40
8.0
 40
8.0
 40
8.0
 40
9.0
 40
9.0
 40
9.0
 40
10.0
 40
10.0
 40
10.0
 40
10.0
 10
-1100.980495210937
 20
1279.772881528214
 30
0.0
 10
-1098.894151360339
 20
1279.943788851354
 30
0.0
 10
-1096.227141048464
 20
1278.16578080717
 30
0.0
 10
-1093.718484751042
 20
1277.45953970299
 30
0.0
 10
-1086.608297308297
 20
1275.45786787746
 30
0.0
 10
-1080.063778164391
 20
1281.825137864359
 30
0.0
 10
-1072.566058661708
 20
1281.820984955459
 30
0.0
 10
-1067.075433647733
 20
1281.817943755333
 30
0.0
 10
-1062.182504490416
 20
1278.577597605753
 30
0.0
 10
-1056.730610669856
 20
1277.780062262548
 30
0.0
 10
-1051.177378396775
 20
1276.967702529842
 30
0.0
 10
-1045.643257309219
 20
1278.739825643119
 30
0.0
 10
-1040.097386898613
 20
1279.747365852509
 30
0.0
 10
-1026.916780657612
 20
1282.141938712803
 30
0.0
 10
-1013.316354740147
 20
1281.490618261405
 30
0.0
 10
-1000.308654466644
 20
1278.217029989741
 30
0.0
 10
-995.2410414949082
 20
1276.941687074329
 30
0.0
 10
-990.2112366496069
 20
1275.32516287045
 30
0.0
 10
-985.0052958389632
 20
1275.411414241333
 30
0.0
 10
-975.3666876724845
 20
1275.571105486007
 30
0.0
 10
-966.8148553834413
 20
1282.193364740859
 30
0.0
 10
-957.2041943320104
 20
1281.787813669533
 30
0.0
 10
-951.1196545235838
 20
1281.531058007812
 30
0.0
 10
-945.5451386986349
 20
1278.654187539721
 30
0.0
 10
-939.6053319101779
 20
1277.196806081229
 30
0.0
 10
-933.693176732517
 20
1275.746209177572
 30
0.0
 10
-927.5290750854965
 20
1275.838451551507
 30
0.0
 10
-921.4963575340894
 20
1276.686694126972
 30
0.0
 10
-913.6482919317544
 20
1277.790187423687
 30
0.0
 10
-901.7512727425404
 20
1280.940775311909
 30
0.0
 10
-900.0716554553368
 20
1279.772881528214
 30
0.0
  0
MTEXT
  5
170
330
1F
100
AcDbEntity
  8
@__WIDOCZNE
  6
Continuous
370
    13
100
AcDbMText
 10
-903.4012551210088
 20
550.5906220835411
 30
0.0
 40
13.99999999999999
 41
0.0
 71
     5
 72
     1
  1
{IZOLACJA BASENU ZE STALI NIERDZEWNEJ\PSZCZEGÓŁ PODŁOGA - NIECKA}
  7
GENERATED_STYLE_2
 73
     1
 44
0.7938417127736344
  0
MTEXT
  5
171
330
1F
100
AcDbEntity
  8
@__WIDOCZNE
  6
Continuous
370
    13
100
AcDbMText
 10
-680.889556247934
 20
518.7154230668089
 30
0.0
 40
25.0
 41
0.0
 71
     7
 72
     1
  1
{08.02.01. }
  7
GENERATED_STYLE_2
 73
     1
 44
1.0
  0
MTEXT
  5
172
330
1F
100
AcDbEntity
  8
@__WIDOCZNE
  6
Continuous
370
    13
100
AcDbMText
 10
-1150.786666070435
 20
495.229047370558
 30
0.0
 40
7.5
 41
0.0
 71
     4
 72
     1
  1
{Rysunek nie wyczerpuje wszystkich aspektów technicznych zagadnienia, a jego integralną częścią są karty techniczne \Pposzczególnych produktów. Szczegółowych informacji udzielają technicy zastosowań i doradcy handlowo-techniczni Botament. }
  7
GENERATED_STYLE_1
 73
     1
 44
0.9278263558916974
  0
MTEXT
  5
173
330
1F
100
AcDbEntity
  8
@__WIDOCZNE
  6
Continuous
370
    13
100
AcDbMText
 10
-1293.929732474011
 20
496.1565792798132
 30
0.0
 40
7.5
 41
0.0
 71
     5
 72
     1
  1
{ ul. Prądzyńskiego 20, 63-000 Środa Wlkp., botament.pl\P +48 606-318-643, 61-286-45-17, technik@botament.pl  }
  7
GENERATED_STYLE_1
 73
     1
 44
0.918161229111832
  0
MTEXT
  5
174
330
1F
100
AcDbEntity
  8
@__WIDOCZNE
  6
Continuous
370
    13
100
AcDbMText
 10
-683.6607699186899
 20
563.9796461647087
 30
0.0
 40
7.5
 41
0.0
 71
     1
 72
     1
  1
{ nr rys:}
  7
GENERATED_STYLE_1
 73
     1
 44
1.0
  0
MTEXT
  5
175
330
1F
100
AcDbEntity
  8
@__WIDOCZNE
  6
Continuous
370
    13
100
AcDbMText
 10
-670.8029018631344
 20
588.979646164706
 30
0.0
 40
7.5
 41
0.0
 71
     2
 72
     1
  1
{ data:}
  7
GENERATED_STYLE_1
 73
     1
 44
1.0
  0
MTEXT
  5
176
330
1F
100
AcDbEntity
  8
@__WIDOCZNE
  6
Continuous
370
    13
100
AcDbMText
 10
-583.8149990853291
 20
588.979646164706
 30
0.0
 40
7.5
 41
0.0
 71
     2
 72
     1
  1
{ skala:}
  7
GENERATED_STYLE_1
 73
     1
 44
1.0
  0
MTEXT
  5
177
330
1F
100
AcDbEntity
  8
@__WIDOCZNE
  6
Continuous
370
    13
100
AcDbMText
 10
-551.5179444543365
 20
568.9125090726064
 30
0.0
 40
10.0
 41
0.0
 71
     7
 72
     1
  1
{1:5 }
  7
GENERATED_STYLE_1
 73
     1
 44
1.0
  0
MTEXT
  5
178
330
1F
100
AcDbEntity
  8
@__WIDOCZNE
  6
Continuous
370
    13
100
AcDbMText
 10
-627.1865754004525
 20
569.196312921532
 30
0.0
 40
10.0
 41
0.0
 71
     8
 72
     1
  1
{2023.01. }
  7
GENERATED_STYLE_1
 73
     1
 44
1.0
  0
MTEXT
  5
179
330
1F
100
AcDbEntity
  8
0
  6
Continuous
370
    13
100
AcDbMText
 10
-1379.90297736712
 20
1882.000400797956
 30
0.0
 40
10.00000000000001
 41
0.0
 71
     1
 72
     1
  3
\A1;{\fArial|b1|i0|c238|p38;PODŁOGA Z PŁYTEK PRZY BASENIE ZE STALI NIERDZEWNEJ\P\fArial|b0|i0|c238|p38;• PŁYTKI CERAMICZNE BASENOWE, ANTYPOŚLIZGOWE\P• WYPEŁNIENIE SPOIN - ZAPRAWA CHEMOODPORNA\P  - \fArial|b1|i0|c238|p38;BOTAMENT CF200\fArial|b0|i0|c
  3
238|p38; lub\P  - \fArial|b1|i0|c238|p38;MULTIFUGE Diamond MAX\P\fArial|b0|i0|c238|p38;• ZAPRAWA KLEJOWA \fArial|b1|i0|c238|p38;BOTAMENT M21 HP\P\fArial|b0|i0|c238|p38;  - \fArial|b1|i0|c238|p38;BOTAMENT M21 HP \P\fArial|b0|i0|c238|p38;• HYDROIZOLAC
  3
JA PRZECIWWODNA \P  - \fArial|b1|i0|c238|p38;BOTAMENT MD28 \fArial|b0|i0|c238|p38;(masa uszczelniająca) 2mm lub\P  - \fArial|b1|i0|c238|p38;BOTAMENT AE \fArial|b0|i0|c238|p38;(mata hydroizolacyjna)\fArial|b1|i0|c238|p38; \fArial|b0|i0|c238|p38;KLEJO
  3
NA NA ZAPRAWIE\P   \fArial|b1|i0|c238|p38; BOTAMENT M21/M21 HP Speed\P\fArial|b0|i0|c238|p38;• JASTRYCH CEMENTOWY Z OGRZEWANIEM PODŁOGOWYM\P• WARSTWA ROZDZIELAJĄCA - FOLIA PE\P• TERMOIZOLACJA - XPS (polistyren ekstrudowany)\P• HYDROIZOLACJA REAKTYWN
  1
A \fArial|b1|i0|c238|p38;BOTAMENT RD1/RD Flow/RD2\P\fArial|b0|i0|c238|p38;• WARSTWA NOŚNA POSADZKI -PŁYTA ŻELETOWA}
  7
GENERATED_STYLE_2
 73
     1
 44
0.9158739269010487
  0
MTEXT
  5
17A
330
1F
100
AcDbEntity
  8
0
  6
Continuous
370
    13
100
AcDbMText
 10
-884.3595112463018
 20
1759.867560723288
 30
0.0
 40
9.999999999999998
 41
0.0
 71
     1
 72
     1
  1
\A1;{\fArial|b0|i0|c238|p38;- SILIKON BASENOWY- \fArial|b1|i0|c238|p38;BOTAMENT S3}
  7
GENERATED_STYLE_1
 73
     1
 44
1.0
  0
MTEXT
  5
17B
330
1F
100
AcDbEntity
  8
0
  6
Continuous
370
    13
100
AcDbMText
 10
-884.3595112463018
 20
1726.006081328861
 30
0.0
 40
9.999999999999998
 41
0.0
 71
     1
 72
     1
  1
\A1;{\fArial|b0|i0|c238|p38;- \fArial|b1|i0|c238|p38;BOTAMENT CF200\fArial|b0|i0|c238|p38; lub \fArial|b1|i0|c238|p38;MULTIFUGE Diamond MAX}
  7
GENERATED_STYLE_1
 73
     1
 44
1.0
  0
MTEXT
  5
17C
330
1F
100
AcDbEntity
  8
0
  6
Continuous
370
    13
100
AcDbMText
 10
-916.659708401516
 20
1880.857543655099
 30
0.0
 40
15.0
 41
0.0
 71
     1
 72
     1
  1
{\LLEGENDA:}
  7
GENERATED_STYLE_1
 73
     1
 44
1.0
  0
MTEXT
  5
17D
330
1F
100
AcDbEntity
  8
0
  6
Continuous
370
    13
100
AcDbMText
 10
-884.3595112463018
 20
1790.213060235034
 30
0.0
 40
9.999999999999998
 41
0.0
 71
     4
 72
     1
  1
\A1;{\fArial|b0|i0|c238|p38;- TAŚMA USZCZELNIAJĄCA \fArial|b1|i0|c238|p38;BOTAMENT SB78 \P  \fArial|b0|i0|c238|p38;WKLEJONA NA ŻYWICY\fArial|b1|i0|c238|p38; MC-DUR 2098, \P  BOTAMENT BD}
  7
GENERATED_STYLE_1
 73
     1
 44
0.8763287666867601
  0
MTEXT
  5
17E
330
1F
100
AcDbEntity
  8
0
  6
Continuous
370
    13
100
AcDbMText
 10
-884.3595112463018
 20
1631.989392657107
 30
0.0
 40
9.999999999999993
 41
0.0
 71
     1
 72
     1
  1
{- NIECKA BASENU ZE STALI NIERDZEWNEJ\P  Z RYNNĄ PRZELEWOWĄ I KONSTRUKCJĄ STAL.}
  7
GENERATED_STYLE_1
 73
     1
 44
0.9212987520589633
  0
MTEXT
  5
17F
330
1F
100
AcDbEntity
  8
0
  6
Continuous
370
    13
100
AcDbMText
 10
-884.3595112463018
 20
1593.396781095836
 30
0.0
 40
9.999999999999995
 41
0.0
 71
     1
 72
     1
  1
{- OSŁONA KRAWĘDZI POSADZKI\P  TERMOIZOLACJA XPS ITP.}
  7
GENERATED_STYLE_1
 73
     1
 44
0.9237125406573471
  0
MTEXT
  5
180
330
1F
100
AcDbEntity
  8
0
  6
Continuous
370
    13
100
AcDbMText
 10
-884.3595112463018
 20
1844.756805969467
 30
0.0
 40
9.999999999999998
 41
0.0
 71
     1
 72
     1
  1
{- SZNUR POLIETYLENOWY}
  7
GENERATED_STYLE_1
 73
     1
 44
1.0
  0
MTEXT
  5
181
330
1F
100
AcDbEntity
  8
0
  6
Continuous
370
    13
100
AcDbMText
 10
-884.3595112463018
 20
1550.171055570314
 30
0.0
 40
9.999999999999993
 41
0.0
 71
     1
 72
     1
  1
{- PUSTKA NA KONSTRUKCJĘ I INSTALACJE \P  NIECKI BASENU}
  7
GENERATED_STYLE_1
 73
     1
 44
0.9237125406573476
  0
MTEXT
  5
182
330
1F
100
AcDbEntity
  8
0
  6
Continuous
370
    13
100
AcDbMText
 10
-884.3595112463018
 20
1691.309939613753
 30
0.0
 40
10.0
 41
0.0
 71
     1
 72
     1
  1
\A1;{\fArial|b0|i0|c238|p38;- HYDROIZOLACJA REAKTYWNA \P\fArial|b1|i0|c238|p38;  BOTAMENT RD1/RD Flow/RD2}
  7
GENERATED_STYLE_1
 73
     1
 44
0.9242558340148552
  0
MTEXT
  5
183
330
1F
100
AcDbEntity
  8
@__WIDOCZNE
  6
Continuous
370
    50
100
AcDbMText
 10
-1432.018051533138
 20
1915.694176981751
 30
0.0
 40
10.0
 41
0.0
 71
     9
 72
     1
  1
{druk: 230123}
  7
GENERATED_STYLE_1
 11
6.123233995736766E-17
 21
1.0
 31
0.0
 73
     1
 44
1.0
  0
WIPEOUT
  5
184
330
1F
100
AcDbEntity
  8
0
  6
Wipeout_Contour
 62
   254
 48
7765.52689716376
370
     0
 92
      140
310
8C00000001000000840000000600000005000000C9F2C5EB523A95C0753E2CBEFA9695400000000000000000BD4CED1F632595C0753E2CBEFA9695400000000000000000BD4CED1F632595C0F37282F5CDD395400000000000000000C9F2C5EB523A95C0F37282F5CDD395400000000000000000C9F2C5EB523A95C0753E2C
310
BEFA9695400000000000000000
100
AcDbWipeout
 90
        0
 10
-1358.580977528518
 20
1381.744866076767
 30
0.0
 11
5.23417604936094
 21
0.0
 31
0.0
 12
0.0
 22
15.20626578040492
 32
0.0
 13
1.0
 23
1.0
340
0
 70
    15
280
     1
281
    50
282
    50
283
     0
360
0
 71
     2
 91
        5
 14
-0.5
 24
0.5
 14
0.5
 24
0.5
 14
0.5
 24
-0.5
 14
-0.5
 24
-0.5
 14
-0.5
 24
0.5
  0
HATCH
  5
185
330
1F
100
AcDbEntity
  8
0
  6
Continuous
370
    13
100
AcDbHatch
 10
0.0
 20
0.0
 30
0.0
210
0.0
220
0.0
230
1.0
  2
__kropki_1_10n_0_5x0_5___A8
 70
     0
 71
     1
 91
        1
 92
        2
 72
     0
 73
     1
 93
        4
 10
-1358.580977528518
 20
1381.744866076767
 10
-1353.346801479157
 20
1381.744866076767
 10
-1353.346801479157
 20
1396.951131857172
 10
-1358.580977528518
 20
1396.951131857172
 97
        1
330
186
 75
     0
 76
     2
 52
0.0
 41
1.0
 77
     0
 78
     1
 53
0.0
 43
0.0
 44
0.0
 45
0.0
 46
2.5
 79
     2
 49
0.0
 49
-2.5
 98
        0
  0
LWPOLYLINE
  5
186
102
{ACAD_REACTORS
330
185
102
}
330
1F
100
AcDbEntity
  8
0
  6
Continuous
370
    13
100
AcDbPolyline
 90
        4
 70
   129
 43
0.0
 10
-1358.580977528518
 20
1381.744866076767
 10
-1353.346801479157
 20
1381.744866076767
 10
-1353.346801479157
 20
1396.951131857172
 10
-1358.580977528518
 20
1396.951131857172
  0
LINE
  5
187
330
1F
100
AcDbEntity
  8
0
  6
Continuous
370
    50
100
AcDbLine
 10
-1408.799416601116
 20
1396.951131857172
 30
0.0
 11
-1208.346801479157
 21
1396.951131857172
 31
0.0
  0
WIPEOUT
  5
189
330
1F
100
AcDbEntity
  8
@__WIDOCZNE
  6
Wipeout_Contour
 62
   254
 48
5964.384503693418
370
     0
 92
      140
310
8C000000010000008400000006000000050000001C39BD41490D81C0DFC31859A9F7944000000000000000001C39BD41490D81C0A31001E85E5B964000000000000000001E39BD41493D81C0A31001E85E5B964000000000000000001E39BD41493D81C0DFC31859A9F7944000000000000000001C39BD41490D81C0DFC318
310
59A9F794400000000000000000
100
AcDbWipeout
 90
        0
 10
-551.6607699187332
 20
1341.915378939586
 30
0.0
 11
6.000000000000227
 21
0.0
 31
0.0
 12
0.0
 22
88.92730296104946
 32
0.0
 13
1.0
 23
1.0
340
0
 70
    15
280
     1
281
    50
282
    50
283
     0
360
0
 71
     2
 91
        5
 14
0.5
 24
0.5
 14
0.5
 24
-0.5
 14
-0.5
 24
-0.5
 14
-0.5
 24
0.5
 14
0.5
 24
0.5
  0
WIPEOUT
  5
18A
330
1F
100
AcDbEntity
  8
@__WIDOCZNE
  6
Wipeout_Contour
 62
   254
 48
7091.058956522114
370
     0
 92
      140
310
8C00000001000000840000000600000005000000AEF6439A32F795C00498C16E970384400000000000000000AEF6439A32F795C0734B6FF77A2296400000000000000000AFF6439A320F96C0734B6FF77A2296400000000000000000AFF6439A320F96C00498C16E970384400000000000000000AEF6439A32F795C00498C1
310
6E970384400000000000000000
100
AcDbWipeout
 90
        0
 10
-1411.799416601116
 20
640.4489417194859
 30
0.0
 11
6.000000000000227
 21
0.0
 31
0.0
 12
0.0
 22
776.1711427941593
 32
0.0
 13
1.0
 23
1.0
340
0
 70
    15
280
     1
281
    50
282
    50
283
     0
360
0
 71
     2
 91
        5
 14
0.4999999999999811
 24
0.4999999999999998
 14
0.4999999999999811
 24
-0.5000000000000001
 14
-0.500000000000019
 24
-0.5000000000000001
 14
-0.500000000000019
 24
0.4999999999999998
 14
0.4999999999999811
 24
0.4999999999999998
  0
WIPEOUT
  5
18B
330
1F
100
AcDbEntity
  8
@__WIDOCZNE
  6
Wipeout_Contour
 62
   254
 48
4715.367915651275
370
     0
 92
      140
310
8C00000001000000840000000600000005000000C24CED1F63ED95C00298C16E97D383400000000000000000805F2213D0DA7FC00098C16E97D383400000000000000000805F2213D0DA7FC00298C16E970384400000000000000000C24CED1F63ED95C00498C16E970384400000000000000000C24CED1F63ED95C00298C1
310
6E97D383400000000000000000
100
AcDbWipeout
 90
        0
 10
-1403.346801479158
 20
634.4489417194854
 30
0.0
 11
893.6710019812967
 21
0.0
 31
0.0
 12
0.0
 22
6.000000000000455
 32
0.0
 13
1.0
 23
1.0
340
0
 70
    15
280
     1
281
    50
282
    50
283
     0
360
0
 71
     2
 91
        5
 14
-0.5
 24
0.4999999999999621
 14
0.5
 24
0.5
 14
0.5
 24
-0.4999999999999621
 14
-0.5
 24
-0.5
 14
-0.5
 24
0.4999999999999621
  0
LINE
  5
18C
330
1F
100
AcDbEntity
  8
@__WIDOCZNE
  6
Przerywana gęsta
370
    13
100
AcDbLine
 10
-548.6607699187332
 20
1430.842681900635
 30
0.0
 11
-548.6607699187332
 21
1341.915378939586
 31
0.0
  0
LINE
  5
18D
330
1F
100
AcDbEntity
  8
@__WIDOCZNE
  6
Przerywana gęsta
370
    13
100
AcDbLine
 10
-1408.799416601116
 20
1416.620084513645
 30
0.0
 11
-1408.799416601116
 21
640.4489417194859
 31
0.0
  0
LINE
  5
18E
330
1F
100
AcDbEntity
  8
0
  6
Continuous
370
    13
100
AcDbLine
 10
-1265.689734990309
 20
1441.131790705152
 30
0.0
 11
-1224.632265142947
 21
1376.40906611091
 31
0.0
  0
CIRCLE
  5
18F
330
1F
100
AcDbEntity
  8
0
  6
Continuous
370
    13
100
AcDbCircle
 10
-1223.293089287765
 20
1374.297998127898
 30
0.0
 40
2.5
  0
HATCH
  5
190
330
1F
100
AcDbEntity
  8
0
  6
Continuous
370
    13
100
AcDbHatch
 10
0.0
 20
0.0
 30
0.0
210
0.0
220
0.0
230
1.0
  2
SOLID
 70
     1
 71
     0
 91
        1
 92
        2
 72
     0
 73
     1
 93
       16
 10
-1220.793089287765
 20
1374.297998127898
 10
-1220.983390456487
 20
1375.254706708811
 10
-1221.525322334799
 20
1376.065765080864
 10
-1222.336380706852
 20
1376.607696959176
 10
-1223.293089287765
 20
1376.797998127898
 10
-1224.249797868678
 20
1376.607696959176
 10
-1225.060856240731
 20
1376.065765080864
 10
-1225.602788119043
 20
1375.254706708811
 10
-1225.793089287765
 20
1374.297998127898
 10
-1225.602788119043
 20
1373.341289546985
 10
-1225.060856240731
 20
1372.530231174932
 10
-1224.249797868678
 20
1371.98829929662
 10
-1223.293089287765
 20
1371.797998127898
 10
-1222.336380706852
 20
1371.98829929662
 10
-1221.525322334799
 20
1372.530231174932
 10
-1220.983390456487
 20
1373.341289546985
 97
        0
 75
     0
 76
     1
 98
        0
  0
LINE
  5
191
330
1F
100
AcDbEntity
  8
0
  6
Continuous
370
    13
100
AcDbLine
 10
-1355.901231271936
 20
1438.273283106673
 30
0.0
 11
-1355.901231271936
 21
1391.942019219572
 31
0.0
  0
CIRCLE
  5
192
330
1F
100
AcDbEntity
  8
0
  6
Continuous
370
    13
100
AcDbCircle
 10
-1355.901231271936
 20
1389.442019219572
 30
0.0
 40
2.5
  0
HATCH
  5
193
330
1F
100
AcDbEntity
  8
0
  6
Continuous
370
    13
100
AcDbHatch
 10
0.0
 20
0.0
 30
0.0
210
0.0
220
0.0
230
1.0
  2
SOLID
 70
     1
 71
     0
 91
        1
 92
        2
 72
     0
 73
     1
 93
       16
 10
-1353.401231271936
 20
1389.442019219572
 10
-1353.591532440658
 20
1390.398727800485
 10
-1354.13346431897
 20
1391.209786172539
 10
-1354.944522691023
 20
1391.751718050851
 10
-1355.901231271936
 20
1391.942019219572
 10
-1356.857939852849
 20
1391.751718050851
 10
-1357.668998224902
 20
1391.209786172539
 10
-1358.210930103214
 20
1390.398727800485
 10
-1358.401231271936
 20
1389.442019219572
 10
-1358.210930103214
 20
1388.485310638659
 10
-1357.668998224902
 20
1387.674252266606
 10
-1356.857939852849
 20
1387.132320388294
 10
-1355.901231271936
 20
1386.942019219572
 10
-1354.944522691023
 20
1387.132320388294
 10
-1354.13346431897
 20
1387.674252266606
 10
-1353.591532440658
 20
1388.485310638659
 97
        0
 75
     0
 76
     1
 98
        0
  0
LINE
  5
194
330
1F
100
AcDbEntity
  8
@__WIDOCZNE
  6
Przerywana gęsta
370
    13
100
AcDbLine
 10
-640.6437964108198
 20
638.6145309357496
 30
0.0
 11
-1400.346801479158
 21
638.6145309357497
 31
0.0
  0
LWPOLYLINE
  5
195
330
1F
100
AcDbEntity
  8
0
  6
Continuous
370
     0
100
AcDbPolyline
 90
       22
 70
   128
 43
0.0
 10
-1181.418001240127
 20
1339.78804541147
 10
-1181.418001240127
 20
1393.951131857172
 42
-0.414213562373095
 10
-1178.418001240127
 20
1396.951131857172
 10
-1143.113747616489
 20
1396.951131857172
 42
-0.414213562373095
 10
-1139.927544537214
 20
1393.764928777898
 10
-1139.927544537214
 20
1375.366972809779
 42
0.4142135623730732
 10
-1136.741341457941
 20
1372.635869911451
 10
-1108.946002909121
 20
1372.635869911451
 42
-0.414213562373095
 10
-1100.980495210937
 20
1364.215262032322
 10
-1100.980495210937
 20
1251.63334271719
 42
0.414213562373095
 10
-1088.235682893843
 20
1238.888530400096
 10
-924.4497466397461
 20
1238.888530400096
 42
0.3207588491274024
 10
-906.359294415338
 20
1251.824844365732
 10
-867.3654689690868
 20
1365.953113964518
 42
-0.3207588491273944
 10
-858.3202428568826
 20
1372.421270947336
 10
-832.2766412967453
 20
1372.421270947336
 42
0.4142135623731029
 10
-820.026242274883
 20
1385.16608326443
 10
-820.026242274883
 20
1417.821973022068
 42
-0.4574433915311492
 10
-810.3185682000905
 20
1427.003329290562
 10
-680.4728786330019
 20
1415.703532745481
 42
-0.3722659909959958
 10
-673.6607699187314
 20
1407.821973022068
 10
-673.6607699187314
 20
640.4489417194858
  0
VIEWPORT
  5
5D
330
1B
100
AcDbEntity
 67
     1
  8
0
  6
Continuous
370
     0
100
AcDbViewport
 10
102.165452373465
 20
148.5
 30
0.0
 40
258.802914303684
 41
356.4
 68
     1
 69
     1
 12
102.165452373465
 22
148.5
 13
0.0
 23
0.0
 14
0.5
 24
0.5
 15
0.0
 25
0.0
 16
0.0
 26
0.0
 36
1.0
 17
0.0
 27
0.0
 37
0.0
 42
50.0
 43
0.0
 44
0.0
 45
356.4
 50
0.0
 51
0.0
 72
   100
 90
   557152
  1

281
     0
 71
     1
 74
     0
110
0.0
120
0.0
130
0.0
111
1.0
121
0.0
131
0.0
112
0.0
122
1.0
132
0.0
 79
     0
146
0.0
170
     0
  0
INSERT
  5
19D
102
{ACAD_XDICTIONARY
360
19E
102
}
330
1B
100
AcDbEntity
 67
     1
  8
0
370
    13
100
AcDbBlockReference
  2
Rysunek_1
 10
0.0
 20
0.0
 30
0.0
  0
VIEWPORT
  5
1A1
330
1B
100
AcDbEntity
 67
     1
  8
NonPlottable_0
  6
Continuous
 62
    65
370
    20
100
AcDbViewport
 10
105.0
 20
148.4992895255456
 30
0.0
 40
210.0
 41
296.9985790510912
 68
     2
 69
     2
 12
0.0
 22
0.0
 13
0.0
 23
0.0
 14
0.5
 24
0.5
 15
0.0
 25
0.0
 16
0.0
 26
0.0
 36
1.0
 17
-1028.818673084961
 27
1198.194230803476
 37
0.0
 42
50.0
 43
0.0
 44
0.0
 45
1484.992895255456
 50
0.0
 51
0.0
 72
   100
 90
   622688
340
1A3
  1

281
     0
 71
     1
 74
     0
110
0.0
120
0.0
130
0.0
111
1.0
121
0.0
131
0.0
112
0.0
122
1.0
132
0.0
 79
     0
146
0.0
170
     0
  0
LWPOLYLINE
  5
1A3
102
{ACAD_REACTORS
330
1A1
102
}
330
1B
100
AcDbEntity
 67
     1
  8
NonPlottable_0
  6
Continuous
 62
    65
370
    20
100
AcDbPolyline
 90
        4
 70
   129
 43
0.0
 10
0.0
 20
0.0
 10
210.0
 20
0.0
 10
210.0
 20
296.9985790510912
 10
0.0
 20
296.9985790510912
  0
ENDSEC
  0
SECTION
  2
OBJECTS
  0
DICTIONARY
  5
C
330
0
100
AcDbDictionary
281
     1
  3
ACAD_GROUP
350
D
  3
ACAD_LAYOUT
350
1A
  3
ACAD_MLEADERSTYLE
350
1AA
  3
ACAD_MLINESTYLE
350
17
  3
ACAD_PLOTSETTINGS
350
19
  3
ACAD_PLOTSTYLENAME
350
E
  3
ACAD_SCALELIST
350
3B
  3
ACAD_TABLESTYLE
350
1A9
  3
ACAD_VISUALSTYLE
350
2A
  3
WATERMARKS
350
1A7
  0
DICTIONARY
  5
19E
330
19D
100
AcDbDictionary
280
     1
281
     1
  3
ACAD_FILTER
360
19F
  0
DICTIONARY
  5
D
102
{ACAD_REACTORS
330
C
102
}
330
C
100
AcDbDictionary
281
     1
  0
DICTIONARY
  5
1A
102
{ACAD_REACTORS
330
C
102
}
330
C
100
AcDbDictionary
281
     1
  3
A.01 08.02.01_BASEN stal
350
1E
  3
Layout2
350
26
  3
Model
350
22
  0
DICTIONARY
  5
1AA
102
{ACAD_REACTORS
330
C
102
}
330
C
100
AcDbDictionary
281
     1
  0
DICTIONARY
  5
17
102
{ACAD_REACTORS
330
C
102
}
330
C
100
AcDbDictionary
281
     1
  3
Standard
350
18
  0
DICTIONARY
  5
19
102
{ACAD_REACTORS
330
C
102
}
330
C
100
AcDbDictionary
281
     1
  0
ACDBDICTIONARYWDFLT
  5
E
102
{ACAD_REACTORS
330
C
102
}
330
C
100
AcDbDictionary
281
     1
  3
Normal
350
F
100
AcDbDictionaryWithDefault
340
F
  0
DICTIONARY
  5
3B
102
{ACAD_REACTORS
330
C
102
}
330
C
100
AcDbDictionary
281
     1
  3
A0
350
3C
  3
A1
350
3D
  3
A2
350
3E
  3
A3
350
3F
  3
A4
350
40
  3
A5
350
41
  3
A6
350
42
  3
A7
350
43
  3
A8
350
44
  3
A9
350
45
  3
B0
350
46
  3
B1
350
47
  3
B2
350
48
  3
B3
350
49
  3
B4
350
4A
  3
B5
350
4B
  3
B6
350
4C
  3
B7
350
4D
  3
B8
350
4E
  3
B9
350
4F
  3
C0
350
50
  3
C1
350
51
  3
C2
350
52
  3
C3
350
53
  3
C4
350
54
  3
C5
350
55
  3
C6
350
56
  3
C7
350
57
  3
C8
350
58
  3
C9
350
59
  3
D0
350
5A
  3
D1
350
5B
  3
D2
350
5C
  0
DICTIONARY
  5
1A9
102
{ACAD_REACTORS
330
C
102
}
330
C
100
AcDbDictionary
281
     1
  0
DICTIONARY
  5
2A
102
{ACAD_REACTORS
330
C
102
}
330
C
100
AcDbDictionary
281
     1
  3
2dWireframe
350
2F
  3
3D Hidden
350
31
  3
3dWireframe
350
30
  3
Basic
350
32
  3
Brighten
350
36
  3
ColorChange
350
3A
  3
Conceptual
350
34
  3
Dim
350
35
  3
Facepattern
350
39
  3
Flat
350
2B
  3
FlatWithEdges
350
2C
  3
Gouraud
350
2D
  3
GouraudWithEdges
350
2E
  3
Linepattern
350
38
  3
Realistic
350
33
  3
Thicken
350
37
  0
DICTIONARY
  5
1A7
102
{ACAD_REACTORS
330
C
102
}
330
C
100
AcDbDictionary
281
     1
  3
AC_WATERMARK
350
1A8
  0
DICTIONARY
  5
19F
102
{ACAD_REACTORS
330
19E
102
}
330
19E
100
AcDbDictionary
280
     1
281
     1
  3
SPATIAL
360
1A0
  0
LAYOUT
  5
1E
102
{ACAD_REACTORS
330
1A
102
}
330
1A
100
AcDbPlotSettings
  1

  2
none_device
  4

  6

 40
0.0
 41
0.0
 42
0.0
 43
0.0
 44
210.0
 45
297.0
 46
0.0
 47
0.0
 48
0.0
 49
0.0
140
0.0
141
0.0
142
1.0
143
1.0
 70
   688
 72
     1
 73
     0
 74
     5
  7

 75
    16
 76
     0
 77
     2
 78
   300
147
1.0
148
0.0
149
0.0
100
AcDbLayout
  1
A.01 08.02.01_BASEN stal
 70
     0
 71
     1
 10
-5.66909525307001
 20
0.0
 11
210.0
 21
297.0
 12
0.0
 22
0.0
 32
0.0
 14
-5.66909525307001
 24
0.0
 34
0.0
 15
210.0
 25
297.0
 35
0.0
146
0.0
 13
0.0
 23
0.0
 33
0.0
 16
1.0
 26
0.0
 36
0.0
 17
0.0
 27
1.0
 37
0.0
 76
     0
330
1B
331
5D
  0
LAYOUT
  5
26
102
{ACAD_REACTORS
330
1A
102
}
330
1A
100
AcDbPlotSettings
  1

  2
none_device
  4

  6

 40
0.0
 41
0.0
 42
0.0
 43
0.0
 44
0.0
 45
0.0
 46
0.0
 47
0.0
 48
0.0
 49
0.0
140
0.0
141
0.0
142
1.0
143
1.0
 70
   688
 72
     0
 73
     0
 74
     5
  7

 75
    16
 76
     0
 77
     2
 78
   300
147
1.0
148
0.0
149
0.0
100
AcDbLayout
  1
Layout2
 70
     1
 71
     2
 10
0.0
 20
0.0
 11
0.0
 21
0.0
 12
0.0
 22
0.0
 32
0.0
 14
0.0
 24
0.0
 34
0.0
 15
0.0
 25
0.0
 35
0.0
146
0.0
 13
0.0
 23
0.0
 33
0.0
 16
1.0
 26
0.0
 36
0.0
 17
0.0
 27
1.0
 37
0.0
 76
     0
330
23
  0
LAYOUT
  5
22
102
{ACAD_REACTORS
330
1A
102
}
330
1A
100
AcDbPlotSettings
  1

  2
none_device
  4

  6

 40
0.0
 41
0.0
 42
0.0
 43
0.0
 44
0.0
 45
0.0
 46
0.0
 47
0.0
 48
0.0
 49
0.0
140
0.0
141
0.0
142
1.0
143
1.0
 70
  1712
 72
     0
 73
     0
 74
     0
  7

 75
     0
 76
     0
 77
     2
 78
   300
147
1.0
148
0.0
149
0.0
100
AcDbLayout
  1
Model
 70
     1
 71
     0
 10
0.0
 20
0.0
 11
12.0
 21
9.0
 12
0.0
 22
0.0
 32
0.0
 14
1.000000000000000E+20
 24
1.000000000000000E+20
 34
1.000000000000000E+20
 15
-1.000000000000000E+20
 25
-1.000000000000000E+20
 35
-1.000000000000000E+20
146
0.0
 13
0.0
 23
0.0
 33
0.0
 16
1.0
 26
0.0
 36
0.0
 17
0.0
 27
1.0
 37
0.0
 76
     0
330
1F
331
29
  0
MLINESTYLE
  5
18
102
{ACAD_REACTORS
330
17
102
}
330
17
100
AcDbMlineStyle
  2
Standard
 70
     0
  3

 62
   256
 51
90.0
 52
90.0
 71
     2
 49
0.5
 62
   256
  6
BYLAYER
 49
-0.5
 62
   256
  6
BYLAYER
  0
ACDBPLACEHOLDER
  5
F
102
{ACAD_REACTORS
330
E
102
}
330
E
  0
SCALE
  5
3C
102
{ACAD_REACTORS
330
3B
102
}
330
3B
100
AcDbScale
 70
     0
300
1:1
140
1.0
141
1.0
290
     1
  0
SCALE
  5
3D
102
{ACAD_REACTORS
330
3B
102
}
330
3B
100
AcDbScale
 70
     0
300
1:2
140
1.0
141
2.0
290
     0
  0
SCALE
  5
3E
102
{ACAD_REACTORS
330
3B
102
}
330
3B
100
AcDbScale
 70
     0
300
1:4
140
1.0
141
4.0
290
     0
  0
SCALE
  5
3F
102
{ACAD_REACTORS
330
3B
102
}
330
3B
100
AcDbScale
 70
     0
300
1:5
140
1.0
141
5.0
290
     0
  0
SCALE
  5
40
102
{ACAD_REACTORS
330
3B
102
}
330
3B
100
AcDbScale
 70
     0
300
1:8
140
1.0
141
8.0
290
     0
  0
SCALE
  5
41
102
{ACAD_REACTORS
330
3B
102
}
330
3B
100
AcDbScale
 70
     0
300
1:10
140
1.0
141
10.0
290
     0
  0
SCALE
  5
42
102
{ACAD_REACTORS
330
3B
102
}
330
3B
100
AcDbScale
 70
     0
300
1:16
140
1.0
141
16.0
290
     0
  0
SCALE
  5
43
102
{ACAD_REACTORS
330
3B
102
}
330
3B
100
AcDbScale
 70
     0
300
1:20
140
1.0
141
20.0
290
     0
  0
SCALE
  5
44
102
{ACAD_REACTORS
330
3B
102
}
330
3B
100
AcDbScale
 70
     0
300
1:30
140
1.0
141
30.0
290
     0
  0
SCALE
  5
45
102
{ACAD_REACTORS
330
3B
102
}
330
3B
100
AcDbScale
 70
     0
300
1:40
140
1.0
141
40.0
290
     0
  0
SCALE
  5
46
102
{ACAD_REACTORS
330
3B
102
}
330
3B
100
AcDbScale
 70
     0
300
1:50
140
1.0
141
50.0
290
     0
  0
SCALE
  5
47
102
{ACAD_REACTORS
330
3B
102
}
330
3B
100
AcDbScale
 70
     0
300
1:100
140
1.0
141
100.0
290
     0
  0
SCALE
  5
48
102
{ACAD_REACTORS
330
3B
102
}
330
3B
100
AcDbScale
 70
     0
300
2:1
140
2.0
141
1.0
290
     0
  0
SCALE
  5
49
102
{ACAD_REACTORS
330
3B
102
}
330
3B
100
AcDbScale
 70
     0
300
4:1
140
4.0
141
1.0
290
     0
  0
SCALE
  5
4A
102
{ACAD_REACTORS
330
3B
102
}
330
3B
100
AcDbScale
 70
     0
300
8:1
140
8.0
141
1.0
290
     0
  0
SCALE
  5
4B
102
{ACAD_REACTORS
330
3B
102
}
330
3B
100
AcDbScale
 70
     0
300
10:1
140
10.0
141
1.0
290
     0
  0
SCALE
  5
4C
102
{ACAD_REACTORS
330
3B
102
}
330
3B
100
AcDbScale
 70
     0
300
100:1
140
100.0
141
1.0
290
     0
  0
SCALE
  5
4D
102
{ACAD_REACTORS
330
3B
102
}
330
3B
100
AcDbScale
 70
     0
300
1/128" = 1'-0"
140
0.0078125
141
12.0
290
     0
  0
SCALE
  5
4E
102
{ACAD_REACTORS
330
3B
102
}
330
3B
100
AcDbScale
 70
     0
300
1/64" = 1'-0"
140
0.015625
141
12.0
290
     0
  0
SCALE
  5
4F
102
{ACAD_REACTORS
330
3B
102
}
330
3B
100
AcDbScale
 70
     0
300
1/32" = 1'-0"
140
0.03125
141
12.0
290
     0
  0
SCALE
  5
50
102
{ACAD_REACTORS
330
3B
102
}
330
3B
100
AcDbScale
 70
     0
300
1/16" = 1'-0"
140
0.0625
141
12.0
290
     0
  0
SCALE
  5
51
102
{ACAD_REACTORS
330
3B
102
}
330
3B
100
AcDbScale
 70
     0
300
3/32" = 1'-0"
140
0.09375
141
12.0
290
     0
  0
SCALE
  5
52
102
{ACAD_REACTORS
330
3B
102
}
330
3B
100
AcDbScale
 70
     0
300
1/8" = 1'-0"
140
0.125
141
12.0
290
     0
  0
SCALE
  5
53
102
{ACAD_REACTORS
330
3B
102
}
330
3B
100
AcDbScale
 70
     0
300
3/16" = 1'-0"
140
0.1875
141
12.0
290
     0
  0
SCALE
  5
54
102
{ACAD_REACTORS
330
3B
102
}
330
3B
100
AcDbScale
 70
     0
300
1/4" = 1'-0"
140
0.25
141
12.0
290
     0
  0
SCALE
  5
55
102
{ACAD_REACTORS
330
3B
102
}
330
3B
100
AcDbScale
 70
     0
300
3/8" = 1'-0"
140
0.375
141
12.0
290
     0
  0
SCALE
  5
56
102
{ACAD_REACTORS
330
3B
102
}
330
3B
100
AcDbScale
 70
     0
300
1/2" = 1'-0"
140
0.5
141
12.0
290
     0
  0
SCALE
  5
57
102
{ACAD_REACTORS
330
3B
102
}
330
3B
100
AcDbScale
 70
     0
300
3/4" = 1'-0"
140
0.75
141
12.0
290
     0
  0
SCALE
  5
58
102
{ACAD_REACTORS
330
3B
102
}
330
3B
100
AcDbScale
 70
     0
300
1" = 1'-0"
140
1.0
141
12.0
290
     0
  0
SCALE
  5
59
102
{ACAD_REACTORS
330
3B
102
}
330
3B
100
AcDbScale
 70
     0
300
1-1/2" = 1'-0"
140
1.5
141
12.0
290
     0
  0
SCALE
  5
5A
102
{ACAD_REACTORS
330
3B
102
}
330
3B
100
AcDbScale
 70
     0
300
3" = 1'-0"
140
3.0
141
12.0
290
     0
  0
SCALE
  5
5B
102
{ACAD_REACTORS
330
3B
102
}
330
3B
100
AcDbScale
 70
     0
300
6" = 1'-0"
140
6.0
141
12.0
290
     0
  0
SCALE
  5
5C
102
{ACAD_REACTORS
330
3B
102
}
330
3B
100
AcDbScale
 70
     0
300
1'-0" = 1'-0"
140
12.0
141
12.0
290
     0
  0
VISUALSTYLE
  5
2F
102
{ACAD_REACTORS
330
2A
102
}
330
2A
100
AcDbVisualStyle
  2
2dWireframe
 70
     4
 71
     0
 72
     2
 73
     0
 90
        0
 40
-0.6
 41
-30.0
 62
     5
 63
     7
421
 16777215
 74
     1
 91
        4
 64
     7
 65
   257
 75
     1
175
     1
 42
1.0
 92
        0
 66
   257
 43
1.0
 76
     1
 77
     6
 78
     2
 67
     7
 79
     5
170
     0
171
     0
290
     0
174
     0
 93
        1
 44
0.0
173
     0
291
     0
 45
0.0
1001
ACAD
1000
AcDbSavedByObjectVersion
1070
     0
  0
VISUALSTYLE
  5
31
102
{ACAD_REACTORS
330
2A
102
}
330
2A
100
AcDbVisualStyle
  2
3D Hidden
 70
     6
 71
     1
 72
     2
 73
     2
 90
        0
 40
-0.6
 41
-30.0
 62
     5
 63
     7
421
 16777215
 74
     2
 91
        2
 64
     7
 65
   257
 75
     2
175
     1
 42
40.0
 92
        0
 66
   257
 43
1.0
 76
     1
 77
     6
 78
     2
 67
     7
 79
     3
170
     0
171
     0
290
     0
174
     0
 93
        1
 44
0.0
173
     0
291
     0
 45
0.0
1001
ACAD
1000
AcDbSavedByObjectVersion
1070
     0
  0
VISUALSTYLE
  5
30
102
{ACAD_REACTORS
330
2A
102
}
330
2A
100
AcDbVisualStyle
  2
3dWireframe
 70
     5
 71
     0
 72
     2
 73
     0
 90
        0
 40
-0.6
 41
-30.0
 62
     5
 63
     7
421
 16777215
 74
     1
 91
        4
 64
     7
 65
   257
 75
     1
175
     1
 42
1.0
 92
        0
 66
   257
 43
1.0
 76
     1
 77
     6
 78
     2
 67
     7
 79
     5
170
     0
171
     0
290
     0
174
     0
 93
        1
 44
0.0
173
     0
291
     0
 45
0.0
1001
ACAD
1000
AcDbSavedByObjectVersion
1070
     0
  0
VISUALSTYLE
  5
32
102
{ACAD_REACTORS
330
2A
102
}
330
2A
100
AcDbVisualStyle
  2
Basic
 70
     7
 71
     1
 72
     0
 73
     1
 90
        0
 40
-0.6
 41
-30.0
 62
     5
 63
     7
421
 16777215
 74
     0
 91
        4
 64
     7
 65
   257
 75
     1
175
     1
 42
1.0
 92
        8
 66
     7
 43
1.0
 76
     1
 77
     6
 78
     2
 67
     7
 79
     5
170
     0
171
     0
290
     0
174
     0
 93
        1
 44
0.0
173
     0
291
     1
 45
0.0
1001
ACAD
1000
AcDbSavedByObjectVersion
1070
     0
  0
VISUALSTYLE
  5
36
102
{ACAD_REACTORS
330
2A
102
}
330
2A
100
AcDbVisualStyle
  2
Brighten
 70
    12
 71
     2
 72
     2
 73
     0
 90
        0
 40
-0.6
 41
-30.0
 62
     5
 63
     7
421
 16777215
 74
     1
 91
        4
 64
     7
 65
   257
 75
     1
175
     1
 42
1.0
 92
        8
 66
     7
 43
1.0
 76
     1
 77
     6
 78
     2
 67
     7
 79
     5
170
     0
171
     0
290
     0
174
     0
 93
        1
 44
50.0
173
     0
291
     1
 45
0.0
1001
ACAD
1000
AcDbSavedByObjectVersion
1070
     0
  0
VISUALSTYLE
  5
3A
102
{ACAD_REACTORS
330
2A
102
}
330
2A
100
AcDbVisualStyle
  2
ColorChange
 70
    16
 71
     2
 72
     2
 73
     3
 90
        0
 40
-0.6
 41
-30.0
 62
     5
 63
     8
421
  8421504
 74
     1
 91
        4
 64
     7
 65
   257
 75
     1
175
     1
 42
1.0
 92
        8
 66
     8
424
  8421504
 43
1.0
 76
     1
 77
     6
 78
     2
 67
     7
 79
     5
170
     0
171
     0
290
     0
174
     0
 93
        1
 44
0.0
173
     0
291
     1
 45
0.0
1001
ACAD
1000
AcDbSavedByObjectVersion
1070
     0
  0
VISUALSTYLE
  5
34
102
{ACAD_REACTORS
330
2A
102
}
330
2A
100
AcDbVisualStyle
  2
Conceptual
 70
     9
 71
     3
 72
     2
 73
     0
 90
        0
 40
-0.6
 41
-30.0
 62
     5
 63
     7
421
 16777215
 74
     2
 91
        2
 64
     7
 65
   257
 75
     1
175
     1
 42
40.0
 92
        8
 66
     7
 43
1.0
 76
     1
 77
     6
 78
     2
 67
     7
 79
     3
170
     0
171
     0
290
     0
174
     0
 93
        1
 44
0.0
173
     0
291
     0
 45
0.0
1001
ACAD
1000
AcDbSavedByObjectVersion
1070
     0
  0
VISUALSTYLE
  5
35
102
{ACAD_REACTORS
330
2A
102
}
330
2A
100
AcDbVisualStyle
  2
Dim
 70
    11
 71
     2
 72
     2
 73
     0
 90
        0
 40
-0.6
 41
-30.0
 62
     5
 63
     7
421
 16777215
 74
     1
 91
        4
 64
     7
 65
   257
 75
     1
175
     1
 42
1.0
 92
        8
 66
     7
 43
1.0
 76
     1
 77
     6
 78
     2
 67
     7
 79
     5
170
     0
171
     0
290
     0
174
     0
 93
        1
 44
-50.0
173
     0
291
     1
 45
0.0
1001
ACAD
1000
AcDbSavedByObjectVersion
1070
     0
  0
VISUALSTYLE
  5
39
102
{ACAD_REACTORS
330
2A
102
}
330
2A
100
AcDbVisualStyle
  2
Facepattern
 70
    15
 71
     2
 72
     2
 73
     0
 90
        0
 40
-0.6
 41
-30.0
 62
     5
 63
     7
421
 16777215
 74
     1
 91
        4
 64
     7
 65
   257
 75
     1
175
     1
 42
1.0
 92
        8
 66
     7
 43
1.0
 76
     1
 77
     6
 78
     2
 67
     7
 79
     5
170
     0
171
     0
290
     0
174
     0
 93
        1
 44
0.0
173
     0
291
     1
 45
0.0
1001
ACAD
1000
AcDbSavedByObjectVersion
1070
     0
  0
VISUALSTYLE
  5
2B
102
{ACAD_REACTORS
330
2A
102
}
330
2A
100
AcDbVisualStyle
  2
Flat
 70
     0
 71
     2
 72
     1
 73
     1
 90
        2
 40
-0.6
 41
30.0
 62
     5
 63
     7
421
 16777215
 74
     0
 91
        4
 64
     7
 65
   257
 75
     1
175
     1
 42
1.0
 92
        8
 66
     7
 43
1.0
 76
     1
 77
     6
 78
     2
 67
     7
 79
     5
170
     0
171
     0
290
     0
174
     0
 93
       13
 44
0.0
173
     0
291
     1
 45
0.0
1001
ACAD
1000
AcDbSavedByObjectVersion
1070
     0
  0
VISUALSTYLE
  5
2C
102
{ACAD_REACTORS
330
2A
102
}
330
2A
100
AcDbVisualStyle
  2
FlatWithEdges
 70
     1
 71
     2
 72
     1
 73
     1
 90
        2
 40
-0.6
 41
30.0
 62
     5
 63
     7
421
 16777215
 74
     1
 91
        4
 64
     7
 65
   257
 75
     1
175
     1
 42
1.0
 92
        0
 66
   257
 43
1.0
 76
     1
 77
     6
 78
     2
 67
     7
 79
     5
170
     0
171
     0
290
     0
174
     0
 93
       13
 44
0.0
173
     0
291
     1
 45
0.0
1001
ACAD
1000
AcDbSavedByObjectVersion
1070
     0
  0
VISUALSTYLE
  5
2D
102
{ACAD_REACTORS
330
2A
102
}
330
2A
100
AcDbVisualStyle
  2
Gouraud
 70
     2
 71
     2
 72
     2
 73
     1
 90
        2
 40
-0.6
 41
30.0
 62
     5
 63
     7
421
 16777215
 74
     0
 91
        4
 64
     7
 65
   257
 75
     1
175
     1
 42
1.0
 92
        0
 66
     7
 43
1.0
 76
     1
 77
     6
 78
     2
 67
     7
 79
     5
170
     0
171
     0
290
     0
174
     0
 93
       13
 44
0.0
173
     0
291
     1
 45
0.0
1001
ACAD
1000
AcDbSavedByObjectVersion
1070
     0
  0
VISUALSTYLE
  5
2E
102
{ACAD_REACTORS
330
2A
102
}
330
2A
100
AcDbVisualStyle
  2
GouraudWithEdges
 70
     3
 71
     2
 72
     2
 73
     1
 90
        2
 40
-0.6
 41
30.0
 62
     5
 63
     7
421
 16777215
 74
     1
 91
        4
 64
     7
 65
   257
 75
     1
175
     1
 42
1.0
 92
        0
 66
   257
 43
1.0
 76
     1
 77
     6
 78
     2
 67
     7
 79
     5
170
     0
171
     0
290
     0
174
     0
 93
       13
 44
0.0
173
     0
291
     1
 45
0.0
1001
ACAD
1000
AcDbSavedByObjectVersion
1070
     0
  0
VISUALSTYLE
  5
38
102
{ACAD_REACTORS
330
2A
102
}
330
2A
100
AcDbVisualStyle
  2
Linepattern
 70
    14
 71
     2
 72
     2
 73
     0
 90
        0
 40
-0.6
 41
-30.0
 62
     5
 63
     7
421
 16777215
 74
     1
 91
        4
 64
     7
 65
   257
 75
     7
175
     7
 42
1.0
 92
        8
 66
     7
 43
1.0
 76
     1
 77
     6
 78
     2
 67
     7
 79
     5
170
     0
171
     0
290
     0
174
     0
 93
        1
 44
0.0
173
     0
291
     1
 45
0.0
1001
ACAD
1000
AcDbSavedByObjectVersion
1070
     0
  0
VISUALSTYLE
  5
33
102
{ACAD_REACTORS
330
2A
102
}
330
2A
100
AcDbVisualStyle
  2
Realistic
 70
     8
 71
     2
 72
     2
 73
     0
 90
        0
 40
-0.6
 41
-30.0
 62
     5
 63
     7
421
 16777215
 74
     1
 91
        0
 64
     7
 65
   257
 75
     1
175
     1
 42
1.0
 92
        8
 66
     8
424
  7895160
 43
1.0
 76
     1
 77
     6
 78
     2
 67
     7
 79
     5
170
     0
171
     0
290
     0
174
     0
 93
       13
 44
0.0
173
     0
291
     0
 45
0.0
1001
ACAD
1000
AcDbSavedByObjectVersion
1070
     0
  0
VISUALSTYLE
  5
37
102
{ACAD_REACTORS
330
2A
102
}
330
2A
100
AcDbVisualStyle
  2
Thicken
 70
    13
 71
     2
 72
     2
 73
     0
 90
        0
 40
-0.6
 41
-30.0
 62
     5
 63
     7
421
 16777215
 74
     1
 91
        4
 64
     7
 65
   257
 75
     1
175
     1
 42
1.0
 92
       12
 66
     7
 43
1.0
 76
     1
 77
     6
 78
     2
 67
     7
 79
     5
170
     0
171
     0
290
     0
174
     0
 93
        1
 44
0.0
173
     0
291
     1
 45
0.0
1001
ACAD
1000
AcDbSavedByObjectVersion
1070
     0
  0
XRECORD
  5
1A8
102
{ACAD_REACTORS
330
1A7
102
}
330
1A7
100
AcDbXrecord
280
     1
1000
Ten plik DWG został utworzony w programie ArchiCAD(TM)®
  0
SPATIAL_FILTER
  5
1A0
102
{ACAD_REACTORS
330
19F
102
}
330
19F
100
AcDbFilter
100
AcDbSpatialFilter
 70
     4
 10
-5.66909525307001
 20
0.0
 10
210.0
 20
0.0
 10
210.0
 20
297.0
 10
-5.66909525307001
 20
297.0
210
0.0
220
0.0
230
1.0
 11
0.0
 21
0.0
 31
0.0
 71
     1
 72
     0
 73
     0
 40
1.0
 40
0.0
 40
0.0
 40
0.0
 40
0.0
 40
1.0
 40
0.0
 40
0.0
 40
0.0
 40
0.0
 40
1.0
 40
0.0
 40
1.0
 40
0.0
 40
0.0
 40
0.0
 40
0.0
 40
1.0
 40
0.0
 40
0.0
 40
0.0
 40
0.0
 40
1.0
 40
0.0
  0
ENDSEC
  0
EOF
