  0
SECTION
  2
HEADER
  9
$ACADVER
  1
AC1018
  9
$ACADMAINTVER
 70
     0
  9
$DWGCODEPAGE
  3
ANSI_1250
  9
$INSBASE
 10
0.0
 20
0.0
 30
0.0
  9
$EXTMIN
 10
1.000000000000000E+20
 20
1.000000000000000E+20
 30
1.000000000000000E+20
  9
$EXTMAX
 10
-1.000000000000000E+20
 20
-1.000000000000000E+20
 30
-1.000000000000000E+20
  9
$LIMMIN
 10
0.0
 20
0.0
  9
$LIMMAX
 10
12.0
 20
9.0
  9
$ORTHOMODE
 70
     0
  9
$REGENMODE
 70
     1
  9
$FILLMODE
 70
     1
  9
$QTEXTMODE
 70
     0
  9
$MIRRTEXT
 70
     1
  9
$LTSCALE
 40
1.0
  9
$ATTMODE
 70
     1
  9
$TEXTSIZE
 40
0.2
  9
$TRACEWID
 40
0.05
  9
$TEXTSTYLE
  7
Standard
  9
$CLAYER
  8
0
  9
$CELTYPE
  6
ByLayer
  9
$CECOLOR
 62
   256
  9
$CELTSCALE
 40
1.0
  9
$DISPSILH
 70
     0
  9
$DIMSCALE
 40
1.0
  9
$DIMASZ
 40
0.18
  9
$DIMEXO
 40
0.0625
  9
$DIMDLI
 40
0.38
  9
$DIMRND
 40
0.0
  9
$DIMDLE
 40
0.0
  9
$DIMEXE
 40
0.18
  9
$DIMTP
 40
0.0
  9
$DIMTM
 40
0.0
  9
$DIMTXT
 40
0.18
  9
$DIMCEN
 40
0.09
  9
$DIMTSZ
 40
0.0
  9
$DIMTOL
 70
     0
  9
$DIMLIM
 70
     0
  9
$DIMTIH
 70
     1
  9
$DIMTOH
 70
     1
  9
$DIMSE1
 70
     0
  9
$DIMSE2
 70
     0
  9
$DIMTAD
 70
     0
  9
$DIMZIN
 70
     0
  9
$DIMBLK
  1

  9
$DIMASO
 70
     1
  9
$DIMSHO
 70
     1
  9
$DIMPOST
  1

  9
$DIMAPOST
  1

  9
$DIMALT
 70
     0
  9
$DIMALTD
 70
     2
  9
$DIMALTF
 40
25.4
  9
$DIMLFAC
 40
1.0
  9
$DIMTOFL
 70
     0
  9
$DIMTVP
 40
0.0
  9
$DIMTIX
 70
     0
  9
$DIMSOXD
 70
     0
  9
$DIMSAH
 70
     0
  9
$DIMBLK1
  1

  9
$DIMBLK2
  1

  9
$DIMSTYLE
  2
Standard
  9
$DIMCLRD
 70
     0
  9
$DIMCLRE
 70
     0
  9
$DIMCLRT
 70
     0
  9
$DIMTFAC
 40
1.0
  9
$DIMGAP
 40
0.09
  9
$DIMJUST
 70
     0
  9
$DIMSD1
 70
     0
  9
$DIMSD2
 70
     0
  9
$DIMTOLJ
 70
     1
  9
$DIMTZIN
 70
     0
  9
$DIMALTZ
 70
     0
  9
$DIMALTTZ
 70
     0
  9
$DIMUPT
 70
     0
  9
$DIMDEC
 70
     4
  9
$DIMTDEC
 70
     4
  9
$DIMALTU
 70
     2
  9
$DIMALTTD
 70
     2
  9
$DIMTXSTY
  7
Standard
  9
$DIMAUNIT
 70
     0
  9
$DIMADEC
 70
     0
  9
$DIMALTRND
 40
0.0
  9
$DIMAZIN
 70
     0
  9
$DIMDSEP
 70
    46
  9
$DIMATFIT
 70
     3
  9
$DIMFRAC
 70
     0
  9
$DIMLDRBLK
  1

  9
$DIMLUNIT
 70
     2
  9
$DIMLWD
 70
    -2
  9
$DIMLWE
 70
    -2
  9
$DIMTMOVE
 70
     0
  9
$LUNITS
 70
     2
  9
$LUPREC
 70
     4
  9
$SKETCHINC
 40
0.1
  9
$FILLETRAD
 40
0.5
  9
$AUNITS
 70
     0
  9
$AUPREC
 70
     0
  9
$MENU
  1
.
  9
$ELEVATION
 40
0.0
  9
$PELEVATION
 40
0.0
  9
$THICKNESS
 40
0.0
  9
$LIMCHECK
 70
     0
  9
$CHAMFERA
 40
0.5
  9
$CHAMFERB
 40
0.5
  9
$CHAMFERC
 40
1.0
  9
$CHAMFERD
 40
0.0
  9
$SKPOLY
 70
     0
  9
$TDCREATE
 40
2459976.685852905
  9
$TDUCREATE
 40
2459976.644186238
  9
$TDUPDATE
 40
2459976.685852916
  9
$TDUUPDATE
 40
2459976.64418625
  9
$TDINDWG
 40
0.0000000116
  9
$TDUSRTIMER
 40
0.0000000116
  9
$USRTIMER
 70
     1
  9
$ANGBASE
 50
0.0
  9
$ANGDIR
 70
     0
  9
$PDMODE
 70
     0
  9
$PDSIZE
 40
0.0
  9
$PLINEWID
 40
0.0
  9
$SPLFRAME
 70
     0
  9
$SPLINETYPE
 70
     6
  9
$SPLINESEGS
 70
     8
  9
$HANDSEED
  5
40C
  9
$SURFTAB1
 70
     6
  9
$SURFTAB2
 70
     6
  9
$SURFTYPE
 70
     6
  9
$SURFU
 70
     6
  9
$SURFV
 70
     6
  9
$UCSBASE
  2

  9
$UCSNAME
  2

  9
$UCSORG
 10
0.0
 20
0.0
 30
0.0
  9
$UCSXDIR
 10
1.0
 20
0.0
 30
0.0
  9
$UCSYDIR
 10
0.0
 20
1.0
 30
0.0
  9
$UCSORTHOREF
  2

  9
$UCSORTHOVIEW
 70
     0
  9
$UCSORGTOP
 10
0.0
 20
0.0
 30
0.0
  9
$UCSORGBOTTOM
 10
0.0
 20
0.0
 30
0.0
  9
$UCSORGLEFT
 10
0.0
 20
0.0
 30
0.0
  9
$UCSORGRIGHT
 10
0.0
 20
0.0
 30
0.0
  9
$UCSORGFRONT
 10
0.0
 20
0.0
 30
0.0
  9
$UCSORGBACK
 10
0.0
 20
0.0
 30
0.0
  9
$PUCSBASE
  2

  9
$PUCSNAME
  2

  9
$PUCSORG
 10
0.0
 20
0.0
 30
0.0
  9
$PUCSXDIR
 10
1.0
 20
0.0
 30
0.0
  9
$PUCSYDIR
 10
0.0
 20
1.0
 30
0.0
  9
$PUCSORTHOREF
  2

  9
$PUCSORTHOVIEW
 70
     0
  9
$PUCSORGTOP
 10
0.0
 20
0.0
 30
0.0
  9
$PUCSORGBOTTOM
 10
0.0
 20
0.0
 30
0.0
  9
$PUCSORGLEFT
 10
0.0
 20
0.0
 30
0.0
  9
$PUCSORGRIGHT
 10
0.0
 20
0.0
 30
0.0
  9
$PUCSORGFRONT
 10
0.0
 20
0.0
 30
0.0
  9
$PUCSORGBACK
 10
0.0
 20
0.0
 30
0.0
  9
$USERI1
 70
     0
  9
$USERI2
 70
     0
  9
$USERI3
 70
     0
  9
$USERI4
 70
     0
  9
$USERI5
 70
     0
  9
$USERR1
 40
0.0
  9
$USERR2
 40
0.0
  9
$USERR3
 40
0.0
  9
$USERR4
 40
0.0
  9
$USERR5
 40
0.0
  9
$WORLDVIEW
 70
     1
  9
$SHADEDGE
 70
     3
  9
$SHADEDIF
 70
    70
  9
$TILEMODE
 70
     0
  9
$MAXACTVP
 70
    64
  9
$PINSBASE
 10
0.0
 20
0.0
 30
0.0
  9
$PLIMCHECK
 70
     0
  9
$PEXTMIN
 10
-7.61949453810587
 20
-4.710069222431009
 30
0.0
  9
$PEXTMAX
 10
301.1623691729773
 20
226.0912899243278
 30
0.0
  9
$PLIMMIN
 10
-7.61949453810587
 20
-4.710069222431009
  9
$PLIMMAX
 10
301.1623691729773
 20
226.0912899243278
  9
$UNITMODE
 70
     0
  9
$VISRETAIN
 70
     1
  9
$PLINEGEN
 70
     0
  9
$PSLTSCALE
 70
     0
  9
$TREEDEPTH
 70
  3020
  9
$CMLSTYLE
  2
Standard
  9
$CMLJUST
 70
     0
  9
$CMLSCALE
 40
1.0
  9
$PROXYGRAPHICS
 70
     1
  9
$MEASUREMENT
 70
     0
  9
$CELWEIGHT
370
    -1
  9
$ENDCAPS
280
     0
  9
$JOINSTYLE
280
     0
  9
$LWDISPLAY
290
     1
  9
$INSUNITS
 70
     0
  9
$HYPERLINKBASE
  1

  9
$STYLESHEET
  1

  9
$XEDIT
290
     1
  9
$CEPSNTYPE
380
     0
  9
$PSTYLEMODE
290
     1
  9
$FINGERPRINTGUID
  2
{2E2BBFB8-C5AB-47ED-AD02-85C8A61EDCCE}
  9
$VERSIONGUID
  2
{FAEB1C32-E019-11D5-929B-00C0DF256EC4}
  9
$EXTNAMES
290
     1
  9
$PSVPSCALE
 40
0.0
  9
$OLESTARTUP
290
     0
  9
$SORTENTS
280
   127
  9
$INDEXCTL
280
     0
  9
$HIDETEXT
280
     1
  9
$XCLIPFRAME
290
     0
  9
$HALOGAP
280
     0
  9
$OBSCOLOR
 70
   257
  9
$OBSLTYPE
280
     0
  9
$INTERSECTIONDISPLAY
280
     0
  9
$INTERSECTIONCOLOR
 70
   257
  9
$DIMASSOC
280
     2
  9
$PROJECTNAME
  1

  0
ENDSEC
  0
SECTION
  2
CLASSES
  0
CLASS
  1
ACDBDICTIONARYWDFLT
  2
AcDbDictionaryWithDefault
  3
ObjectDBX Classes
 90
        0
 91
        3
280
     0
281
     0
  0
CLASS
  1
VISUALSTYLE
  2
AcDbVisualStyle
  3
ObjectDBX Classes
 90
     4095
 91
        3
280
     0
281
     0
  0
CLASS
  1
SCALE
  2
AcDbScale
  3
ObjectDBX Classes
 90
     1153
 91
        3
280
     0
281
     0
  0
CLASS
  1
WIPEOUT
  2
AcDbWipeout
  3
WipeOut|AutoCAD Express Tool|expresstools@autodesk.com
 90
      127
 91
        3
280
     0
281
     1
  0
CLASS
  1
SPATIAL_FILTER
  2
AcDbSpatialFilter
  3
ObjectDBX Classes
 90
        0
 91
        3
280
     0
281
     0
  0
ENDSEC
  0
SECTION
  2
TABLES
  0
TABLE
  2
VPORT
  5
8
330
0
100
AcDbSymbolTable
 70
     1
  0
VPORT
  5
29
330
8
100
AcDbSymbolTableRecord
100
AcDbViewportTableRecord
  2
*Active
 70
     0
 10
0.0
 20
0.0
 11
1.0
 21
1.0
 12
10.42990654205607
 22
4.5
 13
0.0
 23
0.0
 14
0.5
 24
0.5
 15
0.5
 25
0.5
 16
0.0
 26
0.0
 36
1.0
 17
0.0
 27
0.0
 37
0.0
 40
9.0
 41
1.972972972850329
 42
50.0
 43
0.0
 44
0.0
 50
0.0
 51
0.0
 71
     0
 72
   100
 73
     1
 74
     3
 75
     0
 76
     0
 77
     0
 78
     0
281
     0
 65
     1
110
0.0
120
0.0
130
0.0
111
1.0
121
0.0
131
0.0
112
0.0
122
1.0
132
0.0
 79
     0
146
0.0
  0
ENDTAB
  0
TABLE
  2
LTYPE
  5
5
330
0
100
AcDbSymbolTable
 70
     4
  0
LTYPE
  5
14
330
5
100
AcDbSymbolTableRecord
100
AcDbLinetypeTableRecord
  2
ByBlock
 70
     0
  3

 72
    65
 73
     0
 40
0.0
  0
LTYPE
  5
15
330
5
100
AcDbSymbolTableRecord
100
AcDbLinetypeTableRecord
  2
ByLayer
 70
     0
  3

 72
    65
 73
     0
 40
0.0
  0
LTYPE
  5
16
330
5
100
AcDbSymbolTableRecord
100
AcDbLinetypeTableRecord
  2
Continuous
 70
     0
  3
Solid line
 72
    65
 73
     0
 40
0.0
  0
LTYPE
  5
25E
330
5
100
AcDbSymbolTableRecord
100
AcDbLinetypeTableRecord
  2
Przerywana
 70
     0
  3
- - - - - 
 72
    65
 73
     2
 40
112.8888893127441
 49
56.44444465637208
 74
     0
 49
-56.44444465637206
 74
     0
  0
LTYPE
  5
3BE
330
5
100
AcDbSymbolTableRecord
100
AcDbLinetypeTableRecord
  2
Przerywana gęsta
 70
     0
  3
- - - - - 
 72
    65
 73
     2
 40
60.0
 49
40.0
 74
     0
 49
-20.0
 74
     0
  0
LTYPE
  5
3F2
330
5
100
AcDbSymbolTableRecord
100
AcDbLinetypeTableRecord
  2
Wipeout_Contour
 70
     0
  3
- - - - - 
 72
    65
 73
     2
 40
1000.0
 49
0.0
 74
     0
 49
-1000.0
 74
     0
  0
ENDTAB
  0
TABLE
  2
LAYER
  5
2
330
0
100
AcDbSymbolTable
 70
     3
  0
LAYER
  5
10
330
2
100
AcDbSymbolTableRecord
100
AcDbLayerTableRecord
  2
0
 70
     0
 62
     7
  6
Continuous
370
    -3
390
F
  0
LAYER
  5
68
330
2
100
AcDbSymbolTableRecord
100
AcDbLayerTableRecord
  2
@__WIDOCZNE
 70
     0
 62
     7
  6
Continuous
370
    -3
390
F
  0
LAYER
  5
403
330
2
100
AcDbSymbolTableRecord
100
AcDbLayerTableRecord
  2
NonPlottable_0
 70
     0
 62
     7
  6
Continuous
290
     0
370
    -3
390
F
  0
ENDTAB
  0
TABLE
  2
STYLE
  5
3
330
0
100
AcDbSymbolTable
 70
     3
  0
STYLE
  5
11
330
3
100
AcDbSymbolTableRecord
100
AcDbTextStyleTableRecord
  2
Standard
 70
     0
 40
0.0
 41
1.0
 50
0.0
 71
     0
 42
0.2
  3
txt
  4
BIGFONT.SHX
  0
STYLE
  5
20E
330
3
100
AcDbSymbolTableRecord
100
AcDbTextStyleTableRecord
  2
GENERATED_STYLE_1
 70
     0
 40
0.0
 41
1.0
 50
0.0
 71
     0
 42
0.2
  3

  4

1001
ACAD
1000
Arial
1071
    60966
  0
STYLE
  5
3E2
330
3
100
AcDbSymbolTableRecord
100
AcDbTextStyleTableRecord
  2
GENERATED_STYLE_2
 70
     0
 40
0.0
 41
1.0
 50
0.0
 71
     0
 42
0.2
  3

  4

1001
ACAD
1000
Arial
1071
 33615398
  0
ENDTAB
  0
TABLE
  2
VIEW
  5
6
330
0
100
AcDbSymbolTable
 70
     0
  0
ENDTAB
  0
TABLE
  2
UCS
  5
7
330
0
100
AcDbSymbolTable
 70
     0
  0
ENDTAB
  0
TABLE
  2
APPID
  5
9
330
0
100
AcDbSymbolTable
 70
     1
  0
APPID
  5
12
330
9
100
AcDbSymbolTableRecord
100
AcDbRegAppTableRecord
  2
ACAD
 70
     0
  0
ENDTAB
  0
TABLE
  2
DIMSTYLE
  5
A
330
0
100
AcDbSymbolTable
 70
     1
100
AcDbDimStyleTable
  0
DIMSTYLE
105
27
330
A
100
AcDbSymbolTableRecord
100
AcDbDimStyleTableRecord
  2
Standard
 70
     0
340
11
  0
ENDTAB
  0
TABLE
  2
BLOCK_RECORD
  5
1
330
0
100
AcDbSymbolTable
 70
    11
  0
BLOCK_RECORD
  5
1F
330
1
100
AcDbSymbolTableRecord
100
AcDbBlockTableRecord
  2
*Model_Space
340
22
  0
BLOCK_RECORD
  5
1B
330
1
100
AcDbSymbolTableRecord
100
AcDbBlockTableRecord
  2
*Paper_Space
340
1E
  0
BLOCK_RECORD
  5
23
330
1
100
AcDbSymbolTableRecord
100
AcDbBlockTableRecord
  2
*Paper_Space0
340
26
  0
BLOCK_RECORD
  5
80
330
1
100
AcDbSymbolTableRecord
100
AcDbBlockTableRecord
  2
InsulFib 65
340
0
102
{BLKREFS
331
FC
102
}
  0
BLOCK_RECORD
  5
FD
330
1
100
AcDbSymbolTableRecord
100
AcDbBlockTableRecord
  2
InsulFib 65_2
340
0
102
{BLKREFS
331
209
102
}
  0
BLOCK_RECORD
  5
20A
330
1
100
AcDbSymbolTableRecord
100
AcDbBlockTableRecord
  2
Sygnał termostatu 12
340
0
102
{BLKREFS
331
210
331
233
102
}
  0
BLOCK_RECORD
  5
213
330
1
100
AcDbSymbolTableRecord
100
AcDbBlockTableRecord
  2
Sygnał termostatu 12_2
340
0
102
{BLKREFS
331
218
331
236
331
242
102
}
  0
BLOCK_RECORD
  5
21B
330
1
100
AcDbSymbolTableRecord
100
AcDbBlockTableRecord
  2
Sygnał termostatu 12_3
340
0
102
{BLKREFS
331
220
331
239
102
}
  0
BLOCK_RECORD
  5
223
330
1
100
AcDbSymbolTableRecord
100
AcDbBlockTableRecord
  2
Sygnał termostatu 12_4
340
0
102
{BLKREFS
331
228
331
23C
102
}
  0
BLOCK_RECORD
  5
22B
330
1
100
AcDbSymbolTableRecord
100
AcDbBlockTableRecord
  2
Sygnał termostatu 12_5
340
0
102
{BLKREFS
331
230
331
23F
102
}
  0
BLOCK_RECORD
  5
3F8
330
1
100
AcDbSymbolTableRecord
100
AcDbBlockTableRecord
  2
Bez nazwy_STORY_MARKER
340
0
  0
BLOCK_RECORD
  5
3FB
330
1
100
AcDbSymbolTableRecord
100
AcDbBlockTableRecord
  2
Rysunek_1
340
0
102
{BLKREFS
331
3FE
102
}
  0
BLOCK_RECORD
  5
405
330
1
100
AcDbSymbolTableRecord
100
AcDbBlockTableRecord
  2
02.04.2-20 \U+FF8CCIANA+PIWICA 08.01._STORY_MARKER
340
0
  0
ENDTAB
  0
ENDSEC
  0
SECTION
  2
BLOCKS
  0
BLOCK
  5
20
330
1F
100
AcDbEntity
  8
0
100
AcDbBlockBegin
  2
*Model_Space
 70
     0
 10
0.0
 20
0.0
 30
0.0
  3
*Model_Space
  1

  0
ENDBLK
  5
21
330
1F
100
AcDbEntity
  8
0
100
AcDbBlockEnd
  0
BLOCK
  5
1C
330
1B
100
AcDbEntity
 67
     1
  8
0
100
AcDbBlockBegin
  2
*Paper_Space
 70
     0
 10
0.0
 20
0.0
 30
0.0
  3
*Paper_Space
  1

  0
ENDBLK
  5
1D
330
1B
100
AcDbEntity
 67
     1
  8
0
100
AcDbBlockEnd
  0
BLOCK
  5
24
330
23
100
AcDbEntity
  8
0
100
AcDbBlockBegin
  2
*Paper_Space0
 70
     0
 10
0.0
 20
0.0
 30
0.0
  3
*Paper_Space0
  1

  0
ENDBLK
  5
25
330
23
100
AcDbEntity
  8
0
100
AcDbBlockEnd
  0
BLOCK
  5
81
330
80
100
AcDbEntity
  8
0
100
AcDbBlockBegin
  2
InsulFib 65
 70
     0
 10
0.0
 20
0.0
 30
0.0
  3
InsulFib 65
  1

  0
LINE
  5
83
330
80
100
AcDbEntity
  8
0
  6
Continuous
370
    13
100
AcDbLine
 10
4.582245209615855
 20
5.959775390123357
 30
0.0
 11
8.099290474782064
 21
14.04022221789847
 31
0.0
  0
LINE
  5
84
330
80
100
AcDbEntity
  8
0
  6
Continuous
370
    13
100
AcDbLine
 10
0.3550671764198888
 20
14.04022221789847
 30
0.0
 11
3.872109271966056
 21
5.959775390123357
 31
0.0
  0
LINE
  5
85
330
80
100
AcDbEntity
  8
0
  6
Continuous
370
    13
100
AcDbLine
 10
13.03678710702734
 20
5.959775390123357
 30
0.0
 11
16.55383237219355
 21
14.04022221789847
 31
0.0
  0
LINE
  5
86
330
80
100
AcDbEntity
  8
0
  6
Continuous
370
    13
100
AcDbLine
 10
8.809609073831378
 20
14.04022221789847
 30
0.0
 11
12.32665116937755
 21
5.959775390123357
 31
0.0
  0
LINE
  5
87
330
80
100
AcDbEntity
  8
0
  6
Continuous
370
    13
100
AcDbLine
 10
21.49132900443884
 20
5.959775390123357
 30
0.0
 11
25.00837426960505
 21
14.04022221789847
 31
0.0
  0
LINE
  5
88
330
80
100
AcDbEntity
  8
0
  6
Continuous
370
    13
100
AcDbLine
 10
17.26415097124287
 20
14.04022221789847
 30
0.0
 11
20.78119306678904
 21
5.959775390123357
 31
0.0
  0
LINE
  5
89
330
80
100
AcDbEntity
  8
0
  6
Continuous
370
    13
100
AcDbLine
 10
29.94587090185033
 20
5.959775390123357
 30
0.0
 11
33.46291616701654
 21
14.04022221789847
 31
0.0
  0
LINE
  5
8A
330
80
100
AcDbEntity
  8
0
  6
Continuous
370
    13
100
AcDbLine
 10
25.71869286865436
 20
14.04022221789847
 30
0.0
 11
29.23573496420053
 21
5.959775390123357
 31
0.0
  0
LINE
  5
8B
330
80
100
AcDbEntity
  8
0
  6
Continuous
370
    13
100
AcDbLine
 10
38.40041279926182
 20
5.959775390123357
 30
0.0
 11
41.91745806442803
 21
14.04022221789847
 31
0.0
  0
LINE
  5
8C
330
80
100
AcDbEntity
  8
0
  6
Continuous
370
    13
100
AcDbLine
 10
34.17323476606585
 20
14.04022221789847
 30
0.0
 11
37.69027686161201
 21
5.959775390123357
 31
0.0
  0
LINE
  5
8D
330
80
100
AcDbEntity
  8
0
  6
Continuous
370
    13
100
AcDbLine
 10
46.8549546966733
 20
5.959775390123357
 30
0.0
 11
50.37199996183951
 21
14.04022221789847
 31
0.0
  0
LINE
  5
8E
330
80
100
AcDbEntity
  8
0
  6
Continuous
370
    13
100
AcDbLine
 10
42.62777666347733
 20
14.04022221789847
 30
0.0
 11
46.1448187590235
 21
5.959775390123357
 31
0.0
  0
LINE
  5
8F
330
80
100
AcDbEntity
  8
0
  6
Continuous
370
    13
100
AcDbLine
 10
55.30949659408479
 20
5.959775390123357
 30
0.0
 11
58.826541859251
 21
14.04022221789847
 31
0.0
  0
LINE
  5
90
330
80
100
AcDbEntity
  8
0
  6
Continuous
370
    13
100
AcDbLine
 10
51.08231856088882
 20
14.04022221789847
 30
0.0
 11
54.59936065643499
 21
5.959775390123357
 31
0.0
  0
LINE
  5
91
330
80
100
AcDbEntity
  8
0
  6
Continuous
370
    13
100
AcDbLine
 10
63.76403849149629
 20
5.959775390123357
 30
0.0
 11
67.28108375666248
 21
14.04022221789847
 31
0.0
  0
LINE
  5
92
330
80
100
AcDbEntity
  8
0
  6
Continuous
370
    13
100
AcDbLine
 10
59.53686045830031
 20
14.04022221789847
 30
0.0
 11
63.05390255384648
 21
5.959775390123357
 31
0.0
  0
LINE
  5
93
330
80
100
AcDbEntity
  8
0
  6
Continuous
370
    13
100
AcDbLine
 10
72.21858038890777
 20
5.959775390123357
 30
0.0
 11
75.73562565407398
 21
14.04022221789847
 31
0.0
  0
LINE
  5
94
330
80
100
AcDbEntity
  8
0
  6
Continuous
370
    13
100
AcDbLine
 10
67.99140235571181
 20
14.04022221789847
 30
0.0
 11
71.50844445125799
 21
5.959775390123357
 31
0.0
  0
LINE
  5
95
330
80
100
AcDbEntity
  8
0
  6
Continuous
370
    13
100
AcDbLine
 10
80.67312228631926
 20
5.959775390123357
 30
0.0
 11
84.19016755148547
 21
14.04022221789847
 31
0.0
  0
LINE
  5
96
330
80
100
AcDbEntity
  8
0
  6
Continuous
370
    13
100
AcDbLine
 10
76.4459442531233
 20
14.04022221789847
 30
0.0
 11
79.96298634866947
 21
5.959775390123357
 31
0.0
  0
LINE
  5
97
330
80
100
AcDbEntity
  8
0
  6
Continuous
370
    13
100
AcDbLine
 10
89.12766418373074
 20
5.959775390123357
 30
0.0
 11
92.64470944889696
 21
14.04022221789847
 31
0.0
  0
LINE
  5
98
330
80
100
AcDbEntity
  8
0
  6
Continuous
370
    13
100
AcDbLine
 10
84.90048615053479
 20
14.04022221789847
 30
0.0
 11
88.41752824608096
 21
5.959775390123357
 31
0.0
  0
LINE
  5
99
330
80
100
AcDbEntity
  8
0
  6
Continuous
370
    13
100
AcDbLine
 10
97.58220608114223
 20
5.959775390123357
 30
0.0
 11
101.0992513463084
 21
14.04022221789847
 31
0.0
  0
LINE
  5
9A
330
80
100
AcDbEntity
  8
0
  6
Continuous
370
    13
100
AcDbLine
 10
93.35502804794628
 20
14.04022221789847
 30
0.0
 11
96.87207014349245
 21
5.959775390123357
 31
0.0
  0
LINE
  5
9B
330
80
100
AcDbEntity
  8
0
  6
Continuous
370
    13
100
AcDbLine
 10
106.0367479785537
 20
5.959775390123357
 30
0.0
 11
109.5537932437199
 21
14.04022221789847
 31
0.0
  0
LINE
  5
9C
330
80
100
AcDbEntity
  8
0
  6
Continuous
370
    13
100
AcDbLine
 10
101.8095699453578
 20
14.04022221789847
 30
0.0
 11
105.3266120409039
 21
5.959775390123357
 31
0.0
  0
LINE
  5
9D
330
80
100
AcDbEntity
  8
0
  6
Continuous
370
    13
100
AcDbLine
 10
114.4912898759652
 20
5.959775390123357
 30
0.0
 11
118.0083351411314
 21
14.04022221789847
 31
0.0
  0
LINE
  5
9E
330
80
100
AcDbEntity
  8
0
  6
Continuous
370
    13
100
AcDbLine
 10
110.2641118427693
 20
14.04022221789847
 30
0.0
 11
113.7811539383154
 21
5.959775390123357
 31
0.0
  0
LINE
  5
9F
330
80
100
AcDbEntity
  8
0
  6
Continuous
370
    13
100
AcDbLine
 10
122.9458317733767
 20
5.959775390123357
 30
0.0
 11
126.4628770385429
 21
14.04022221789847
 31
0.0
  0
LINE
  5
A0
330
80
100
AcDbEntity
  8
0
  6
Continuous
370
    13
100
AcDbLine
 10
118.7186537401807
 20
14.04022221789847
 30
0.0
 11
122.2356958357269
 21
5.959775390123357
 31
0.0
  0
LINE
  5
A1
330
80
100
AcDbEntity
  8
0
  6
Continuous
370
    13
100
AcDbLine
 10
131.4003736707882
 20
5.959775390123357
 30
0.0
 11
134.9174189359544
 21
14.04022221789847
 31
0.0
  0
LINE
  5
A2
330
80
100
AcDbEntity
  8
0
  6
Continuous
370
    13
100
AcDbLine
 10
127.1731956375922
 20
14.04022221789847
 30
0.0
 11
130.6902377331384
 21
5.959775390123357
 31
0.0
  0
LINE
  5
A3
330
80
100
AcDbEntity
  8
0
  6
Continuous
370
    13
100
AcDbLine
 10
139.8549155681997
 20
5.959775390123357
 30
0.0
 11
143.3719608333659
 21
14.04022221789847
 31
0.0
  0
LINE
  5
A4
330
80
100
AcDbEntity
  8
0
  6
Continuous
370
    13
100
AcDbLine
 10
135.6277375350037
 20
14.04022221789847
 30
0.0
 11
139.1447796305499
 21
5.959775390123357
 31
0.0
  0
LINE
  5
A5
330
80
100
AcDbEntity
  8
0
  6
Continuous
370
    13
100
AcDbLine
 10
148.3094574656112
 20
5.959775390123357
 30
0.0
 11
151.8265027307774
 21
14.04022221789847
 31
0.0
  0
LINE
  5
A6
330
80
100
AcDbEntity
  8
0
  6
Continuous
370
    13
100
AcDbLine
 10
144.0822794324152
 20
14.04022221789847
 30
0.0
 11
147.5993215279614
 21
5.959775390123357
 31
0.0
  0
LINE
  5
A7
330
80
100
AcDbEntity
  8
0
  6
Continuous
370
    13
100
AcDbLine
 10
156.7639993630227
 20
5.959775390123357
 30
0.0
 11
160.2810446281889
 21
14.04022221789847
 31
0.0
  0
LINE
  5
A8
330
80
100
AcDbEntity
  8
0
  6
Continuous
370
    13
100
AcDbLine
 10
152.5368213298267
 20
14.04022221789847
 30
0.0
 11
156.0538634253729
 21
5.959775390123357
 31
0.0
  0
LINE
  5
A9
330
80
100
AcDbEntity
  8
0
  6
Continuous
370
    13
100
AcDbLine
 10
165.2185412604342
 20
5.959775390123357
 30
0.0
 11
168.7355865256004
 21
14.04022221789847
 31
0.0
  0
LINE
  5
AA
330
80
100
AcDbEntity
  8
0
  6
Continuous
370
    13
100
AcDbLine
 10
160.9913632272382
 20
14.04022221789847
 30
0.0
 11
164.5084053227843
 21
5.959775390123357
 31
0.0
  0
LINE
  5
AB
330
80
100
AcDbEntity
  8
0
  6
Continuous
370
    13
100
AcDbLine
 10
173.6730831578457
 20
5.959775390123357
 30
0.0
 11
177.1901284230119
 21
14.04022221789847
 31
0.0
  0
LINE
  5
AC
330
80
100
AcDbEntity
  8
0
  6
Continuous
370
    13
100
AcDbLine
 10
169.4459051246497
 20
14.04022221789847
 30
0.0
 11
172.9629472201958
 21
5.959775390123357
 31
0.0
  0
LINE
  5
AD
330
80
100
AcDbEntity
  8
0
  6
Continuous
370
    13
100
AcDbLine
 10
182.1276250552571
 20
5.959775390123357
 30
0.0
 11
185.6446703204233
 21
14.04022221789847
 31
0.0
  0
LINE
  5
AE
330
80
100
AcDbEntity
  8
0
  6
Continuous
370
    13
100
AcDbLine
 10
177.9004470220612
 20
14.04022221789847
 30
0.0
 11
181.4174891176073
 21
5.959775390123357
 31
0.0
  0
LINE
  5
AF
330
80
100
AcDbEntity
  8
0
  6
Continuous
370
    13
100
AcDbLine
 10
190.5821669526686
 20
5.959775390123357
 30
0.0
 11
194.0992122178348
 21
14.04022221789847
 31
0.0
  0
LINE
  5
B0
330
80
100
AcDbEntity
  8
0
  6
Continuous
370
    13
100
AcDbLine
 10
186.3549889194727
 20
14.04022221789847
 30
0.0
 11
189.8720310150188
 21
5.959775390123357
 31
0.0
  0
LINE
  5
B1
330
80
100
AcDbEntity
  8
0
  6
Continuous
370
    13
100
AcDbLine
 10
199.0367088500801
 20
5.959775390123357
 30
0.0
 11
202.5537541152463
 21
14.04022221789847
 31
0.0
  0
LINE
  5
B2
330
80
100
AcDbEntity
  8
0
  6
Continuous
370
    13
100
AcDbLine
 10
194.8095308168841
 20
14.04022221789847
 30
0.0
 11
198.3265729124303
 21
5.959775390123357
 31
0.0
  0
LINE
  5
B3
330
80
100
AcDbEntity
  8
0
  6
Continuous
370
    13
100
AcDbLine
 10
207.4912507474916
 20
5.959775390123357
 30
0.0
 11
211.0082960126578
 21
14.04022221789847
 31
0.0
  0
LINE
  5
B4
330
80
100
AcDbEntity
  8
0
  6
Continuous
370
    13
100
AcDbLine
 10
203.2640727142957
 20
14.04022221789847
 30
0.0
 11
206.7811148098418
 21
5.959775390123357
 31
0.0
  0
LINE
  5
B5
330
80
100
AcDbEntity
  8
0
  6
Continuous
370
    13
100
AcDbLine
 10
215.9457926449031
 20
5.959775390123357
 30
0.0
 11
219.4628379100693
 21
14.04022221789847
 31
0.0
  0
LINE
  5
B6
330
80
100
AcDbEntity
  8
0
  6
Continuous
370
    13
100
AcDbLine
 10
211.7186146117071
 20
14.04022221789847
 30
0.0
 11
215.2356567072533
 21
5.959775390123357
 31
0.0
  0
LINE
  5
B7
330
80
100
AcDbEntity
  8
0
  6
Continuous
370
    13
100
AcDbLine
 10
224.4003345423146
 20
5.959775390123357
 30
0.0
 11
227.9173798074808
 21
14.04022221789847
 31
0.0
  0
LINE
  5
B8
330
80
100
AcDbEntity
  8
0
  6
Continuous
370
    13
100
AcDbLine
 10
220.1731565091186
 20
14.04022221789847
 30
0.0
 11
223.6901986046648
 21
5.959775390123357
 31
0.0
  0
LINE
  5
B9
330
80
100
AcDbEntity
  8
0
  6
Continuous
370
    13
100
AcDbLine
 10
232.8548764397261
 20
5.959775390123357
 30
0.0
 11
236.3719217048923
 21
14.04022221789847
 31
0.0
  0
LINE
  5
BA
330
80
100
AcDbEntity
  8
0
  6
Continuous
370
    13
100
AcDbLine
 10
228.6276984065301
 20
14.04022221789847
 30
0.0
 11
232.1447405020762
 21
5.959775390123357
 31
0.0
  0
LINE
  5
BB
330
80
100
AcDbEntity
  8
0
  6
Continuous
370
    13
100
AcDbLine
 10
241.3094183371376
 20
5.959775390123357
 30
0.0
 11
244.8264636023038
 21
14.04022221789847
 31
0.0
  0
LINE
  5
BC
330
80
100
AcDbEntity
  8
0
  6
Continuous
370
    13
100
AcDbLine
 10
237.0822403039416
 20
14.04022221789847
 30
0.0
 11
240.5992823994877
 21
5.959775390123357
 31
0.0
  0
LINE
  5
BD
330
80
100
AcDbEntity
  8
0
  6
Continuous
370
    13
100
AcDbLine
 10
249.763960234549
 20
5.959775390123357
 30
0.0
 11
253.2810054997153
 21
14.04022221789847
 31
0.0
  0
LINE
  5
BE
330
80
100
AcDbEntity
  8
0
  6
Continuous
370
    13
100
AcDbLine
 10
245.5367822013531
 20
14.04022221789847
 30
0.0
 11
249.0538242968992
 21
5.959775390123357
 31
0.0
  0
ELLIPSE
  5
BF
330
80
100
AcDbEntity
  8
0
  6
Continuous
370
    13
100
AcDbEllipse
 10
0.0
 20
4.253429537605092
 30
0.0
 11
2.604474678424074E-16
 21
4.253429936268009
 31
0.0
210
0.0
220
0.0
230
1.0
 40
0.9938283421008789
 41
3.141592653589793
 42
5.125182398197467
  0
ELLIPSE
  5
C0
330
80
100
AcDbEntity
  8
0
  6
Continuous
370
    13
100
AcDbEllipse
 10
4.227181202816009
 20
15.7465696650684
 30
0.0
 11
2.604474678424074E-16
 21
4.253429936268009
 31
0.0
210
0.0
220
0.0
230
1.0
 40
0.9938283421008789
 41
4.299595219153121
 42
8.266774943998835
  0
ELLIPSE
  5
C1
330
80
100
AcDbEntity
  8
0
  6
Continuous
370
    13
100
AcDbEllipse
 10
8.454357651201954
 20
4.253431132256758
 30
0.0
 11
2.604474678424074E-16
 21
4.253429936268009
 31
0.0
210
0.0
220
0.0
230
1.0
 40
0.9938283421008789
 41
1.158003553205547
 42
5.125182741616258
  0
ELLIPSE
  5
C2
330
80
100
AcDbEntity
  8
0
  6
Continuous
370
    13
100
AcDbEllipse
 10
12.6817231002275
 20
15.7465696650684
 30
0.0
 11
2.604474678424074E-16
 21
4.253429936268009
 31
0.0
210
0.0
220
0.0
230
1.0
 40
0.9938283421008789
 41
4.299595219153121
 42
8.266774943998835
  0
ELLIPSE
  5
C3
330
80
100
AcDbEntity
  8
0
  6
Continuous
370
    13
100
AcDbEllipse
 10
16.90889954861344
 20
4.253431132256758
 30
0.0
 11
2.604474678424074E-16
 21
4.253429936268009
 31
0.0
210
0.0
220
0.0
230
1.0
 40
0.9938283421008789
 41
1.158003553205547
 42
5.125182741616258
  0
ELLIPSE
  5
C4
330
80
100
AcDbEntity
  8
0
  6
Continuous
370
    13
100
AcDbEllipse
 10
21.13626499763899
 20
15.7465696650684
 30
0.0
 11
2.604474678424074E-16
 21
4.253429936268009
 31
0.0
210
0.0
220
0.0
230
1.0
 40
0.9938283421008789
 41
4.299595219153121
 42
8.266774943998835
  0
ELLIPSE
  5
C5
330
80
100
AcDbEntity
  8
0
  6
Continuous
370
    13
100
AcDbEllipse
 10
25.36344144602493
 20
4.253431132256758
 30
0.0
 11
2.604474678424074E-16
 21
4.253429936268009
 31
0.0
210
0.0
220
0.0
230
1.0
 40
0.9938283421008789
 41
1.158003553205547
 42
5.125182741616257
  0
ELLIPSE
  5
C6
330
80
100
AcDbEntity
  8
0
  6
Continuous
370
    13
100
AcDbEllipse
 10
29.59080689505048
 20
15.7465696650684
 30
0.0
 11
2.604474678424074E-16
 21
4.253429936268009
 31
0.0
210
0.0
220
0.0
230
1.0
 40
0.9938283421008789
 41
4.299595219153121
 42
8.266774943998835
  0
ELLIPSE
  5
C7
330
80
100
AcDbEntity
  8
0
  6
Continuous
370
    13
100
AcDbEllipse
 10
33.81798334343643
 20
4.253431132256758
 30
0.0
 11
2.604474678424074E-16
 21
4.253429936268009
 31
0.0
210
0.0
220
0.0
230
1.0
 40
0.9938283421008789
 41
1.158003553205547
 42
5.125182741616258
  0
ELLIPSE
  5
C8
330
80
100
AcDbEntity
  8
0
  6
Continuous
370
    13
100
AcDbEllipse
 10
38.04534879246197
 20
15.7465696650684
 30
0.0
 11
2.604474678424074E-16
 21
4.253429936268009
 31
0.0
210
0.0
220
0.0
230
1.0
 40
0.9938283421008789
 41
4.299595219153121
 42
8.266774943998835
  0
ELLIPSE
  5
C9
330
80
100
AcDbEntity
  8
0
  6
Continuous
370
    13
100
AcDbEllipse
 10
42.27252524084792
 20
4.253431132256758
 30
0.0
 11
2.604474678424074E-16
 21
4.253429936268009
 31
0.0
210
0.0
220
0.0
230
1.0
 40
0.9938283421008789
 41
1.158003553205547
 42
5.125182741616258
  0
ELLIPSE
  5
CA
330
80
100
AcDbEntity
  8
0
  6
Continuous
370
    13
100
AcDbEllipse
 10
46.49989068987346
 20
15.7465696650684
 30
0.0
 11
2.604474678424074E-16
 21
4.253429936268009
 31
0.0
210
0.0
220
0.0
230
1.0
 40
0.9938283421008789
 41
4.299595219153121
 42
8.266774943998835
  0
ELLIPSE
  5
CB
330
80
100
AcDbEntity
  8
0
  6
Continuous
370
    13
100
AcDbEllipse
 10
50.72706713825941
 20
4.253431132256758
 30
0.0
 11
2.604474678424074E-16
 21
4.253429936268009
 31
0.0
210
0.0
220
0.0
230
1.0
 40
0.9938283421008789
 41
1.158003553205547
 42
5.125182741616258
  0
ELLIPSE
  5
CC
330
80
100
AcDbEntity
  8
0
  6
Continuous
370
    13
100
AcDbEllipse
 10
54.95443258728495
 20
15.7465696650684
 30
0.0
 11
2.604474678424074E-16
 21
4.253429936268009
 31
0.0
210
0.0
220
0.0
230
1.0
 40
0.9938283421008789
 41
4.299595219153121
 42
8.266774943998835
  0
ELLIPSE
  5
CD
330
80
100
AcDbEntity
  8
0
  6
Continuous
370
    13
100
AcDbEllipse
 10
59.1816090356709
 20
4.253431132256758
 30
0.0
 11
2.604474678424074E-16
 21
4.253429936268009
 31
0.0
210
0.0
220
0.0
230
1.0
 40
0.9938283421008789
 41
1.158003553205547
 42
5.125182741616257
  0
ELLIPSE
  5
CE
330
80
100
AcDbEntity
  8
0
  6
Continuous
370
    13
100
AcDbEllipse
 10
63.40897448469643
 20
15.7465696650684
 30
0.0
 11
2.604474678424074E-16
 21
4.253429936268009
 31
0.0
210
0.0
220
0.0
230
1.0
 40
0.9938283421008789
 41
4.299595219153121
 42
8.266774943998835
  0
ELLIPSE
  5
CF
330
80
100
AcDbEntity
  8
0
  6
Continuous
370
    13
100
AcDbEllipse
 10
67.63615093308238
 20
4.253431132256758
 30
0.0
 11
2.604474678424074E-16
 21
4.253429936268009
 31
0.0
210
0.0
220
0.0
230
1.0
 40
0.9938283421008789
 41
1.158003553205547
 42
5.125182741616257
  0
ELLIPSE
  5
D0
330
80
100
AcDbEntity
  8
0
  6
Continuous
370
    13
100
AcDbEllipse
 10
71.86351638210793
 20
15.7465696650684
 30
0.0
 11
2.604474678424074E-16
 21
4.253429936268009
 31
0.0
210
0.0
220
0.0
230
1.0
 40
0.9938283421008789
 41
4.299595219153121
 42
8.266774943998835
  0
ELLIPSE
  5
D1
330
80
100
AcDbEntity
  8
0
  6
Continuous
370
    13
100
AcDbEllipse
 10
76.09069283049386
 20
4.253431132256758
 30
0.0
 11
2.604474678424074E-16
 21
4.253429936268009
 31
0.0
210
0.0
220
0.0
230
1.0
 40
0.9938283421008789
 41
1.158003553205547
 42
5.125182741616257
  0
ELLIPSE
  5
D2
330
80
100
AcDbEntity
  8
0
  6
Continuous
370
    13
100
AcDbEllipse
 10
80.31805827951942
 20
15.7465696650684
 30
0.0
 11
2.604474678424074E-16
 21
4.253429936268009
 31
0.0
210
0.0
220
0.0
230
1.0
 40
0.9938283421008789
 41
4.299595219153121
 42
8.266774943998835
  0
ELLIPSE
  5
D3
330
80
100
AcDbEntity
  8
0
  6
Continuous
370
    13
100
AcDbEllipse
 10
84.54523472790535
 20
4.253431132256758
 30
0.0
 11
2.604474678424074E-16
 21
4.253429936268009
 31
0.0
210
0.0
220
0.0
230
1.0
 40
0.9938283421008789
 41
1.158003553205547
 42
5.125182741616257
  0
ELLIPSE
  5
D4
330
80
100
AcDbEntity
  8
0
  6
Continuous
370
    13
100
AcDbEllipse
 10
88.77260017693091
 20
15.7465696650684
 30
0.0
 11
2.604474678424074E-16
 21
4.253429936268009
 31
0.0
210
0.0
220
0.0
230
1.0
 40
0.9938283421008789
 41
4.299595219153121
 42
8.266774943998835
  0
ELLIPSE
  5
D5
330
80
100
AcDbEntity
  8
0
  6
Continuous
370
    13
100
AcDbEllipse
 10
92.99977662531684
 20
4.253431132256758
 30
0.0
 11
2.604474678424074E-16
 21
4.253429936268009
 31
0.0
210
0.0
220
0.0
230
1.0
 40
0.9938283421008789
 41
1.158003553205547
 42
5.125182741616257
  0
ELLIPSE
  5
D6
330
80
100
AcDbEntity
  8
0
  6
Continuous
370
    13
100
AcDbEllipse
 10
97.2271420743424
 20
15.7465696650684
 30
0.0
 11
2.604474678424074E-16
 21
4.253429936268009
 31
0.0
210
0.0
220
0.0
230
1.0
 40
0.9938283421008789
 41
4.299595219153121
 42
8.266774943998835
  0
ELLIPSE
  5
D7
330
80
100
AcDbEntity
  8
0
  6
Continuous
370
    13
100
AcDbEllipse
 10
101.4543185227283
 20
4.253431132256758
 30
0.0
 11
2.604474678424074E-16
 21
4.253429936268009
 31
0.0
210
0.0
220
0.0
230
1.0
 40
0.9938283421008789
 41
1.158003553205547
 42
5.125182741616257
  0
ELLIPSE
  5
D8
330
80
100
AcDbEntity
  8
0
  6
Continuous
370
    13
100
AcDbEllipse
 10
105.6816839717539
 20
15.7465696650684
 30
0.0
 11
2.604474678424074E-16
 21
4.253429936268009
 31
0.0
210
0.0
220
0.0
230
1.0
 40
0.9938283421008789
 41
4.299595219153121
 42
8.266774943998835
  0
ELLIPSE
  5
D9
330
80
100
AcDbEntity
  8
0
  6
Continuous
370
    13
100
AcDbEllipse
 10
109.9088604201398
 20
4.253431132256758
 30
0.0
 11
2.604474678424074E-16
 21
4.253429936268009
 31
0.0
210
0.0
220
0.0
230
1.0
 40
0.9938283421008789
 41
1.158003553205547
 42
5.125182741616257
  0
ELLIPSE
  5
DA
330
80
100
AcDbEntity
  8
0
  6
Continuous
370
    13
100
AcDbEllipse
 10
114.1362258691654
 20
15.7465696650684
 30
0.0
 11
2.604474678424074E-16
 21
4.253429936268009
 31
0.0
210
0.0
220
0.0
230
1.0
 40
0.9938283421008789
 41
4.299595219153121
 42
8.266774943998835
  0
ELLIPSE
  5
DB
330
80
100
AcDbEntity
  8
0
  6
Continuous
370
    13
100
AcDbEllipse
 10
118.3634023175513
 20
4.253431132256758
 30
0.0
 11
2.604474678424074E-16
 21
4.253429936268009
 31
0.0
210
0.0
220
0.0
230
1.0
 40
0.9938283421008789
 41
1.158003553205547
 42
5.125182741616257
  0
ELLIPSE
  5
DC
330
80
100
AcDbEntity
  8
0
  6
Continuous
370
    13
100
AcDbEllipse
 10
122.5907677665769
 20
15.7465696650684
 30
0.0
 11
2.604474678424074E-16
 21
4.253429936268009
 31
0.0
210
0.0
220
0.0
230
1.0
 40
0.9938283421008789
 41
4.299595219153121
 42
8.266774943998835
  0
ELLIPSE
  5
DD
330
80
100
AcDbEntity
  8
0
  6
Continuous
370
    13
100
AcDbEllipse
 10
126.8179442149628
 20
4.253431132256758
 30
0.0
 11
2.604474678424074E-16
 21
4.253429936268009
 31
0.0
210
0.0
220
0.0
230
1.0
 40
0.9938283421008789
 41
1.158003553205548
 42
5.125182741616259
  0
ELLIPSE
  5
DE
330
80
100
AcDbEntity
  8
0
  6
Continuous
370
    13
100
AcDbEllipse
 10
131.0453096639884
 20
15.7465696650684
 30
0.0
 11
2.604474678424074E-16
 21
4.253429936268009
 31
0.0
210
0.0
220
0.0
230
1.0
 40
0.9938283421008789
 41
4.299595219153121
 42
8.266774943998835
  0
ELLIPSE
  5
DF
330
80
100
AcDbEntity
  8
0
  6
Continuous
370
    13
100
AcDbEllipse
 10
135.2724861123743
 20
4.253431132256758
 30
0.0
 11
2.604474678424074E-16
 21
4.253429936268009
 31
0.0
210
0.0
220
0.0
230
1.0
 40
0.9938283421008789
 41
1.158003553205546
 42
5.125182741616256
  0
ELLIPSE
  5
E0
330
80
100
AcDbEntity
  8
0
  6
Continuous
370
    13
100
AcDbEllipse
 10
139.4998515613999
 20
15.7465696650684
 30
0.0
 11
2.604474678424074E-16
 21
4.253429936268009
 31
0.0
210
0.0
220
0.0
230
1.0
 40
0.9938283421008789
 41
4.299595219153121
 42
8.266774943998835
  0
ELLIPSE
  5
E1
330
80
100
AcDbEntity
  8
0
  6
Continuous
370
    13
100
AcDbEllipse
 10
143.7270280097858
 20
4.253431132256758
 30
0.0
 11
2.604474678424074E-16
 21
4.253429936268009
 31
0.0
210
0.0
220
0.0
230
1.0
 40
0.9938283421008789
 41
1.158003553205546
 42
5.125182741616256
  0
ELLIPSE
  5
E2
330
80
100
AcDbEntity
  8
0
  6
Continuous
370
    13
100
AcDbEllipse
 10
147.9543934588114
 20
15.7465696650684
 30
0.0
 11
2.604474678424074E-16
 21
4.253429936268009
 31
0.0
210
0.0
220
0.0
230
1.0
 40
0.9938283421008789
 41
4.299595219153121
 42
8.266774943998835
  0
ELLIPSE
  5
E3
330
80
100
AcDbEntity
  8
0
  6
Continuous
370
    13
100
AcDbEllipse
 10
152.1815699071973
 20
4.253431132256758
 30
0.0
 11
2.604474678424074E-16
 21
4.253429936268009
 31
0.0
210
0.0
220
0.0
230
1.0
 40
0.9938283421008789
 41
1.158003553205546
 42
5.125182741616256
  0
ELLIPSE
  5
E4
330
80
100
AcDbEntity
  8
0
  6
Continuous
370
    13
100
AcDbEllipse
 10
156.4089353562228
 20
15.7465696650684
 30
0.0
 11
2.604474678424074E-16
 21
4.253429936268009
 31
0.0
210
0.0
220
0.0
230
1.0
 40
0.9938283421008789
 41
4.299595219153121
 42
8.266774943998835
  0
ELLIPSE
  5
E5
330
80
100
AcDbEntity
  8
0
  6
Continuous
370
    13
100
AcDbEllipse
 10
160.6361118046088
 20
4.253431132256758
 30
0.0
 11
2.604474678424074E-16
 21
4.253429936268009
 31
0.0
210
0.0
220
0.0
230
1.0
 40
0.9938283421008789
 41
1.158003553205546
 42
5.125182741616256
  0
ELLIPSE
  5
E6
330
80
100
AcDbEntity
  8
0
  6
Continuous
370
    13
100
AcDbEllipse
 10
164.8634772536343
 20
15.7465696650684
 30
0.0
 11
2.604474678424074E-16
 21
4.253429936268009
 31
0.0
210
0.0
220
0.0
230
1.0
 40
0.9938283421008789
 41
4.299595219153121
 42
8.266774943998835
  0
ELLIPSE
  5
E7
330
80
100
AcDbEntity
  8
0
  6
Continuous
370
    13
100
AcDbEllipse
 10
169.0906537020203
 20
4.253431132256758
 30
0.0
 11
2.604474678424074E-16
 21
4.253429936268009
 31
0.0
210
0.0
220
0.0
230
1.0
 40
0.9938283421008789
 41
1.158003553205546
 42
5.125182741616256
  0
ELLIPSE
  5
E8
330
80
100
AcDbEntity
  8
0
  6
Continuous
370
    13
100
AcDbEllipse
 10
173.3180191510458
 20
15.7465696650684
 30
0.0
 11
2.604474678424074E-16
 21
4.253429936268009
 31
0.0
210
0.0
220
0.0
230
1.0
 40
0.9938283421008789
 41
4.299595219153121
 42
8.266774943998835
  0
ELLIPSE
  5
E9
330
80
100
AcDbEntity
  8
0
  6
Continuous
370
    13
100
AcDbEllipse
 10
177.5451955994317
 20
4.253431132256758
 30
0.0
 11
2.604474678424074E-16
 21
4.253429936268009
 31
0.0
210
0.0
220
0.0
230
1.0
 40
0.9938283421008789
 41
1.158003553205546
 42
5.125182741616256
  0
ELLIPSE
  5
EA
330
80
100
AcDbEntity
  8
0
  6
Continuous
370
    13
100
AcDbEllipse
 10
181.7725610484573
 20
15.7465696650684
 30
0.0
 11
2.604474678424074E-16
 21
4.253429936268009
 31
0.0
210
0.0
220
0.0
230
1.0
 40
0.9938283421008789
 41
4.299595219153121
 42
8.266774943998835
  0
ELLIPSE
  5
EB
330
80
100
AcDbEntity
  8
0
  6
Continuous
370
    13
100
AcDbEllipse
 10
185.9997374968432
 20
4.253431132256758
 30
0.0
 11
2.604474678424074E-16
 21
4.253429936268009
 31
0.0
210
0.0
220
0.0
230
1.0
 40
0.9938283421008789
 41
1.158003553205546
 42
5.125182741616256
  0
ELLIPSE
  5
EC
330
80
100
AcDbEntity
  8
0
  6
Continuous
370
    13
100
AcDbEllipse
 10
190.2271029458688
 20
15.7465696650684
 30
0.0
 11
2.604474678424074E-16
 21
4.253429936268009
 31
0.0
210
0.0
220
0.0
230
1.0
 40
0.9938283421008789
 41
4.299595219153121
 42
8.266774943998835
  0
ELLIPSE
  5
ED
330
80
100
AcDbEntity
  8
0
  6
Continuous
370
    13
100
AcDbEllipse
 10
194.4542793942547
 20
4.253431132256758
 30
0.0
 11
2.604474678424074E-16
 21
4.253429936268009
 31
0.0
210
0.0
220
0.0
230
1.0
 40
0.9938283421008789
 41
1.158003553205546
 42
5.125182741616256
  0
ELLIPSE
  5
EE
330
80
100
AcDbEntity
  8
0
  6
Continuous
370
    13
100
AcDbEllipse
 10
198.6816448432803
 20
15.7465696650684
 30
0.0
 11
2.604474678424074E-16
 21
4.253429936268009
 31
0.0
210
0.0
220
0.0
230
1.0
 40
0.9938283421008789
 41
4.299595219153121
 42
8.266774943998835
  0
ELLIPSE
  5
EF
330
80
100
AcDbEntity
  8
0
  6
Continuous
370
    13
100
AcDbEllipse
 10
202.9088212916662
 20
4.253431132256758
 30
0.0
 11
2.604474678424074E-16
 21
4.253429936268009
 31
0.0
210
0.0
220
0.0
230
1.0
 40
0.9938283421008789
 41
1.158003553205546
 42
5.125182741616256
  0
ELLIPSE
  5
F0
330
80
100
AcDbEntity
  8
0
  6
Continuous
370
    13
100
AcDbEllipse
 10
207.1361867406918
 20
15.7465696650684
 30
0.0
 11
2.604474678424074E-16
 21
4.253429936268009
 31
0.0
210
0.0
220
0.0
230
1.0
 40
0.9938283421008789
 41
4.299595219153121
 42
8.266774943998835
  0
ELLIPSE
  5
F1
330
80
100
AcDbEntity
  8
0
  6
Continuous
370
    13
100
AcDbEllipse
 10
211.3633631890777
 20
4.253431132256758
 30
0.0
 11
2.604474678424074E-16
 21
4.253429936268009
 31
0.0
210
0.0
220
0.0
230
1.0
 40
0.9938283421008789
 41
1.158003553205546
 42
5.125182741616256
  0
ELLIPSE
  5
F2
330
80
100
AcDbEntity
  8
0
  6
Continuous
370
    13
100
AcDbEllipse
 10
215.5907286381033
 20
15.7465696650684
 30
0.0
 11
2.604474678424074E-16
 21
4.253429936268009
 31
0.0
210
0.0
220
0.0
230
1.0
 40
0.9938283421008789
 41
4.299595219153121
 42
8.266774943998835
  0
ELLIPSE
  5
F3
330
80
100
AcDbEntity
  8
0
  6
Continuous
370
    13
100
AcDbEllipse
 10
219.8179050864892
 20
4.253431132256758
 30
0.0
 11
2.604474678424074E-16
 21
4.253429936268009
 31
0.0
210
0.0
220
0.0
230
1.0
 40
0.9938283421008789
 41
1.158003553205546
 42
5.125182741616256
  0
ELLIPSE
  5
F4
330
80
100
AcDbEntity
  8
0
  6
Continuous
370
    13
100
AcDbEllipse
 10
224.0452705355147
 20
15.7465696650684
 30
0.0
 11
2.604474678424074E-16
 21
4.253429936268009
 31
0.0
210
0.0
220
0.0
230
1.0
 40
0.9938283421008789
 41
4.299595219153121
 42
8.266774943998835
  0
ELLIPSE
  5
F5
330
80
100
AcDbEntity
  8
0
  6
Continuous
370
    13
100
AcDbEllipse
 10
228.2724469839007
 20
4.253431132256758
 30
0.0
 11
2.604474678424074E-16
 21
4.253429936268009
 31
0.0
210
0.0
220
0.0
230
1.0
 40
0.9938283421008789
 41
1.158003553205546
 42
5.125182741616256
  0
ELLIPSE
  5
F6
330
80
100
AcDbEntity
  8
0
  6
Continuous
370
    13
100
AcDbEllipse
 10
232.4998124329262
 20
15.7465696650684
 30
0.0
 11
2.604474678424074E-16
 21
4.253429936268009
 31
0.0
210
0.0
220
0.0
230
1.0
 40
0.9938283421008789
 41
4.299595219153121
 42
8.266774943998835
  0
ELLIPSE
  5
F7
330
80
100
AcDbEntity
  8
0
  6
Continuous
370
    13
100
AcDbEllipse
 10
236.7269888813122
 20
4.253431132256758
 30
0.0
 11
2.604474678424074E-16
 21
4.253429936268009
 31
0.0
210
0.0
220
0.0
230
1.0
 40
0.9938283421008789
 41
1.158003553205546
 42
5.125182741616256
  0
ELLIPSE
  5
F8
330
80
100
AcDbEntity
  8
0
  6
Continuous
370
    13
100
AcDbEllipse
 10
240.9543543303377
 20
15.7465696650684
 30
0.0
 11
2.604474678424074E-16
 21
4.253429936268009
 31
0.0
210
0.0
220
0.0
230
1.0
 40
0.9938283421008789
 41
4.299595219153121
 42
8.266774943998835
  0
ELLIPSE
  5
F9
330
80
100
AcDbEntity
  8
0
  6
Continuous
370
    13
100
AcDbEllipse
 10
245.1815307787236
 20
4.253431132256758
 30
0.0
 11
2.604474678424074E-16
 21
4.253429936268009
 31
0.0
210
0.0
220
0.0
230
1.0
 40
0.9938283421008789
 41
1.158003553205546
 42
5.125182741616256
  0
ELLIPSE
  5
FA
330
80
100
AcDbEntity
  8
0
  6
Continuous
370
    13
100
AcDbEllipse
 10
249.4088962277492
 20
15.7465696650684
 30
0.0
 11
2.604474678424074E-16
 21
4.253429936268009
 31
0.0
210
0.0
220
0.0
230
1.0
 40
0.9938283421008789
 41
4.299595219153123
 42
8.266774943998835
  0
ELLIPSE
  5
FB
330
80
100
AcDbEntity
  8
0
  6
Continuous
370
    13
100
AcDbEllipse
 10
253.6360726761351
 20
4.253431132256758
 30
0.0
 11
2.604474678424074E-16
 21
4.253429936268009
 31
0.0
210
0.0
220
0.0
230
1.0
 40
0.9938283421008789
 41
1.158003553205546
 42
3.141592653589793
  0
ENDBLK
  5
82
330
80
100
AcDbEntity
  8
0
100
AcDbBlockEnd
  0
BLOCK
  5
FE
330
FD
100
AcDbEntity
  8
0
100
AcDbBlockBegin
  2
InsulFib 65_2
 70
     0
 10
0.0
 20
0.0
 30
0.0
  3
InsulFib 65_2
  1

  0
LINE
  5
100
330
FD
100
AcDbEntity
  8
0
  6
Continuous
370
    13
100
AcDbLine
 10
8.59433443861592
 20
11.02558447172857
 30
0.0
 11
15.19080884403584
 21
25.97441110311303
 31
0.0
  0
LINE
  5
101
330
FD
100
AcDbEntity
  8
0
  6
Continuous
370
    13
100
AcDbLine
 10
0.6659543352075188
 20
25.97441110311303
 30
0.0
 11
7.262422795774326
 21
11.02558447172857
 31
0.0
  0
LINE
  5
102
330
FD
100
AcDbEntity
  8
0
  6
Continuous
370
    13
100
AcDbLine
 10
24.4514431850368
 20
11.02558447172857
 30
0.0
 11
31.04791759045672
 21
25.97441110311303
 31
0.0
  0
LINE
  5
103
330
FD
100
AcDbEntity
  8
0
  6
Continuous
370
    13
100
AcDbLine
 10
16.5230630816284
 20
25.97441110311303
 30
0.0
 11
23.11953154219521
 21
11.02558447172857
 31
0.0
  0
LINE
  5
104
330
FD
100
AcDbEntity
  8
0
  6
Continuous
370
    13
100
AcDbLine
 10
40.30855193145769
 20
11.02558447172857
 30
0.0
 11
46.9050263368776
 21
25.97441110311303
 31
0.0
  0
LINE
  5
105
330
FD
100
AcDbEntity
  8
0
  6
Continuous
370
    13
100
AcDbLine
 10
32.38017182804928
 20
25.97441110311303
 30
0.0
 11
38.97664028861609
 21
11.02558447172857
 31
0.0
  0
LINE
  5
106
330
FD
100
AcDbEntity
  8
0
  6
Continuous
370
    13
100
AcDbLine
 10
56.16566067787856
 20
11.02558447172857
 30
0.0
 11
62.76213508329849
 21
25.97441110311303
 31
0.0
  0
LINE
  5
107
330
FD
100
AcDbEntity
  8
0
  6
Continuous
370
    13
100
AcDbLine
 10
48.23728057447017
 20
25.97441110311303
 30
0.0
 11
54.83374903503697
 21
11.02558447172857
 31
0.0
  0
LINE
  5
108
330
FD
100
AcDbEntity
  8
0
  6
Continuous
370
    13
100
AcDbLine
 10
72.02276942429944
 20
11.02558447172857
 30
0.0
 11
78.61924382971937
 21
25.97441110311303
 31
0.0
  0
LINE
  5
109
330
FD
100
AcDbEntity
  8
0
  6
Continuous
370
    13
100
AcDbLine
 10
64.09438932089105
 20
25.97441110311303
 30
0.0
 11
70.69085778145785
 21
11.02558447172857
 31
0.0
  0
LINE
  5
10A
330
FD
100
AcDbEntity
  8
0
  6
Continuous
370
    13
100
AcDbLine
 10
87.87987817072032
 20
11.02558447172857
 30
0.0
 11
94.47635257614024
 21
25.97441110311303
 31
0.0
  0
LINE
  5
10B
330
FD
100
AcDbEntity
  8
0
  6
Continuous
370
    13
100
AcDbLine
 10
79.95149806731193
 20
25.97441110311303
 30
0.0
 11
86.54796652787873
 21
11.02558447172857
 31
0.0
  0
LINE
  5
10C
330
FD
100
AcDbEntity
  8
0
  6
Continuous
370
    13
100
AcDbLine
 10
103.7369869171412
 20
11.02558447172857
 30
0.0
 11
110.3334613225611
 21
25.97441110311303
 31
0.0
  0
LINE
  5
10D
330
FD
100
AcDbEntity
  8
0
  6
Continuous
370
    13
100
AcDbLine
 10
95.80860681373281
 20
25.97441110311303
 30
0.0
 11
102.4050752742996
 21
11.02558447172857
 31
0.0
  0
LINE
  5
10E
330
FD
100
AcDbEntity
  8
0
  6
Continuous
370
    13
100
AcDbLine
 10
119.5940956635621
 20
11.02558447172857
 30
0.0
 11
126.190570068982
 21
25.97441110311303
 31
0.0
  0
LINE
  5
10F
330
FD
100
AcDbEntity
  8
0
  6
Continuous
370
    13
100
AcDbLine
 10
111.6657155601537
 20
25.97441110311303
 30
0.0
 11
118.2621840207205
 21
11.02558447172857
 31
0.0
  0
LINE
  5
110
330
FD
100
AcDbEntity
  8
0
  6
Continuous
370
    13
100
AcDbLine
 10
135.451204409983
 20
11.02558447172857
 30
0.0
 11
142.0476788154029
 21
25.97441110311303
 31
0.0
  0
LINE
  5
111
330
FD
100
AcDbEntity
  8
0
  6
Continuous
370
    13
100
AcDbLine
 10
127.5228243065746
 20
25.97441110311303
 30
0.0
 11
134.1192927671414
 21
11.02558447172857
 31
0.0
  0
LINE
  5
112
330
FD
100
AcDbEntity
  8
0
  6
Continuous
370
    13
100
AcDbLine
 10
151.3083131564039
 20
11.02558447172857
 30
0.0
 11
157.9047875618238
 21
25.97441110311303
 31
0.0
  0
LINE
  5
113
330
FD
100
AcDbEntity
  8
0
  6
Continuous
370
    13
100
AcDbLine
 10
143.3799330529955
 20
25.97441110311303
 30
0.0
 11
149.9764015135623
 21
11.02558447172857
 31
0.0
  0
LINE
  5
114
330
FD
100
AcDbEntity
  8
0
  6
Continuous
370
    13
100
AcDbLine
 10
167.1654219028247
 20
11.02558447172857
 30
0.0
 11
173.7618963082446
 21
25.97441110311303
 31
0.0
  0
LINE
  5
115
330
FD
100
AcDbEntity
  8
0
  6
Continuous
370
    13
100
AcDbLine
 10
159.2370417994163
 20
25.97441110311303
 30
0.0
 11
165.8335102599831
 21
11.02558447172857
 31
0.0
  0
LINE
  5
116
330
FD
100
AcDbEntity
  8
0
  6
Continuous
370
    13
100
AcDbLine
 10
183.0225306492456
 20
11.02558447172857
 30
0.0
 11
189.6190050546655
 21
25.97441110311303
 31
0.0
  0
LINE
  5
117
330
FD
100
AcDbEntity
  8
0
  6
Continuous
370
    13
100
AcDbLine
 10
175.0941505458372
 20
25.97441110311303
 30
0.0
 11
181.690619006404
 21
11.02558447172857
 31
0.0
  0
LINE
  5
118
330
FD
100
AcDbEntity
  8
0
  6
Continuous
370
    13
100
AcDbLine
 10
198.8796393956665
 20
11.02558447172857
 30
0.0
 11
205.4761138010864
 21
25.97441110311303
 31
0.0
  0
LINE
  5
119
330
FD
100
AcDbEntity
  8
0
  6
Continuous
370
    13
100
AcDbLine
 10
190.9512592922581
 20
25.97441110311303
 30
0.0
 11
197.5477277528249
 21
11.02558447172857
 31
0.0
  0
LINE
  5
11A
330
FD
100
AcDbEntity
  8
0
  6
Continuous
370
    13
100
AcDbLine
 10
214.7367481420874
 20
11.02558447172857
 30
0.0
 11
221.3332225475073
 21
25.97441110311303
 31
0.0
  0
LINE
  5
11B
330
FD
100
AcDbEntity
  8
0
  6
Continuous
370
    13
100
AcDbLine
 10
206.808368038679
 20
25.97441110311303
 30
0.0
 11
213.4048364992458
 21
11.02558447172857
 31
0.0
  0
LINE
  5
11C
330
FD
100
AcDbEntity
  8
0
  6
Continuous
370
    13
100
AcDbLine
 10
230.5938568885082
 20
11.02558447172857
 30
0.0
 11
237.1903312939282
 21
25.97441110311303
 31
0.0
  0
LINE
  5
11D
330
FD
100
AcDbEntity
  8
0
  6
Continuous
370
    13
100
AcDbLine
 10
222.6654767850999
 20
25.97441110311303
 30
0.0
 11
229.2619452456667
 21
11.02558447172857
 31
0.0
  0
LINE
  5
11E
330
FD
100
AcDbEntity
  8
0
  6
Continuous
370
    13
100
AcDbLine
 10
246.4509656349291
 20
11.02558447172857
 30
0.0
 11
253.047440040349
 21
25.97441110311303
 31
0.0
  0
LINE
  5
11F
330
FD
100
AcDbEntity
  8
0
  6
Continuous
370
    13
100
AcDbLine
 10
238.5225855315207
 20
25.97441110311303
 30
0.0
 11
245.1190539920875
 21
11.02558447172857
 31
0.0
  0
LINE
  5
120
330
FD
100
AcDbEntity
  8
0
  6
Continuous
370
    13
100
AcDbLine
 10
262.30807438135
 20
11.02558447172857
 30
0.0
 11
268.90454878677
 21
25.97441110311303
 31
0.0
  0
LINE
  5
121
330
FD
100
AcDbEntity
  8
0
  6
Continuous
370
    13
100
AcDbLine
 10
254.3796942779416
 20
25.97441110311303
 30
0.0
 11
260.9761627385084
 21
11.02558447172857
 31
0.0
  0
LINE
  5
122
330
FD
100
AcDbEntity
  8
0
  6
Continuous
370
    13
100
AcDbLine
 10
278.1651831277709
 20
11.02558447172857
 30
0.0
 11
284.7616575331908
 21
25.97441110311303
 31
0.0
  0
LINE
  5
123
330
FD
100
AcDbEntity
  8
0
  6
Continuous
370
    13
100
AcDbLine
 10
270.2368030243625
 20
25.97441110311303
 30
0.0
 11
276.8332714849293
 21
11.02558447172857
 31
0.0
  0
LINE
  5
124
330
FD
100
AcDbEntity
  8
0
  6
Continuous
370
    13
100
AcDbLine
 10
294.0222918741918
 20
11.02558447172857
 30
0.0
 11
300.6187662796117
 21
25.97441110311303
 31
0.0
  0
LINE
  5
125
330
FD
100
AcDbEntity
  8
0
  6
Continuous
370
    13
100
AcDbLine
 10
286.0939117707833
 20
25.97441110311303
 30
0.0
 11
292.6903802313502
 21
11.02558447172857
 31
0.0
  0
LINE
  5
126
330
FD
100
AcDbEntity
  8
0
  6
Continuous
370
    13
100
AcDbLine
 10
309.8794006206127
 20
11.02558447172857
 30
0.0
 11
316.4758750260326
 21
25.97441110311303
 31
0.0
  0
LINE
  5
127
330
FD
100
AcDbEntity
  8
0
  6
Continuous
370
    13
100
AcDbLine
 10
301.9510205172043
 20
25.97441110311303
 30
0.0
 11
308.5474889777711
 21
11.02558447172857
 31
0.0
  0
LINE
  5
128
330
FD
100
AcDbEntity
  8
0
  6
Continuous
370
    13
100
AcDbLine
 10
325.7365093670335
 20
11.02558447172857
 30
0.0
 11
332.3329837724535
 21
25.97441110311303
 31
0.0
  0
LINE
  5
129
330
FD
100
AcDbEntity
  8
0
  6
Continuous
370
    13
100
AcDbLine
 10
317.8081292636251
 20
25.97441110311303
 30
0.0
 11
324.4045977241919
 21
11.02558447172857
 31
0.0
  0
LINE
  5
12A
330
FD
100
AcDbEntity
  8
0
  6
Continuous
370
    13
100
AcDbLine
 10
341.5936181134544
 20
11.02558447172857
 30
0.0
 11
348.1900925188743
 21
25.97441110311303
 31
0.0
  0
LINE
  5
12B
330
FD
100
AcDbEntity
  8
0
  6
Continuous
370
    13
100
AcDbLine
 10
333.665238010046
 20
25.97441110311303
 30
0.0
 11
340.2617064706128
 21
11.02558447172857
 31
0.0
  0
LINE
  5
12C
330
FD
100
AcDbEntity
  8
0
  6
Continuous
370
    13
100
AcDbLine
 10
357.4507268598753
 20
11.02558447172857
 30
0.0
 11
364.0472012652952
 21
25.97441110311303
 31
0.0
  0
LINE
  5
12D
330
FD
100
AcDbEntity
  8
0
  6
Continuous
370
    13
100
AcDbLine
 10
349.5223467564668
 20
25.97441110311303
 30
0.0
 11
356.1188152170337
 21
11.02558447172857
 31
0.0
  0
LINE
  5
12E
330
FD
100
AcDbEntity
  8
0
  6
Continuous
370
    13
100
AcDbLine
 10
373.3078356062962
 20
11.02558447172857
 30
0.0
 11
379.9043100117161
 21
25.97441110311303
 31
0.0
  0
LINE
  5
12F
330
FD
100
AcDbEntity
  8
0
  6
Continuous
370
    13
100
AcDbLine
 10
365.3794555028878
 20
25.97441110311303
 30
0.0
 11
371.9759239634546
 21
11.02558447172857
 31
0.0
  0
LINE
  5
130
330
FD
100
AcDbEntity
  8
0
  6
Continuous
370
    13
100
AcDbLine
 10
389.164944352717
 20
11.02558447172857
 30
0.0
 11
395.761418758137
 21
25.97441110311303
 31
0.0
  0
LINE
  5
131
330
FD
100
AcDbEntity
  8
0
  6
Continuous
370
    13
100
AcDbLine
 10
381.2365642493086
 20
25.97441110311303
 30
0.0
 11
387.8330327098755
 21
11.02558447172857
 31
0.0
  0
LINE
  5
132
330
FD
100
AcDbEntity
  8
0
  6
Continuous
370
    13
100
AcDbLine
 10
405.0220530991379
 20
11.02558447172857
 30
0.0
 11
411.6185275045578
 21
25.97441110311303
 31
0.0
  0
LINE
  5
133
330
FD
100
AcDbEntity
  8
0
  6
Continuous
370
    13
100
AcDbLine
 10
397.0936729957295
 20
25.97441110311303
 30
0.0
 11
403.6901414562963
 21
11.02558447172857
 31
0.0
  0
LINE
  5
134
330
FD
100
AcDbEntity
  8
0
  6
Continuous
370
    13
100
AcDbLine
 10
420.8791618455588
 20
11.02558447172857
 30
0.0
 11
427.4756362509787
 21
25.97441110311303
 31
0.0
  0
LINE
  5
135
330
FD
100
AcDbEntity
  8
0
  6
Continuous
370
    13
100
AcDbLine
 10
412.9507817421504
 20
25.97441110311303
 30
0.0
 11
419.5472502027172
 21
11.02558447172857
 31
0.0
  0
LINE
  5
136
330
FD
100
AcDbEntity
  8
0
  6
Continuous
370
    13
100
AcDbLine
 10
436.7362705919797
 20
11.02558447172857
 30
0.0
 11
443.3327449973996
 21
25.97441110311303
 31
0.0
  0
LINE
  5
137
330
FD
100
AcDbEntity
  8
0
  6
Continuous
370
    13
100
AcDbLine
 10
428.8078904885713
 20
25.97441110311303
 30
0.0
 11
435.4043589491381
 21
11.02558447172857
 31
0.0
  0
LINE
  5
138
330
FD
100
AcDbEntity
  8
0
  6
Continuous
370
    13
100
AcDbLine
 10
452.5933793384006
 20
11.02558447172857
 30
0.0
 11
459.1898537438205
 21
25.97441110311303
 31
0.0
  0
LINE
  5
139
330
FD
100
AcDbEntity
  8
0
  6
Continuous
370
    13
100
AcDbLine
 10
444.6649992349921
 20
25.97441110311303
 30
0.0
 11
451.261467695559
 21
11.02558447172857
 31
0.0
  0
LINE
  5
13A
330
FD
100
AcDbEntity
  8
0
  6
Continuous
370
    13
100
AcDbLine
 10
468.4504880848214
 20
11.02558447172857
 30
0.0
 11
475.0469624902414
 21
25.97441110311303
 31
0.0
  0
LINE
  5
13B
330
FD
100
AcDbEntity
  8
0
  6
Continuous
370
    13
100
AcDbLine
 10
460.522107981413
 20
25.97441110311303
 30
0.0
 11
467.1185764419798
 21
11.02558447172857
 31
0.0
  0
LINE
  5
13C
330
FD
100
AcDbEntity
  8
0
  6
Continuous
370
    13
100
AcDbLine
 10
484.3075968312423
 20
11.02558447172857
 30
0.0
 11
490.9040712366622
 21
25.97441110311303
 31
0.0
  0
LINE
  5
13D
330
FD
100
AcDbEntity
  8
0
  6
Continuous
370
    13
100
AcDbLine
 10
476.3792167278339
 20
25.97441110311303
 30
0.0
 11
482.9756851884007
 21
11.02558447172857
 31
0.0
  0
LINE
  5
13E
330
FD
100
AcDbEntity
  8
0
  6
Continuous
370
    13
100
AcDbLine
 10
500.1647055776633
 20
11.02558447172857
 30
0.0
 11
506.7611799830831
 21
25.97441110311303
 31
0.0
  0
LINE
  5
13F
330
FD
100
AcDbEntity
  8
0
  6
Continuous
370
    13
100
AcDbLine
 10
492.2363254742548
 20
25.97441110311303
 30
0.0
 11
498.8327939348216
 21
11.02558447172857
 31
0.0
  0
LINE
  5
140
330
FD
100
AcDbEntity
  8
0
  6
Continuous
370
    13
100
AcDbLine
 10
516.0218143240841
 20
11.02558447172857
 30
0.0
 11
522.618288729504
 21
25.97441110311303
 31
0.0
  0
LINE
  5
141
330
FD
100
AcDbEntity
  8
0
  6
Continuous
370
    13
100
AcDbLine
 10
508.0934342206758
 20
25.97441110311303
 30
0.0
 11
514.6899026812426
 21
11.02558447172857
 31
0.0
  0
LINE
  5
142
330
FD
100
AcDbEntity
  8
0
  6
Continuous
370
    13
100
AcDbLine
 10
531.878923070505
 20
11.02558447172857
 30
0.0
 11
538.4753974759249
 21
25.97441110311303
 31
0.0
  0
LINE
  5
143
330
FD
100
AcDbEntity
  8
0
  6
Continuous
370
    13
100
AcDbLine
 10
523.9505429670967
 20
25.97441110311303
 30
0.0
 11
530.5470114276635
 21
11.02558447172857
 31
0.0
  0
LINE
  5
144
330
FD
100
AcDbEntity
  8
0
  6
Continuous
370
    13
100
AcDbLine
 10
547.7360318169259
 20
11.02558447172857
 30
0.0
 11
554.3325062223457
 21
25.97441110311303
 31
0.0
  0
LINE
  5
145
330
FD
100
AcDbEntity
  8
0
  6
Continuous
370
    13
100
AcDbLine
 10
539.8076517135175
 20
25.97441110311303
 30
0.0
 11
546.4041201740844
 21
11.02558447172857
 31
0.0
  0
LINE
  5
146
330
FD
100
AcDbEntity
  8
0
  6
Continuous
370
    13
100
AcDbLine
 10
563.5931405633468
 20
11.02558447172857
 30
0.0
 11
570.1896149687666
 21
25.97441110311303
 31
0.0
  0
LINE
  5
147
330
FD
100
AcDbEntity
  8
0
  6
Continuous
370
    13
100
AcDbLine
 10
555.6647604599384
 20
25.97441110311303
 30
0.0
 11
562.2612289205052
 21
11.02558447172857
 31
0.0
  0
LINE
  5
148
330
FD
100
AcDbEntity
  8
0
  6
Continuous
370
    13
100
AcDbLine
 10
579.4502493097676
 20
11.02558447172857
 30
0.0
 11
586.0467237151876
 21
25.97441110311303
 31
0.0
  0
LINE
  5
149
330
FD
100
AcDbEntity
  8
0
  6
Continuous
370
    13
100
AcDbLine
 10
571.5218692063593
 20
25.97441110311303
 30
0.0
 11
578.1183376669261
 21
11.02558447172857
 31
0.0
  0
LINE
  5
14A
330
FD
100
AcDbEntity
  8
0
  6
Continuous
370
    13
100
AcDbLine
 10
595.3073580561885
 20
11.02558447172857
 30
0.0
 11
601.9038324616084
 21
25.97441110311303
 31
0.0
  0
LINE
  5
14B
330
FD
100
AcDbEntity
  8
0
  6
Continuous
370
    13
100
AcDbLine
 10
587.3789779527801
 20
25.97441110311303
 30
0.0
 11
593.975446413347
 21
11.02558447172857
 31
0.0
  0
LINE
  5
14C
330
FD
100
AcDbEntity
  8
0
  6
Continuous
370
    13
100
AcDbLine
 10
611.1644668026094
 20
11.02558447172857
 30
0.0
 11
617.7609412080293
 21
25.97441110311303
 31
0.0
  0
LINE
  5
14D
330
FD
100
AcDbEntity
  8
0
  6
Continuous
370
    13
100
AcDbLine
 10
603.236086699201
 20
25.97441110311303
 30
0.0
 11
609.8325551597678
 21
11.02558447172857
 31
0.0
  0
LINE
  5
14E
330
FD
100
AcDbEntity
  8
0
  6
Continuous
370
    13
100
AcDbLine
 10
627.0215755490302
 20
11.02558447172857
 30
0.0
 11
633.6180499544502
 21
25.97441110311303
 31
0.0
  0
LINE
  5
14F
330
FD
100
AcDbEntity
  8
0
  6
Continuous
370
    13
100
AcDbLine
 10
619.0931954456219
 20
25.97441110311303
 30
0.0
 11
625.6896639061888
 21
11.02558447172857
 31
0.0
  0
LINE
  5
150
330
FD
100
AcDbEntity
  8
0
  6
Continuous
370
    13
100
AcDbLine
 10
642.8786842954512
 20
11.02558447172857
 30
0.0
 11
649.475158700871
 21
25.97441110311303
 31
0.0
  0
LINE
  5
151
330
FD
100
AcDbEntity
  8
0
  6
Continuous
370
    13
100
AcDbLine
 10
634.9503041920428
 20
25.97441110311303
 30
0.0
 11
641.5467726526097
 21
11.02558447172857
 31
0.0
  0
LINE
  5
152
330
FD
100
AcDbEntity
  8
0
  6
Continuous
370
    13
100
AcDbLine
 10
658.7357930418721
 20
11.02558447172857
 30
0.0
 11
665.3322674472919
 21
25.97441110311303
 31
0.0
  0
LINE
  5
153
330
FD
100
AcDbEntity
  8
0
  6
Continuous
370
    13
100
AcDbLine
 10
650.8074129384637
 20
25.97441110311303
 30
0.0
 11
657.4038813990305
 21
11.02558447172857
 31
0.0
  0
LINE
  5
154
330
FD
100
AcDbEntity
  8
0
  6
Continuous
370
    13
100
AcDbLine
 10
674.5929017882929
 20
11.02558447172857
 30
0.0
 11
681.1893761937127
 21
25.97441110311303
 31
0.0
  0
LINE
  5
155
330
FD
100
AcDbEntity
  8
0
  6
Continuous
370
    13
100
AcDbLine
 10
666.6645216848846
 20
25.97441110311303
 30
0.0
 11
673.2609901454514
 21
11.02558447172857
 31
0.0
  0
LINE
  5
156
330
FD
100
AcDbEntity
  8
0
  6
Continuous
370
    13
100
AcDbLine
 10
690.4500105347138
 20
11.02558447172857
 30
0.0
 11
697.0464849401336
 21
25.97441110311303
 31
0.0
  0
LINE
  5
157
330
FD
100
AcDbEntity
  8
0
  6
Continuous
370
    13
100
AcDbLine
 10
682.5216304313054
 20
25.97441110311303
 30
0.0
 11
689.1180988918723
 21
11.02558447172857
 31
0.0
  0
LINE
  5
158
330
FD
100
AcDbEntity
  8
0
  6
Continuous
370
    13
100
AcDbLine
 10
706.3071192811346
 20
11.02558447172857
 30
0.0
 11
712.9035936865546
 21
25.97441110311303
 31
0.0
  0
LINE
  5
159
330
FD
100
AcDbEntity
  8
0
  6
Continuous
370
    13
100
AcDbLine
 10
698.3787391777263
 20
25.97441110311303
 30
0.0
 11
704.9752076382931
 21
11.02558447172857
 31
0.0
  0
LINE
  5
15A
330
FD
100
AcDbEntity
  8
0
  6
Continuous
370
    13
100
AcDbLine
 10
722.1642280275555
 20
11.02558447172857
 30
0.0
 11
728.7607024329754
 21
25.97441110311303
 31
0.0
  0
LINE
  5
15B
330
FD
100
AcDbEntity
  8
0
  6
Continuous
370
    13
100
AcDbLine
 10
714.2358479241472
 20
25.97441110311303
 30
0.0
 11
720.832316384714
 21
11.02558447172857
 31
0.0
  0
LINE
  5
15C
330
FD
100
AcDbEntity
  8
0
  6
Continuous
370
    13
100
AcDbLine
 10
738.0213367739764
 20
11.02558447172857
 30
0.0
 11
744.6178111793963
 21
25.97441110311303
 31
0.0
  0
LINE
  5
15D
330
FD
100
AcDbEntity
  8
0
  6
Continuous
370
    13
100
AcDbLine
 10
730.092956670568
 20
25.97441110311303
 30
0.0
 11
736.6894251311348
 21
11.02558447172857
 31
0.0
  0
LINE
  5
15E
330
FD
100
AcDbEntity
  8
0
  6
Continuous
370
    13
100
AcDbLine
 10
753.8784455203972
 20
11.02558447172857
 30
0.0
 11
760.4749199258172
 21
25.97441110311303
 31
0.0
  0
LINE
  5
15F
330
FD
100
AcDbEntity
  8
0
  6
Continuous
370
    13
100
AcDbLine
 10
745.950065416989
 20
25.97441110311303
 30
0.0
 11
752.5465338775558
 21
11.02558447172857
 31
0.0
  0
LINE
  5
160
330
FD
100
AcDbEntity
  8
0
  6
Continuous
370
    13
100
AcDbLine
 10
769.7355542668182
 20
11.02558447172857
 30
0.0
 11
776.332028672238
 21
25.97441110311303
 31
0.0
  0
LINE
  5
161
330
FD
100
AcDbEntity
  8
0
  6
Continuous
370
    13
100
AcDbLine
 10
761.8071741634099
 20
25.97441110311303
 30
0.0
 11
768.4036426239767
 21
11.02558447172857
 31
0.0
  0
LINE
  5
162
330
FD
100
AcDbEntity
  8
0
  6
Continuous
370
    13
100
AcDbLine
 10
785.5926630132391
 20
11.02558447172857
 30
0.0
 11
792.1891374186589
 21
25.97441110311303
 31
0.0
  0
LINE
  5
163
330
FD
100
AcDbEntity
  8
0
  6
Continuous
370
    13
100
AcDbLine
 10
777.6642829098307
 20
25.97441110311303
 30
0.0
 11
784.2607513703975
 21
11.02558447172857
 31
0.0
  0
LINE
  5
164
330
FD
100
AcDbEntity
  8
0
  6
Continuous
370
    13
100
AcDbLine
 10
801.4497717596599
 20
11.02558447172857
 30
0.0
 11
808.0462461650798
 21
25.97441110311303
 31
0.0
  0
LINE
  5
165
330
FD
100
AcDbEntity
  8
0
  6
Continuous
370
    13
100
AcDbLine
 10
793.5213916562516
 20
25.97441110311303
 30
0.0
 11
800.1178601168184
 21
11.02558447172857
 31
0.0
  0
LINE
  5
166
330
FD
100
AcDbEntity
  8
0
  6
Continuous
370
    13
100
AcDbLine
 10
817.3068805060808
 20
11.02558447172857
 30
0.0
 11
823.9033549115006
 21
25.97441110311303
 31
0.0
  0
LINE
  5
167
330
FD
100
AcDbEntity
  8
0
  6
Continuous
370
    13
100
AcDbLine
 10
809.3785004026724
 20
25.97441110311303
 30
0.0
 11
815.9749688632393
 21
11.02558447172857
 31
0.0
  0
LINE
  5
168
330
FD
100
AcDbEntity
  8
0
  6
Continuous
370
    13
100
AcDbLine
 10
833.1639892525017
 20
11.02558447172857
 30
0.0
 11
839.7604636579216
 21
25.97441110311303
 31
0.0
  0
LINE
  5
169
330
FD
100
AcDbEntity
  8
0
  6
Continuous
370
    13
100
AcDbLine
 10
825.2356091490933
 20
25.97441110311303
 30
0.0
 11
831.8320776096601
 21
11.02558447172857
 31
0.0
  0
LINE
  5
16A
330
FD
100
AcDbEntity
  8
0
  6
Continuous
370
    13
100
AcDbLine
 10
849.0210979989225
 20
11.02558447172857
 30
0.0
 11
855.6175724043425
 21
25.97441110311303
 31
0.0
  0
LINE
  5
16B
330
FD
100
AcDbEntity
  8
0
  6
Continuous
370
    13
100
AcDbLine
 10
841.0927178955142
 20
25.97441110311303
 30
0.0
 11
847.689186356081
 21
11.02558447172857
 31
0.0
  0
LINE
  5
16C
330
FD
100
AcDbEntity
  8
0
  6
Continuous
370
    13
100
AcDbLine
 10
864.8782067453434
 20
11.02558447172857
 30
0.0
 11
871.4746811507633
 21
25.97441110311303
 31
0.0
  0
LINE
  5
16D
330
FD
100
AcDbEntity
  8
0
  6
Continuous
370
    13
100
AcDbLine
 10
856.949826641935
 20
25.97441110311303
 30
0.0
 11
863.546295102502
 21
11.02558447172857
 31
0.0
  0
LINE
  5
16E
330
FD
100
AcDbEntity
  8
0
  6
Continuous
370
    13
100
AcDbLine
 10
880.7353154917644
 20
11.02558447172857
 30
0.0
 11
887.3317898971842
 21
25.97441110311303
 31
0.0
  0
LINE
  5
16F
330
FD
100
AcDbEntity
  8
0
  6
Continuous
370
    13
100
AcDbLine
 10
872.806935388356
 20
25.97441110311303
 30
0.0
 11
879.4034038489228
 21
11.02558447172857
 31
0.0
  0
LINE
  5
170
330
FD
100
AcDbEntity
  8
0
  6
Continuous
370
    13
100
AcDbLine
 10
896.5924242381852
 20
11.02558447172857
 30
0.0
 11
903.1888986436051
 21
25.97441110311303
 31
0.0
  0
LINE
  5
171
330
FD
100
AcDbEntity
  8
0
  6
Continuous
370
    13
100
AcDbLine
 10
888.6640441347769
 20
25.97441110311303
 30
0.0
 11
895.2605125953437
 21
11.02558447172857
 31
0.0
  0
LINE
  5
172
330
FD
100
AcDbEntity
  8
0
  6
Continuous
370
    13
100
AcDbLine
 10
912.4495329846061
 20
11.02558447172857
 30
0.0
 11
919.0460073900259
 21
25.97441110311303
 31
0.0
  0
LINE
  5
173
330
FD
100
AcDbEntity
  8
0
  6
Continuous
370
    13
100
AcDbLine
 10
904.5211528811977
 20
25.97441110311303
 30
0.0
 11
911.1176213417646
 21
11.02558447172857
 31
0.0
  0
LINE
  5
174
330
FD
100
AcDbEntity
  8
0
  6
Continuous
370
    13
100
AcDbLine
 10
928.306641731027
 20
11.02558447172857
 30
0.0
 11
934.9031161364468
 21
25.97441110311303
 31
0.0
  0
LINE
  5
175
330
FD
100
AcDbEntity
  8
0
  6
Continuous
370
    13
100
AcDbLine
 10
920.3782616276186
 20
25.97441110311303
 30
0.0
 11
926.9747300881854
 21
11.02558447172857
 31
0.0
  0
LINE
  5
176
330
FD
100
AcDbEntity
  8
0
  6
Continuous
370
    13
100
AcDbLine
 10
944.1637504774478
 20
11.02558447172857
 30
0.0
 11
950.7602248828678
 21
25.97441110311303
 31
0.0
  0
LINE
  5
177
330
FD
100
AcDbEntity
  8
0
  6
Continuous
370
    13
100
AcDbLine
 10
936.2353703740395
 20
25.97441110311303
 30
0.0
 11
942.8318388346063
 21
11.02558447172857
 31
0.0
  0
LINE
  5
178
330
FD
100
AcDbEntity
  8
0
  6
Continuous
370
    13
100
AcDbLine
 10
960.0208592238687
 20
11.02558447172857
 30
0.0
 11
966.6173336292886
 21
25.97441110311303
 31
0.0
  0
LINE
  5
179
330
FD
100
AcDbEntity
  8
0
  6
Continuous
370
    13
100
AcDbLine
 10
952.0924791204603
 20
25.97441110311303
 30
0.0
 11
958.6889475810272
 21
11.02558447172857
 31
0.0
  0
LINE
  5
17A
330
FD
100
AcDbEntity
  8
0
  6
Continuous
370
    13
100
AcDbLine
 10
975.8779679702895
 20
11.02558447172857
 30
0.0
 11
982.4744423757095
 21
25.97441110311303
 31
0.0
  0
LINE
  5
17B
330
FD
100
AcDbEntity
  8
0
  6
Continuous
370
    13
100
AcDbLine
 10
967.9495878668812
 20
25.97441110311303
 30
0.0
 11
974.546056327448
 21
11.02558447172857
 31
0.0
  0
LINE
  5
17C
330
FD
100
AcDbEntity
  8
0
  6
Continuous
370
    13
100
AcDbLine
 10
991.7350767167104
 20
11.02558447172857
 30
0.0
 11
998.3315511221303
 21
25.97441110311303
 31
0.0
  0
LINE
  5
17D
330
FD
100
AcDbEntity
  8
0
  6
Continuous
370
    13
100
AcDbLine
 10
983.8066966133022
 20
25.97441110311303
 30
0.0
 11
990.403165073869
 21
11.02558447172857
 31
0.0
  0
LINE
  5
17E
330
FD
100
AcDbEntity
  8
0
  6
Continuous
370
    13
100
AcDbLine
 10
1007.592185463131
 20
11.02558447172857
 30
0.0
 11
1014.188659868551
 21
25.97441110311303
 31
0.0
  0
LINE
  5
17F
330
FD
100
AcDbEntity
  8
0
  6
Continuous
370
    13
100
AcDbLine
 10
999.663805359723
 20
25.97441110311303
 30
0.0
 11
1006.26027382029
 21
11.02558447172857
 31
0.0
  0
LINE
  5
180
330
FD
100
AcDbEntity
  8
0
  6
Continuous
370
    13
100
AcDbLine
 10
1023.449294209552
 20
11.02558447172857
 30
0.0
 11
1030.045768614972
 21
25.97441110311303
 31
0.0
  0
LINE
  5
181
330
FD
100
AcDbEntity
  8
0
  6
Continuous
370
    13
100
AcDbLine
 10
1015.520914106144
 20
25.97441110311303
 30
0.0
 11
1022.117382566711
 21
11.02558447172857
 31
0.0
  0
LINE
  5
182
330
FD
100
AcDbEntity
  8
0
  6
Continuous
370
    13
100
AcDbLine
 10
1039.306402955973
 20
11.02558447172857
 30
0.0
 11
1045.902877361393
 21
25.97441110311303
 31
0.0
  0
LINE
  5
183
330
FD
100
AcDbEntity
  8
0
  6
Continuous
370
    13
100
AcDbLine
 10
1031.378022852565
 20
25.97441110311303
 30
0.0
 11
1037.974491313132
 21
11.02558447172857
 31
0.0
  0
ELLIPSE
  5
184
330
FD
100
AcDbEntity
  8
0
  6
Continuous
370
    13
100
AcDbEllipse
 10
0.0
 20
7.86884464456968
 30
0.0
 11
7.928382332728319
 21
0.0
 31
0.0
210
0.0
220
0.0
230
1.0
 40
0.992490655958092
 41
4.71238898038469
 42
6.695978724992363
  0
ELLIPSE
  5
185
330
FD
100
AcDbEntity
  8
0
  6
Continuous
370
    13
100
AcDbEllipse
 10
7.928386048261512
 20
29.13115388037751
 30
0.0
 11
7.928382332728319
 21
0.0
 31
0.0
210
0.0
220
0.0
230
1.0
 40
0.992490655958092
 41
5.870391545948018
 42
9.837571270793731
  0
ELLIPSE
  5
186
330
FD
100
AcDbEntity
  8
0
  6
Continuous
370
    13
100
AcDbEllipse
 10
15.85676317924336
 20
7.868847594675263
 30
0.0
 11
7.928382332728319
 21
0.0
 31
0.0
210
0.0
220
0.0
230
1.0
 40
0.992490655958092
 41
2.728799880000444
 42
6.695979068411154
  0
ELLIPSE
  5
187
330
FD
100
AcDbEntity
  8
0
  6
Continuous
370
    13
100
AcDbEllipse
 10
23.78549479468239
 20
29.13115388037751
 30
0.0
 11
7.928382332728319
 21
0.0
 31
0.0
210
0.0
220
0.0
230
1.0
 40
0.992490655958092
 41
5.870391545948018
 42
9.837571270793731
  0
ELLIPSE
  5
188
330
FD
100
AcDbEntity
  8
0
  6
Continuous
370
    13
100
AcDbEllipse
 10
31.71387192566424
 20
7.868847594675263
 30
0.0
 11
7.928382332728319
 21
0.0
 31
0.0
210
0.0
220
0.0
230
1.0
 40
0.992490655958092
 41
2.728799880000444
 42
6.695979068411154
  0
ELLIPSE
  5
189
330
FD
100
AcDbEntity
  8
0
  6
Continuous
370
    13
100
AcDbEllipse
 10
39.64260354110327
 20
29.13115388037751
 30
0.0
 11
7.928382332728319
 21
0.0
 31
0.0
210
0.0
220
0.0
230
1.0
 40
0.992490655958092
 41
5.870391545948018
 42
9.837571270793731
  0
ELLIPSE
  5
18A
330
FD
100
AcDbEntity
  8
0
  6
Continuous
370
    13
100
AcDbEllipse
 10
47.57098067208512
 20
7.868847594675263
 30
0.0
 11
7.928382332728319
 21
0.0
 31
0.0
210
0.0
220
0.0
230
1.0
 40
0.992490655958092
 41
2.728799880000443
 42
6.695979068411154
  0
ELLIPSE
  5
18B
330
FD
100
AcDbEntity
  8
0
  6
Continuous
370
    13
100
AcDbEllipse
 10
55.49971228752416
 20
29.13115388037751
 30
0.0
 11
7.928382332728319
 21
0.0
 31
0.0
210
0.0
220
0.0
230
1.0
 40
0.992490655958092
 41
5.870391545948018
 42
9.837571270793731
  0
ELLIPSE
  5
18C
330
FD
100
AcDbEntity
  8
0
  6
Continuous
370
    13
100
AcDbEllipse
 10
63.428089418506
 20
7.868847594675263
 30
0.0
 11
7.928382332728319
 21
0.0
 31
0.0
210
0.0
220
0.0
230
1.0
 40
0.992490655958092
 41
2.728799880000443
 42
6.695979068411154
  0
ELLIPSE
  5
18D
330
FD
100
AcDbEntity
  8
0
  6
Continuous
370
    13
100
AcDbEllipse
 10
71.35682103394504
 20
29.13115388037751
 30
0.0
 11
7.928382332728319
 21
0.0
 31
0.0
210
0.0
220
0.0
230
1.0
 40
0.992490655958092
 41
5.870391545948018
 42
9.837571270793731
  0
ELLIPSE
  5
18E
330
FD
100
AcDbEntity
  8
0
  6
Continuous
370
    13
100
AcDbEllipse
 10
79.28519816492688
 20
7.868847594675263
 30
0.0
 11
7.928382332728319
 21
0.0
 31
0.0
210
0.0
220
0.0
230
1.0
 40
0.992490655958092
 41
2.728799880000443
 42
6.695979068411154
  0
ELLIPSE
  5
18F
330
FD
100
AcDbEntity
  8
0
  6
Continuous
370
    13
100
AcDbEllipse
 10
87.21392978036592
 20
29.13115388037751
 30
0.0
 11
7.928382332728319
 21
0.0
 31
0.0
210
0.0
220
0.0
230
1.0
 40
0.992490655958092
 41
5.870391545948018
 42
9.837571270793731
  0
ELLIPSE
  5
190
330
FD
100
AcDbEntity
  8
0
  6
Continuous
370
    13
100
AcDbEllipse
 10
95.14230691134776
 20
7.868847594675263
 30
0.0
 11
7.928382332728319
 21
0.0
 31
0.0
210
0.0
220
0.0
230
1.0
 40
0.992490655958092
 41
2.728799880000443
 42
6.695979068411154
  0
ELLIPSE
  5
191
330
FD
100
AcDbEntity
  8
0
  6
Continuous
370
    13
100
AcDbEllipse
 10
103.0710385267868
 20
29.13115388037751
 30
0.0
 11
7.928382332728319
 21
0.0
 31
0.0
210
0.0
220
0.0
230
1.0
 40
0.992490655958092
 41
5.870391545948018
 42
9.837571270793731
  0
ELLIPSE
  5
192
330
FD
100
AcDbEntity
  8
0
  6
Continuous
370
    13
100
AcDbEllipse
 10
110.9994156577686
 20
7.868847594675263
 30
0.0
 11
7.928382332728319
 21
0.0
 31
0.0
210
0.0
220
0.0
230
1.0
 40
0.992490655958092
 41
2.728799880000443
 42
6.695979068411154
  0
ELLIPSE
  5
193
330
FD
100
AcDbEntity
  8
0
  6
Continuous
370
    13
100
AcDbEllipse
 10
118.9281472732077
 20
29.13115388037751
 30
0.0
 11
7.928382332728319
 21
0.0
 31
0.0
210
0.0
220
0.0
230
1.0
 40
0.992490655958092
 41
5.870391545948017
 42
9.837571270793731
  0
ELLIPSE
  5
194
330
FD
100
AcDbEntity
  8
0
  6
Continuous
370
    13
100
AcDbEllipse
 10
126.8565244041895
 20
7.868847594675263
 30
0.0
 11
7.928382332728319
 21
0.0
 31
0.0
210
0.0
220
0.0
230
1.0
 40
0.992490655958092
 41
2.728799880000443
 42
6.695979068411154
  0
ELLIPSE
  5
195
330
FD
100
AcDbEntity
  8
0
  6
Continuous
370
    13
100
AcDbEllipse
 10
134.7852560196286
 20
29.13115388037751
 30
0.0
 11
7.928382332728319
 21
0.0
 31
0.0
210
0.0
220
0.0
230
1.0
 40
0.992490655958092
 41
5.870391545948018
 42
9.837571270793731
  0
ELLIPSE
  5
196
330
FD
100
AcDbEntity
  8
0
  6
Continuous
370
    13
100
AcDbEllipse
 10
142.7136331506104
 20
7.868847594675263
 30
0.0
 11
7.928382332728319
 21
0.0
 31
0.0
210
0.0
220
0.0
230
1.0
 40
0.992490655958092
 41
2.728799880000443
 42
6.695979068411154
  0
ELLIPSE
  5
197
330
FD
100
AcDbEntity
  8
0
  6
Continuous
370
    13
100
AcDbEllipse
 10
150.6423647660494
 20
29.13115388037751
 30
0.0
 11
7.928382332728319
 21
0.0
 31
0.0
210
0.0
220
0.0
230
1.0
 40
0.992490655958092
 41
5.870391545948018
 42
9.837571270793731
  0
ELLIPSE
  5
198
330
FD
100
AcDbEntity
  8
0
  6
Continuous
370
    13
100
AcDbEllipse
 10
158.5707418970313
 20
7.868847594675263
 30
0.0
 11
7.928382332728319
 21
0.0
 31
0.0
210
0.0
220
0.0
230
1.0
 40
0.992490655958092
 41
2.728799880000443
 42
6.695979068411154
  0
ELLIPSE
  5
199
330
FD
100
AcDbEntity
  8
0
  6
Continuous
370
    13
100
AcDbEllipse
 10
166.4994735124703
 20
29.13115388037751
 30
0.0
 11
7.928382332728319
 21
0.0
 31
0.0
210
0.0
220
0.0
230
1.0
 40
0.992490655958092
 41
5.870391545948018
 42
9.837571270793731
  0
ELLIPSE
  5
19A
330
FD
100
AcDbEntity
  8
0
  6
Continuous
370
    13
100
AcDbEllipse
 10
174.4278506434522
 20
7.868847594675263
 30
0.0
 11
7.928382332728319
 21
0.0
 31
0.0
210
0.0
220
0.0
230
1.0
 40
0.992490655958092
 41
2.728799880000443
 42
6.695979068411154
  0
ELLIPSE
  5
19B
330
FD
100
AcDbEntity
  8
0
  6
Continuous
370
    13
100
AcDbEllipse
 10
182.3565822588912
 20
29.13115388037751
 30
0.0
 11
7.928382332728319
 21
0.0
 31
0.0
210
0.0
220
0.0
230
1.0
 40
0.992490655958092
 41
5.870391545948018
 42
9.837571270793731
  0
ELLIPSE
  5
19C
330
FD
100
AcDbEntity
  8
0
  6
Continuous
370
    13
100
AcDbEllipse
 10
190.2849593898731
 20
7.868847594675263
 30
0.0
 11
7.928382332728319
 21
0.0
 31
0.0
210
0.0
220
0.0
230
1.0
 40
0.992490655958092
 41
2.728799880000443
 42
6.695979068411154
  0
ELLIPSE
  5
19D
330
FD
100
AcDbEntity
  8
0
  6
Continuous
370
    13
100
AcDbEllipse
 10
198.2136910053121
 20
29.13115388037751
 30
0.0
 11
7.928382332728319
 21
0.0
 31
0.0
210
0.0
220
0.0
230
1.0
 40
0.992490655958092
 41
5.870391545948018
 42
9.837571270793731
  0
ELLIPSE
  5
19E
330
FD
100
AcDbEntity
  8
0
  6
Continuous
370
    13
100
AcDbEllipse
 10
206.1420681362939
 20
7.868847594675263
 30
0.0
 11
7.928382332728319
 21
0.0
 31
0.0
210
0.0
220
0.0
230
1.0
 40
0.992490655958092
 41
2.728799880000443
 42
6.695979068411154
  0
ELLIPSE
  5
19F
330
FD
100
AcDbEntity
  8
0
  6
Continuous
370
    13
100
AcDbEllipse
 10
214.0707997517329
 20
29.13115388037751
 30
0.0
 11
7.928382332728319
 21
0.0
 31
0.0
210
0.0
220
0.0
230
1.0
 40
0.992490655958092
 41
5.870391545948018
 42
9.837571270793731
  0
ELLIPSE
  5
1A0
330
FD
100
AcDbEntity
  8
0
  6
Continuous
370
    13
100
AcDbEllipse
 10
221.9991768827148
 20
7.868847594675263
 30
0.0
 11
7.928382332728319
 21
0.0
 31
0.0
210
0.0
220
0.0
230
1.0
 40
0.992490655958092
 41
2.728799880000443
 42
6.695979068411154
  0
ELLIPSE
  5
1A1
330
FD
100
AcDbEntity
  8
0
  6
Continuous
370
    13
100
AcDbEllipse
 10
229.9279084981538
 20
29.13115388037751
 30
0.0
 11
7.928382332728319
 21
0.0
 31
0.0
210
0.0
220
0.0
230
1.0
 40
0.992490655958092
 41
5.870391545948018
 42
9.837571270793731
  0
ELLIPSE
  5
1A2
330
FD
100
AcDbEntity
  8
0
  6
Continuous
370
    13
100
AcDbEllipse
 10
237.8562856291357
 20
7.868847594675263
 30
0.0
 11
7.928382332728319
 21
0.0
 31
0.0
210
0.0
220
0.0
230
1.0
 40
0.992490655958092
 41
2.728799880000443
 42
6.695979068411154
  0
ELLIPSE
  5
1A3
330
FD
100
AcDbEntity
  8
0
  6
Continuous
370
    13
100
AcDbEllipse
 10
245.7850172445747
 20
29.13115388037751
 30
0.0
 11
7.928382332728319
 21
0.0
 31
0.0
210
0.0
220
0.0
230
1.0
 40
0.992490655958092
 41
5.870391545948017
 42
9.837571270793731
  0
ELLIPSE
  5
1A4
330
FD
100
AcDbEntity
  8
0
  6
Continuous
370
    13
100
AcDbEllipse
 10
253.7133943755566
 20
7.868847594675263
 30
0.0
 11
7.928382332728319
 21
0.0
 31
0.0
210
0.0
220
0.0
230
1.0
 40
0.992490655958092
 41
2.728799880000443
 42
6.695979068411154
  0
ELLIPSE
  5
1A5
330
FD
100
AcDbEntity
  8
0
  6
Continuous
370
    13
100
AcDbEllipse
 10
261.6421259909956
 20
29.13115388037751
 30
0.0
 11
7.928382332728319
 21
0.0
 31
0.0
210
0.0
220
0.0
230
1.0
 40
0.992490655958092
 41
5.870391545948018
 42
9.83757127079373
  0
ELLIPSE
  5
1A6
330
FD
100
AcDbEntity
  8
0
  6
Continuous
370
    13
100
AcDbEllipse
 10
269.5705031219774
 20
7.868847594675263
 30
0.0
 11
7.928382332728319
 21
0.0
 31
0.0
210
0.0
220
0.0
230
1.0
 40
0.992490655958092
 41
2.728799880000443
 42
6.695979068411154
  0
ELLIPSE
  5
1A7
330
FD
100
AcDbEntity
  8
0
  6
Continuous
370
    13
100
AcDbEllipse
 10
277.4992347374165
 20
29.13115388037751
 30
0.0
 11
7.928382332728319
 21
0.0
 31
0.0
210
0.0
220
0.0
230
1.0
 40
0.992490655958092
 41
5.870391545948018
 42
9.83757127079373
  0
ELLIPSE
  5
1A8
330
FD
100
AcDbEntity
  8
0
  6
Continuous
370
    13
100
AcDbEllipse
 10
285.4276118683983
 20
7.868847594675263
 30
0.0
 11
7.928382332728319
 21
0.0
 31
0.0
210
0.0
220
0.0
230
1.0
 40
0.992490655958092
 41
2.728799880000443
 42
6.695979068411154
  0
ELLIPSE
  5
1A9
330
FD
100
AcDbEntity
  8
0
  6
Continuous
370
    13
100
AcDbEllipse
 10
293.3563434838374
 20
29.13115388037751
 30
0.0
 11
7.928382332728319
 21
0.0
 31
0.0
210
0.0
220
0.0
230
1.0
 40
0.992490655958092
 41
5.870391545948018
 42
9.83757127079373
  0
ELLIPSE
  5
1AA
330
FD
100
AcDbEntity
  8
0
  6
Continuous
370
    13
100
AcDbEllipse
 10
301.2847206148192
 20
7.868847594675263
 30
0.0
 11
7.928382332728319
 21
0.0
 31
0.0
210
0.0
220
0.0
230
1.0
 40
0.992490655958092
 41
2.728799880000443
 42
6.695979068411154
  0
ELLIPSE
  5
1AB
330
FD
100
AcDbEntity
  8
0
  6
Continuous
370
    13
100
AcDbEllipse
 10
309.2134522302583
 20
29.13115388037751
 30
0.0
 11
7.928382332728319
 21
0.0
 31
0.0
210
0.0
220
0.0
230
1.0
 40
0.992490655958092
 41
5.870391545948018
 42
9.83757127079373
  0
ELLIPSE
  5
1AC
330
FD
100
AcDbEntity
  8
0
  6
Continuous
370
    13
100
AcDbEllipse
 10
317.1418293612401
 20
7.868847594675263
 30
0.0
 11
7.928382332728319
 21
0.0
 31
0.0
210
0.0
220
0.0
230
1.0
 40
0.992490655958092
 41
2.728799880000443
 42
6.695979068411154
  0
ELLIPSE
  5
1AD
330
FD
100
AcDbEntity
  8
0
  6
Continuous
370
    13
100
AcDbEllipse
 10
325.0705609766791
 20
29.13115388037751
 30
0.0
 11
7.928382332728319
 21
0.0
 31
0.0
210
0.0
220
0.0
230
1.0
 40
0.992490655958092
 41
5.870391545948018
 42
9.83757127079373
  0
ELLIPSE
  5
1AE
330
FD
100
AcDbEntity
  8
0
  6
Continuous
370
    13
100
AcDbEllipse
 10
332.9989381076609
 20
7.868847594675263
 30
0.0
 11
7.928382332728319
 21
0.0
 31
0.0
210
0.0
220
0.0
230
1.0
 40
0.992490655958092
 41
2.728799880000443
 42
6.695979068411154
  0
ELLIPSE
  5
1AF
330
FD
100
AcDbEntity
  8
0
  6
Continuous
370
    13
100
AcDbEllipse
 10
340.9276697231
 20
29.13115388037751
 30
0.0
 11
7.928382332728319
 21
0.0
 31
0.0
210
0.0
220
0.0
230
1.0
 40
0.992490655958092
 41
5.870391545948018
 42
9.83757127079373
  0
ELLIPSE
  5
1B0
330
FD
100
AcDbEntity
  8
0
  6
Continuous
370
    13
100
AcDbEllipse
 10
348.8560468540819
 20
7.868847594675263
 30
0.0
 11
7.928382332728319
 21
0.0
 31
0.0
210
0.0
220
0.0
230
1.0
 40
0.992490655958092
 41
2.728799880000443
 42
6.695979068411154
  0
ELLIPSE
  5
1B1
330
FD
100
AcDbEntity
  8
0
  6
Continuous
370
    13
100
AcDbEllipse
 10
356.7847784695209
 20
29.13115388037751
 30
0.0
 11
7.928382332728319
 21
0.0
 31
0.0
210
0.0
220
0.0
230
1.0
 40
0.992490655958092
 41
5.870391545948018
 42
9.83757127079373
  0
ELLIPSE
  5
1B2
330
FD
100
AcDbEntity
  8
0
  6
Continuous
370
    13
100
AcDbEllipse
 10
364.7131556005027
 20
7.868847594675263
 30
0.0
 11
7.928382332728319
 21
0.0
 31
0.0
210
0.0
220
0.0
230
1.0
 40
0.992490655958092
 41
2.728799880000443
 42
6.695979068411154
  0
ELLIPSE
  5
1B3
330
FD
100
AcDbEntity
  8
0
  6
Continuous
370
    13
100
AcDbEllipse
 10
372.6418872159418
 20
29.13115388037751
 30
0.0
 11
7.928382332728319
 21
0.0
 31
0.0
210
0.0
220
0.0
230
1.0
 40
0.992490655958092
 41
5.870391545948018
 42
9.83757127079373
  0
ELLIPSE
  5
1B4
330
FD
100
AcDbEntity
  8
0
  6
Continuous
370
    13
100
AcDbEllipse
 10
380.5702643469236
 20
7.868847594675263
 30
0.0
 11
7.928382332728319
 21
0.0
 31
0.0
210
0.0
220
0.0
230
1.0
 40
0.992490655958092
 41
2.728799880000443
 42
6.695979068411154
  0
ELLIPSE
  5
1B5
330
FD
100
AcDbEntity
  8
0
  6
Continuous
370
    13
100
AcDbEllipse
 10
388.4989959623626
 20
29.13115388037751
 30
0.0
 11
7.928382332728319
 21
0.0
 31
0.0
210
0.0
220
0.0
230
1.0
 40
0.992490655958092
 41
5.870391545948018
 42
9.83757127079373
  0
ELLIPSE
  5
1B6
330
FD
100
AcDbEntity
  8
0
  6
Continuous
370
    13
100
AcDbEllipse
 10
396.4273730933444
 20
7.868847594675263
 30
0.0
 11
7.928382332728319
 21
0.0
 31
0.0
210
0.0
220
0.0
230
1.0
 40
0.992490655958092
 41
2.728799880000443
 42
6.695979068411154
  0
ELLIPSE
  5
1B7
330
FD
100
AcDbEntity
  8
0
  6
Continuous
370
    13
100
AcDbEllipse
 10
404.3561047087835
 20
29.13115388037751
 30
0.0
 11
7.928382332728319
 21
0.0
 31
0.0
210
0.0
220
0.0
230
1.0
 40
0.992490655958092
 41
5.870391545948018
 42
9.83757127079373
  0
ELLIPSE
  5
1B8
330
FD
100
AcDbEntity
  8
0
  6
Continuous
370
    13
100
AcDbEllipse
 10
412.2844818397654
 20
7.868847594675263
 30
0.0
 11
7.928382332728319
 21
0.0
 31
0.0
210
0.0
220
0.0
230
1.0
 40
0.992490655958092
 41
2.728799880000443
 42
6.695979068411154
  0
ELLIPSE
  5
1B9
330
FD
100
AcDbEntity
  8
0
  6
Continuous
370
    13
100
AcDbEllipse
 10
420.2132134552044
 20
29.13115388037751
 30
0.0
 11
7.928382332728319
 21
0.0
 31
0.0
210
0.0
220
0.0
230
1.0
 40
0.992490655958092
 41
5.870391545948018
 42
9.83757127079373
  0
ELLIPSE
  5
1BA
330
FD
100
AcDbEntity
  8
0
  6
Continuous
370
    13
100
AcDbEllipse
 10
428.1415905861862
 20
7.868847594675263
 30
0.0
 11
7.928382332728319
 21
0.0
 31
0.0
210
0.0
220
0.0
230
1.0
 40
0.992490655958092
 41
2.728799880000443
 42
6.695979068411154
  0
ELLIPSE
  5
1BB
330
FD
100
AcDbEntity
  8
0
  6
Continuous
370
    13
100
AcDbEllipse
 10
436.0703222016253
 20
29.13115388037751
 30
0.0
 11
7.928382332728319
 21
0.0
 31
0.0
210
0.0
220
0.0
230
1.0
 40
0.992490655958092
 41
5.870391545948018
 42
9.83757127079373
  0
ELLIPSE
  5
1BC
330
FD
100
AcDbEntity
  8
0
  6
Continuous
370
    13
100
AcDbEllipse
 10
443.9986993326071
 20
7.868847594675263
 30
0.0
 11
7.928382332728319
 21
0.0
 31
0.0
210
0.0
220
0.0
230
1.0
 40
0.992490655958092
 41
2.728799880000443
 42
6.695979068411154
  0
ELLIPSE
  5
1BD
330
FD
100
AcDbEntity
  8
0
  6
Continuous
370
    13
100
AcDbEllipse
 10
451.9274309480462
 20
29.13115388037751
 30
0.0
 11
7.928382332728319
 21
0.0
 31
0.0
210
0.0
220
0.0
230
1.0
 40
0.992490655958092
 41
5.870391545948018
 42
9.83757127079373
  0
ELLIPSE
  5
1BE
330
FD
100
AcDbEntity
  8
0
  6
Continuous
370
    13
100
AcDbEllipse
 10
459.855808079028
 20
7.868847594675263
 30
0.0
 11
7.928382332728319
 21
0.0
 31
0.0
210
0.0
220
0.0
230
1.0
 40
0.992490655958092
 41
2.728799880000443
 42
6.695979068411154
  0
ELLIPSE
  5
1BF
330
FD
100
AcDbEntity
  8
0
  6
Continuous
370
    13
100
AcDbEllipse
 10
467.784539694467
 20
29.13115388037751
 30
0.0
 11
7.928382332728319
 21
0.0
 31
0.0
210
0.0
220
0.0
230
1.0
 40
0.992490655958092
 41
5.870391545948018
 42
9.83757127079373
  0
ELLIPSE
  5
1C0
330
FD
100
AcDbEntity
  8
0
  6
Continuous
370
    13
100
AcDbEllipse
 10
475.7129168254489
 20
7.868847594675263
 30
0.0
 11
7.928382332728319
 21
0.0
 31
0.0
210
0.0
220
0.0
230
1.0
 40
0.992490655958092
 41
2.728799880000443
 42
6.695979068411154
  0
ELLIPSE
  5
1C1
330
FD
100
AcDbEntity
  8
0
  6
Continuous
370
    13
100
AcDbEllipse
 10
483.6416484408879
 20
29.13115388037751
 30
0.0
 11
7.928382332728319
 21
0.0
 31
0.0
210
0.0
220
0.0
230
1.0
 40
0.992490655958092
 41
5.870391545948018
 42
9.83757127079373
  0
ELLIPSE
  5
1C2
330
FD
100
AcDbEntity
  8
0
  6
Continuous
370
    13
100
AcDbEllipse
 10
491.5700255718697
 20
7.868847594675263
 30
0.0
 11
7.928382332728319
 21
0.0
 31
0.0
210
0.0
220
0.0
230
1.0
 40
0.992490655958092
 41
2.728799880000443
 42
6.695979068411154
  0
ELLIPSE
  5
1C3
330
FD
100
AcDbEntity
  8
0
  6
Continuous
370
    13
100
AcDbEllipse
 10
499.4987571873088
 20
29.13115388037751
 30
0.0
 11
7.928382332728319
 21
0.0
 31
0.0
210
0.0
220
0.0
230
1.0
 40
0.992490655958092
 41
5.870391545948018
 42
9.83757127079373
  0
ELLIPSE
  5
1C4
330
FD
100
AcDbEntity
  8
0
  6
Continuous
370
    13
100
AcDbEllipse
 10
507.4271343182907
 20
7.868847594675263
 30
0.0
 11
7.928382332728319
 21
0.0
 31
0.0
210
0.0
220
0.0
230
1.0
 40
0.992490655958092
 41
2.728799880000443
 42
6.695979068411157
  0
ELLIPSE
  5
1C5
330
FD
100
AcDbEntity
  8
0
  6
Continuous
370
    13
100
AcDbEllipse
 10
515.3558659337298
 20
29.13115388037751
 30
0.0
 11
7.928382332728319
 21
0.0
 31
0.0
210
0.0
220
0.0
230
1.0
 40
0.992490655958092
 41
5.870391545948015
 42
9.837571270793733
  0
ELLIPSE
  5
1C6
330
FD
100
AcDbEntity
  8
0
  6
Continuous
370
    13
100
AcDbEllipse
 10
523.2842430647115
 20
7.868847594675263
 30
0.0
 11
7.928382332728319
 21
0.0
 31
0.0
210
0.0
220
0.0
230
1.0
 40
0.992490655958092
 41
2.728799880000443
 42
6.695979068411152
  0
ELLIPSE
  5
1C7
330
FD
100
AcDbEntity
  8
0
  6
Continuous
370
    13
100
AcDbEllipse
 10
531.2129746801506
 20
29.13115388037751
 30
0.0
 11
7.928382332728319
 21
0.0
 31
0.0
210
0.0
220
0.0
230
1.0
 40
0.992490655958092
 41
5.870391545948015
 42
9.837571270793733
  0
ELLIPSE
  5
1C8
330
FD
100
AcDbEntity
  8
0
  6
Continuous
370
    13
100
AcDbEllipse
 10
539.1413518111324
 20
7.868847594675263
 30
0.0
 11
7.928382332728319
 21
0.0
 31
0.0
210
0.0
220
0.0
230
1.0
 40
0.992490655958092
 41
2.728799880000443
 42
6.695979068411152
  0
ELLIPSE
  5
1C9
330
FD
100
AcDbEntity
  8
0
  6
Continuous
370
    13
100
AcDbEllipse
 10
547.0700834265715
 20
29.13115388037751
 30
0.0
 11
7.928382332728319
 21
0.0
 31
0.0
210
0.0
220
0.0
230
1.0
 40
0.992490655958092
 41
5.870391545948015
 42
9.837571270793733
  0
ELLIPSE
  5
1CA
330
FD
100
AcDbEntity
  8
0
  6
Continuous
370
    13
100
AcDbEllipse
 10
554.9984605575534
 20
7.868847594675263
 30
0.0
 11
7.928382332728319
 21
0.0
 31
0.0
210
0.0
220
0.0
230
1.0
 40
0.992490655958092
 41
2.728799880000443
 42
6.695979068411152
  0
ELLIPSE
  5
1CB
330
FD
100
AcDbEntity
  8
0
  6
Continuous
370
    13
100
AcDbEllipse
 10
562.9271921729924
 20
29.13115388037751
 30
0.0
 11
7.928382332728319
 21
0.0
 31
0.0
210
0.0
220
0.0
230
1.0
 40
0.992490655958092
 41
5.870391545948015
 42
9.837571270793733
  0
ELLIPSE
  5
1CC
330
FD
100
AcDbEntity
  8
0
  6
Continuous
370
    13
100
AcDbEllipse
 10
570.8555693039742
 20
7.868847594675263
 30
0.0
 11
7.928382332728319
 21
0.0
 31
0.0
210
0.0
220
0.0
230
1.0
 40
0.992490655958092
 41
2.728799880000443
 42
6.695979068411152
  0
ELLIPSE
  5
1CD
330
FD
100
AcDbEntity
  8
0
  6
Continuous
370
    13
100
AcDbEllipse
 10
578.7843009194132
 20
29.13115388037751
 30
0.0
 11
7.928382332728319
 21
0.0
 31
0.0
210
0.0
220
0.0
230
1.0
 40
0.992490655958092
 41
5.870391545948015
 42
9.837571270793733
  0
ELLIPSE
  5
1CE
330
FD
100
AcDbEntity
  8
0
  6
Continuous
370
    13
100
AcDbEllipse
 10
586.7126780503951
 20
7.868847594675263
 30
0.0
 11
7.928382332728319
 21
0.0
 31
0.0
210
0.0
220
0.0
230
1.0
 40
0.992490655958092
 41
2.728799880000443
 42
6.695979068411152
  0
ELLIPSE
  5
1CF
330
FD
100
AcDbEntity
  8
0
  6
Continuous
370
    13
100
AcDbEllipse
 10
594.6414096658341
 20
29.13115388037751
 30
0.0
 11
7.928382332728319
 21
0.0
 31
0.0
210
0.0
220
0.0
230
1.0
 40
0.992490655958092
 41
5.870391545948015
 42
9.837571270793733
  0
ELLIPSE
  5
1D0
330
FD
100
AcDbEntity
  8
0
  6
Continuous
370
    13
100
AcDbEllipse
 10
602.569786796816
 20
7.868847594675263
 30
0.0
 11
7.928382332728319
 21
0.0
 31
0.0
210
0.0
220
0.0
230
1.0
 40
0.992490655958092
 41
2.728799880000443
 42
6.695979068411152
  0
ELLIPSE
  5
1D1
330
FD
100
AcDbEntity
  8
0
  6
Continuous
370
    13
100
AcDbEllipse
 10
610.498518412255
 20
29.13115388037751
 30
0.0
 11
7.928382332728319
 21
0.0
 31
0.0
210
0.0
220
0.0
230
1.0
 40
0.992490655958092
 41
5.870391545948015
 42
9.837571270793733
  0
ELLIPSE
  5
1D2
330
FD
100
AcDbEntity
  8
0
  6
Continuous
370
    13
100
AcDbEllipse
 10
618.4268955432368
 20
7.868847594675263
 30
0.0
 11
7.928382332728319
 21
0.0
 31
0.0
210
0.0
220
0.0
230
1.0
 40
0.992490655958092
 41
2.728799880000443
 42
6.695979068411152
  0
ELLIPSE
  5
1D3
330
FD
100
AcDbEntity
  8
0
  6
Continuous
370
    13
100
AcDbEllipse
 10
626.3556271586759
 20
29.13115388037751
 30
0.0
 11
7.928382332728319
 21
0.0
 31
0.0
210
0.0
220
0.0
230
1.0
 40
0.992490655958092
 41
5.870391545948015
 42
9.837571270793733
  0
ELLIPSE
  5
1D4
330
FD
100
AcDbEntity
  8
0
  6
Continuous
370
    13
100
AcDbEllipse
 10
634.2840042896577
 20
7.868847594675263
 30
0.0
 11
7.928382332728319
 21
0.0
 31
0.0
210
0.0
220
0.0
230
1.0
 40
0.992490655958092
 41
2.728799880000443
 42
6.695979068411152
  0
ELLIPSE
  5
1D5
330
FD
100
AcDbEntity
  8
0
  6
Continuous
370
    13
100
AcDbEllipse
 10
642.2127359050968
 20
29.13115388037751
 30
0.0
 11
7.928382332728319
 21
0.0
 31
0.0
210
0.0
220
0.0
230
1.0
 40
0.992490655958092
 41
5.870391545948015
 42
9.837571270793733
  0
ELLIPSE
  5
1D6
330
FD
100
AcDbEntity
  8
0
  6
Continuous
370
    13
100
AcDbEllipse
 10
650.1411130360785
 20
7.868847594675263
 30
0.0
 11
7.928382332728319
 21
0.0
 31
0.0
210
0.0
220
0.0
230
1.0
 40
0.992490655958092
 41
2.728799880000443
 42
6.695979068411152
  0
ELLIPSE
  5
1D7
330
FD
100
AcDbEntity
  8
0
  6
Continuous
370
    13
100
AcDbEllipse
 10
658.0698446515177
 20
29.13115388037751
 30
0.0
 11
7.928382332728319
 21
0.0
 31
0.0
210
0.0
220
0.0
230
1.0
 40
0.992490655958092
 41
5.870391545948015
 42
9.837571270793733
  0
ELLIPSE
  5
1D8
330
FD
100
AcDbEntity
  8
0
  6
Continuous
370
    13
100
AcDbEllipse
 10
665.9982217824994
 20
7.868847594675263
 30
0.0
 11
7.928382332728319
 21
0.0
 31
0.0
210
0.0
220
0.0
230
1.0
 40
0.992490655958092
 41
2.728799880000443
 42
6.695979068411152
  0
ELLIPSE
  5
1D9
330
FD
100
AcDbEntity
  8
0
  6
Continuous
370
    13
100
AcDbEllipse
 10
673.9269533979385
 20
29.13115388037751
 30
0.0
 11
7.928382332728319
 21
0.0
 31
0.0
210
0.0
220
0.0
230
1.0
 40
0.992490655958092
 41
5.870391545948015
 42
9.837571270793733
  0
ELLIPSE
  5
1DA
330
FD
100
AcDbEntity
  8
0
  6
Continuous
370
    13
100
AcDbEllipse
 10
681.8553305289204
 20
7.868847594675263
 30
0.0
 11
7.928382332728319
 21
0.0
 31
0.0
210
0.0
220
0.0
230
1.0
 40
0.992490655958092
 41
2.728799880000443
 42
6.695979068411152
  0
ELLIPSE
  5
1DB
330
FD
100
AcDbEntity
  8
0
  6
Continuous
370
    13
100
AcDbEllipse
 10
689.7840621443594
 20
29.13115388037751
 30
0.0
 11
7.928382332728319
 21
0.0
 31
0.0
210
0.0
220
0.0
230
1.0
 40
0.992490655958092
 41
5.870391545948015
 42
9.837571270793733
  0
ELLIPSE
  5
1DC
330
FD
100
AcDbEntity
  8
0
  6
Continuous
370
    13
100
AcDbEllipse
 10
697.7124392753412
 20
7.868847594675263
 30
0.0
 11
7.928382332728319
 21
0.0
 31
0.0
210
0.0
220
0.0
230
1.0
 40
0.992490655958092
 41
2.728799880000443
 42
6.695979068411152
  0
ELLIPSE
  5
1DD
330
FD
100
AcDbEntity
  8
0
  6
Continuous
370
    13
100
AcDbEllipse
 10
705.6411708907802
 20
29.13115388037751
 30
0.0
 11
7.928382332728319
 21
0.0
 31
0.0
210
0.0
220
0.0
230
1.0
 40
0.992490655958092
 41
5.870391545948015
 42
9.837571270793733
  0
ELLIPSE
  5
1DE
330
FD
100
AcDbEntity
  8
0
  6
Continuous
370
    13
100
AcDbEllipse
 10
713.5695480217621
 20
7.868847594675263
 30
0.0
 11
7.928382332728319
 21
0.0
 31
0.0
210
0.0
220
0.0
230
1.0
 40
0.992490655958092
 41
2.728799880000443
 42
6.695979068411152
  0
ELLIPSE
  5
1DF
330
FD
100
AcDbEntity
  8
0
  6
Continuous
370
    13
100
AcDbEllipse
 10
721.4982796372011
 20
29.13115388037751
 30
0.0
 11
7.928382332728319
 21
0.0
 31
0.0
210
0.0
220
0.0
230
1.0
 40
0.992490655958092
 41
5.870391545948015
 42
9.837571270793733
  0
ELLIPSE
  5
1E0
330
FD
100
AcDbEntity
  8
0
  6
Continuous
370
    13
100
AcDbEllipse
 10
729.426656768183
 20
7.868847594675263
 30
0.0
 11
7.928382332728319
 21
0.0
 31
0.0
210
0.0
220
0.0
230
1.0
 40
0.992490655958092
 41
2.728799880000443
 42
6.695979068411152
  0
ELLIPSE
  5
1E1
330
FD
100
AcDbEntity
  8
0
  6
Continuous
370
    13
100
AcDbEllipse
 10
737.355388383622
 20
29.13115388037751
 30
0.0
 11
7.928382332728319
 21
0.0
 31
0.0
210
0.0
220
0.0
230
1.0
 40
0.992490655958092
 41
5.870391545948015
 42
9.837571270793733
  0
ELLIPSE
  5
1E2
330
FD
100
AcDbEntity
  8
0
  6
Continuous
370
    13
100
AcDbEllipse
 10
745.2837655146038
 20
7.868847594675263
 30
0.0
 11
7.928382332728319
 21
0.0
 31
0.0
210
0.0
220
0.0
230
1.0
 40
0.992490655958092
 41
2.728799880000443
 42
6.695979068411152
  0
ELLIPSE
  5
1E3
330
FD
100
AcDbEntity
  8
0
  6
Continuous
370
    13
100
AcDbEllipse
 10
753.212497130043
 20
29.13115388037751
 30
0.0
 11
7.928382332728319
 21
0.0
 31
0.0
210
0.0
220
0.0
230
1.0
 40
0.992490655958092
 41
5.870391545948015
 42
9.837571270793733
  0
ELLIPSE
  5
1E4
330
FD
100
AcDbEntity
  8
0
  6
Continuous
370
    13
100
AcDbEllipse
 10
761.1408742610247
 20
7.868847594675263
 30
0.0
 11
7.928382332728319
 21
0.0
 31
0.0
210
0.0
220
0.0
230
1.0
 40
0.992490655958092
 41
2.728799880000443
 42
6.695979068411152
  0
ELLIPSE
  5
1E5
330
FD
100
AcDbEntity
  8
0
  6
Continuous
370
    13
100
AcDbEllipse
 10
769.0696058764638
 20
29.13115388037751
 30
0.0
 11
7.928382332728319
 21
0.0
 31
0.0
210
0.0
220
0.0
230
1.0
 40
0.992490655958092
 41
5.870391545948015
 42
9.837571270793733
  0
ELLIPSE
  5
1E6
330
FD
100
AcDbEntity
  8
0
  6
Continuous
370
    13
100
AcDbEllipse
 10
776.9979830074456
 20
7.868847594675263
 30
0.0
 11
7.928382332728319
 21
0.0
 31
0.0
210
0.0
220
0.0
230
1.0
 40
0.992490655958092
 41
2.728799880000443
 42
6.695979068411152
  0
ELLIPSE
  5
1E7
330
FD
100
AcDbEntity
  8
0
  6
Continuous
370
    13
100
AcDbEllipse
 10
784.9267146228847
 20
29.13115388037751
 30
0.0
 11
7.928382332728319
 21
0.0
 31
0.0
210
0.0
220
0.0
230
1.0
 40
0.992490655958092
 41
5.870391545948015
 42
9.837571270793733
  0
ELLIPSE
  5
1E8
330
FD
100
AcDbEntity
  8
0
  6
Continuous
370
    13
100
AcDbEllipse
 10
792.8550917538665
 20
7.868847594675263
 30
0.0
 11
7.928382332728319
 21
0.0
 31
0.0
210
0.0
220
0.0
230
1.0
 40
0.992490655958092
 41
2.728799880000443
 42
6.695979068411152
  0
ELLIPSE
  5
1E9
330
FD
100
AcDbEntity
  8
0
  6
Continuous
370
    13
100
AcDbEllipse
 10
800.7838233693055
 20
29.13115388037751
 30
0.0
 11
7.928382332728319
 21
0.0
 31
0.0
210
0.0
220
0.0
230
1.0
 40
0.992490655958092
 41
5.870391545948015
 42
9.837571270793733
  0
ELLIPSE
  5
1EA
330
FD
100
AcDbEntity
  8
0
  6
Continuous
370
    13
100
AcDbEllipse
 10
808.7122005002874
 20
7.868847594675263
 30
0.0
 11
7.928382332728319
 21
0.0
 31
0.0
210
0.0
220
0.0
230
1.0
 40
0.992490655958092
 41
2.728799880000443
 42
6.695979068411152
  0
ELLIPSE
  5
1EB
330
FD
100
AcDbEntity
  8
0
  6
Continuous
370
    13
100
AcDbEllipse
 10
816.6409321157264
 20
29.13115388037751
 30
0.0
 11
7.928382332728319
 21
0.0
 31
0.0
210
0.0
220
0.0
230
1.0
 40
0.992490655958092
 41
5.870391545948015
 42
9.837571270793733
  0
ELLIPSE
  5
1EC
330
FD
100
AcDbEntity
  8
0
  6
Continuous
370
    13
100
AcDbEllipse
 10
824.5693092467083
 20
7.868847594675263
 30
0.0
 11
7.928382332728319
 21
0.0
 31
0.0
210
0.0
220
0.0
230
1.0
 40
0.992490655958092
 41
2.728799880000443
 42
6.695979068411152
  0
ELLIPSE
  5
1ED
330
FD
100
AcDbEntity
  8
0
  6
Continuous
370
    13
100
AcDbEllipse
 10
832.4980408621473
 20
29.13115388037751
 30
0.0
 11
7.928382332728319
 21
0.0
 31
0.0
210
0.0
220
0.0
230
1.0
 40
0.992490655958092
 41
5.870391545948015
 42
9.837571270793733
  0
ELLIPSE
  5
1EE
330
FD
100
AcDbEntity
  8
0
  6
Continuous
370
    13
100
AcDbEllipse
 10
840.4264179931291
 20
7.868847594675263
 30
0.0
 11
7.928382332728319
 21
0.0
 31
0.0
210
0.0
220
0.0
230
1.0
 40
0.992490655958092
 41
2.728799880000443
 42
6.695979068411152
  0
ELLIPSE
  5
1EF
330
FD
100
AcDbEntity
  8
0
  6
Continuous
370
    13
100
AcDbEllipse
 10
848.3551496085681
 20
29.13115388037751
 30
0.0
 11
7.928382332728319
 21
0.0
 31
0.0
210
0.0
220
0.0
230
1.0
 40
0.992490655958092
 41
5.870391545948015
 42
9.837571270793733
  0
ELLIPSE
  5
1F0
330
FD
100
AcDbEntity
  8
0
  6
Continuous
370
    13
100
AcDbEllipse
 10
856.28352673955
 20
7.868847594675263
 30
0.0
 11
7.928382332728319
 21
0.0
 31
0.0
210
0.0
220
0.0
230
1.0
 40
0.992490655958092
 41
2.728799880000443
 42
6.695979068411152
  0
ELLIPSE
  5
1F1
330
FD
100
AcDbEntity
  8
0
  6
Continuous
370
    13
100
AcDbEllipse
 10
864.2122583549891
 20
29.13115388037751
 30
0.0
 11
7.928382332728319
 21
0.0
 31
0.0
210
0.0
220
0.0
230
1.0
 40
0.992490655958092
 41
5.870391545948015
 42
9.837571270793733
  0
ELLIPSE
  5
1F2
330
FD
100
AcDbEntity
  8
0
  6
Continuous
370
    13
100
AcDbEllipse
 10
872.1406354859708
 20
7.868847594675263
 30
0.0
 11
7.928382332728319
 21
0.0
 31
0.0
210
0.0
220
0.0
230
1.0
 40
0.992490655958092
 41
2.728799880000443
 42
6.695979068411152
  0
ELLIPSE
  5
1F3
330
FD
100
AcDbEntity
  8
0
  6
Continuous
370
    13
100
AcDbEllipse
 10
880.06936710141
 20
29.13115388037751
 30
0.0
 11
7.928382332728319
 21
0.0
 31
0.0
210
0.0
220
0.0
230
1.0
 40
0.992490655958092
 41
5.870391545948015
 42
9.837571270793733
  0
ELLIPSE
  5
1F4
330
FD
100
AcDbEntity
  8
0
  6
Continuous
370
    13
100
AcDbEllipse
 10
887.9977442323917
 20
7.868847594675263
 30
0.0
 11
7.928382332728319
 21
0.0
 31
0.0
210
0.0
220
0.0
230
1.0
 40
0.992490655958092
 41
2.728799880000443
 42
6.695979068411152
  0
ELLIPSE
  5
1F5
330
FD
100
AcDbEntity
  8
0
  6
Continuous
370
    13
100
AcDbEllipse
 10
895.9264758478308
 20
29.13115388037751
 30
0.0
 11
7.928382332728319
 21
0.0
 31
0.0
210
0.0
220
0.0
230
1.0
 40
0.992490655958092
 41
5.870391545948015
 42
9.837571270793733
  0
ELLIPSE
  5
1F6
330
FD
100
AcDbEntity
  8
0
  6
Continuous
370
    13
100
AcDbEllipse
 10
903.8548529788126
 20
7.868847594675263
 30
0.0
 11
7.928382332728319
 21
0.0
 31
0.0
210
0.0
220
0.0
230
1.0
 40
0.992490655958092
 41
2.728799880000443
 42
6.695979068411152
  0
ELLIPSE
  5
1F7
330
FD
100
AcDbEntity
  8
0
  6
Continuous
370
    13
100
AcDbEllipse
 10
911.7835845942517
 20
29.13115388037751
 30
0.0
 11
7.928382332728319
 21
0.0
 31
0.0
210
0.0
220
0.0
230
1.0
 40
0.992490655958092
 41
5.870391545948015
 42
9.837571270793733
  0
ELLIPSE
  5
1F8
330
FD
100
AcDbEntity
  8
0
  6
Continuous
370
    13
100
AcDbEllipse
 10
919.7119617252336
 20
7.868847594675263
 30
0.0
 11
7.928382332728319
 21
0.0
 31
0.0
210
0.0
220
0.0
230
1.0
 40
0.992490655958092
 41
2.728799880000443
 42
6.695979068411152
  0
ELLIPSE
  5
1F9
330
FD
100
AcDbEntity
  8
0
  6
Continuous
370
    13
100
AcDbEllipse
 10
927.6406933406726
 20
29.13115388037751
 30
0.0
 11
7.928382332728319
 21
0.0
 31
0.0
210
0.0
220
0.0
230
1.0
 40
0.992490655958092
 41
5.870391545948015
 42
9.837571270793733
  0
ELLIPSE
  5
1FA
330
FD
100
AcDbEntity
  8
0
  6
Continuous
370
    13
100
AcDbEllipse
 10
935.5690704716544
 20
7.868847594675263
 30
0.0
 11
7.928382332728319
 21
0.0
 31
0.0
210
0.0
220
0.0
230
1.0
 40
0.992490655958092
 41
2.728799880000443
 42
6.695979068411152
  0
ELLIPSE
  5
1FB
330
FD
100
AcDbEntity
  8
0
  6
Continuous
370
    13
100
AcDbEllipse
 10
943.4978020870934
 20
29.13115388037751
 30
0.0
 11
7.928382332728319
 21
0.0
 31
0.0
210
0.0
220
0.0
230
1.0
 40
0.992490655958092
 41
5.870391545948015
 42
9.837571270793733
  0
ELLIPSE
  5
1FC
330
FD
100
AcDbEntity
  8
0
  6
Continuous
370
    13
100
AcDbEllipse
 10
951.4261792180753
 20
7.868847594675263
 30
0.0
 11
7.928382332728319
 21
0.0
 31
0.0
210
0.0
220
0.0
230
1.0
 40
0.992490655958092
 41
2.728799880000443
 42
6.695979068411152
  0
ELLIPSE
  5
1FD
330
FD
100
AcDbEntity
  8
0
  6
Continuous
370
    13
100
AcDbEllipse
 10
959.3549108335143
 20
29.13115388037751
 30
0.0
 11
7.928382332728319
 21
0.0
 31
0.0
210
0.0
220
0.0
230
1.0
 40
0.992490655958092
 41
5.870391545948015
 42
9.837571270793733
  0
ELLIPSE
  5
1FE
330
FD
100
AcDbEntity
  8
0
  6
Continuous
370
    13
100
AcDbEllipse
 10
967.2832879644961
 20
7.868847594675263
 30
0.0
 11
7.928382332728319
 21
0.0
 31
0.0
210
0.0
220
0.0
230
1.0
 40
0.992490655958092
 41
2.728799880000443
 42
6.695979068411152
  0
ELLIPSE
  5
1FF
330
FD
100
AcDbEntity
  8
0
  6
Continuous
370
    13
100
AcDbEllipse
 10
975.2120195799351
 20
29.13115388037751
 30
0.0
 11
7.928382332728319
 21
0.0
 31
0.0
210
0.0
220
0.0
230
1.0
 40
0.992490655958092
 41
5.870391545948015
 42
9.837571270793733
  0
ELLIPSE
  5
200
330
FD
100
AcDbEntity
  8
0
  6
Continuous
370
    13
100
AcDbEllipse
 10
983.140396710917
 20
7.868847594675263
 30
0.0
 11
7.928382332728319
 21
0.0
 31
0.0
210
0.0
220
0.0
230
1.0
 40
0.992490655958092
 41
2.728799880000443
 42
6.695979068411152
  0
ELLIPSE
  5
201
330
FD
100
AcDbEntity
  8
0
  6
Continuous
370
    13
100
AcDbEllipse
 10
991.0691283263561
 20
29.13115388037751
 30
0.0
 11
7.928382332728319
 21
0.0
 31
0.0
210
0.0
220
0.0
230
1.0
 40
0.992490655958092
 41
5.870391545948015
 42
9.837571270793733
  0
ELLIPSE
  5
202
330
FD
100
AcDbEntity
  8
0
  6
Continuous
370
    13
100
AcDbEllipse
 10
998.9975054573379
 20
7.868847594675263
 30
0.0
 11
7.928382332728319
 21
0.0
 31
0.0
210
0.0
220
0.0
230
1.0
 40
0.992490655958092
 41
2.728799880000443
 42
6.695979068411157
  0
ELLIPSE
  5
203
330
FD
100
AcDbEntity
  8
0
  6
Continuous
370
    13
100
AcDbEllipse
 10
1006.926237072777
 20
29.13115388037751
 30
0.0
 11
7.928382332728319
 21
0.0
 31
0.0
210
0.0
220
0.0
230
1.0
 40
0.992490655958092
 41
5.870391545948015
 42
9.837571270793733
  0
ELLIPSE
  5
204
330
FD
100
AcDbEntity
  8
0
  6
Continuous
370
    13
100
AcDbEllipse
 10
1014.854614203759
 20
7.868847594675263
 30
0.0
 11
7.928382332728319
 21
0.0
 31
0.0
210
0.0
220
0.0
230
1.0
 40
0.992490655958092
 41
2.728799880000449
 42
6.695979068411157
  0
ELLIPSE
  5
205
330
FD
100
AcDbEntity
  8
0
  6
Continuous
370
    13
100
AcDbEllipse
 10
1022.783345819198
 20
29.13115388037751
 30
0.0
 11
7.928382332728319
 21
0.0
 31
0.0
210
0.0
220
0.0
230
1.0
 40
0.992490655958092
 41
5.870391545948015
 42
9.837571270793728
  0
ELLIPSE
  5
206
330
FD
100
AcDbEntity
  8
0
  6
Continuous
370
    13
100
AcDbEllipse
 10
1030.71172295018
 20
7.868847594675263
 30
0.0
 11
7.928382332728319
 21
0.0
 31
0.0
210
0.0
220
0.0
230
1.0
 40
0.992490655958092
 41
2.728799880000449
 42
6.695979068411157
  0
ELLIPSE
  5
207
330
FD
100
AcDbEntity
  8
0
  6
Continuous
370
    13
100
AcDbEllipse
 10
1038.640454565619
 20
29.13115388037751
 30
0.0
 11
7.928382332728319
 21
0.0
 31
0.0
210
0.0
220
0.0
230
1.0
 40
0.992490655958092
 41
5.870391545948015
 42
9.837571270793728
  0
ELLIPSE
  5
208
330
FD
100
AcDbEntity
  8
0
  6
Continuous
370
    13
100
AcDbEllipse
 10
1046.568831696601
 20
7.868847594675263
 30
0.0
 11
7.928382332728319
 21
0.0
 31
0.0
210
0.0
220
0.0
230
1.0
 40
0.992490655958092
 41
2.728799880000449
 42
4.71238898038469
  0
ENDBLK
  5
FF
330
FD
100
AcDbEntity
  8
0
100
AcDbBlockEnd
  0
BLOCK
  5
20B
330
20A
100
AcDbEntity
  8
0
100
AcDbBlockBegin
  2
Sygnał termostatu 12
 70
     2
 10
0.0
 20
0.0
 30
0.0
  3
Sygnał termostatu 12
  1

  0
CIRCLE
  5
20D
330
20A
100
AcDbEntity
  8
@__WIDOCZNE
  6
Continuous
370
    13
100
AcDbCircle
 10
0.0
 20
0.0
 30
0.0
 40
60.0
  0
ATTDEF
  5
20F
330
20A
100
AcDbEntity
  8
@__WIDOCZNE
370
    13
100
AcDbText
 10
-48.18750000000005
 20
-28.12138571428574
 30
0.0
 40
63.5
  1
01
  7
GENERATED_STYLE_1
 11
-48.18750000000005
 21
-46.88861227678574
 31
0.0
100
AcDbAttributeDefinition
  3
Tekst
  2
txt
 70
     0
 74
     1
  0
ENDBLK
  5
20C
330
20A
100
AcDbEntity
  8
0
100
AcDbBlockEnd
  0
BLOCK
  5
214
330
213
100
AcDbEntity
  8
0
100
AcDbBlockBegin
  2
Sygnał termostatu 12_2
 70
     2
 10
0.0
 20
0.0
 30
0.0
  3
Sygnał termostatu 12_2
  1

  0
CIRCLE
  5
216
330
213
100
AcDbEntity
  8
@__WIDOCZNE
  6
Continuous
370
    13
100
AcDbCircle
 10
0.0
 20
0.0
 30
0.0
 40
60.0
  0
ATTDEF
  5
217
330
213
100
AcDbEntity
  8
@__WIDOCZNE
370
    13
100
AcDbText
 10
-48.18750000000005
 20
-28.12138571428574
 30
0.0
 40
63.5
  1
02
  7
GENERATED_STYLE_1
 11
-48.18750000000005
 21
-46.88861227678574
 31
0.0
100
AcDbAttributeDefinition
  3
Tekst
  2
txt
 70
     0
 74
     1
  0
ENDBLK
  5
215
330
213
100
AcDbEntity
  8
0
100
AcDbBlockEnd
  0
BLOCK
  5
21C
330
21B
100
AcDbEntity
  8
0
100
AcDbBlockBegin
  2
Sygnał termostatu 12_3
 70
     2
 10
0.0
 20
0.0
 30
0.0
  3
Sygnał termostatu 12_3
  1

  0
CIRCLE
  5
21E
330
21B
100
AcDbEntity
  8
@__WIDOCZNE
  6
Continuous
370
    13
100
AcDbCircle
 10
0.0
 20
0.0
 30
0.0
 40
60.0
  0
ATTDEF
  5
21F
330
21B
100
AcDbEntity
  8
@__WIDOCZNE
370
    13
100
AcDbText
 10
-48.18750000000005
 20
-28.12138571428574
 30
0.0
 40
63.5
  1
03
  7
GENERATED_STYLE_1
 11
-48.18750000000005
 21
-46.88861227678574
 31
0.0
100
AcDbAttributeDefinition
  3
Tekst
  2
txt
 70
     0
 74
     1
  0
ENDBLK
  5
21D
330
21B
100
AcDbEntity
  8
0
100
AcDbBlockEnd
  0
BLOCK
  5
224
330
223
100
AcDbEntity
  8
0
100
AcDbBlockBegin
  2
Sygnał termostatu 12_4
 70
     2
 10
0.0
 20
0.0
 30
0.0
  3
Sygnał termostatu 12_4
  1

  0
CIRCLE
  5
226
330
223
100
AcDbEntity
  8
@__WIDOCZNE
  6
Continuous
370
    13
100
AcDbCircle
 10
0.0
 20
0.0
 30
0.0
 40
60.0
  0
ATTDEF
  5
227
330
223
100
AcDbEntity
  8
@__WIDOCZNE
370
    13
100
AcDbText
 10
-48.18750000000005
 20
-28.12138571428574
 30
0.0
 40
63.5
  1
04
  7
GENERATED_STYLE_1
 11
-48.18750000000005
 21
-46.88861227678574
 31
0.0
100
AcDbAttributeDefinition
  3
Tekst
  2
txt
 70
     0
 74
     1
  0
ENDBLK
  5
225
330
223
100
AcDbEntity
  8
0
100
AcDbBlockEnd
  0
BLOCK
  5
22C
330
22B
100
AcDbEntity
  8
0
100
AcDbBlockBegin
  2
Sygnał termostatu 12_5
 70
     2
 10
0.0
 20
0.0
 30
0.0
  3
Sygnał termostatu 12_5
  1

  0
CIRCLE
  5
22E
330
22B
100
AcDbEntity
  8
@__WIDOCZNE
  6
Continuous
370
    13
100
AcDbCircle
 10
0.0
 20
0.0
 30
0.0
 40
60.0
  0
ATTDEF
  5
22F
330
22B
100
AcDbEntity
  8
@__WIDOCZNE
370
    13
100
AcDbText
 10
-48.18750000000005
 20
-28.12138571428574
 30
0.0
 40
63.5
  1
05
  7
GENERATED_STYLE_1
 11
-48.18750000000005
 21
-46.88861227678574
 31
0.0
100
AcDbAttributeDefinition
  3
Tekst
  2
txt
 70
     0
 74
     1
  0
ENDBLK
  5
22D
330
22B
100
AcDbEntity
  8
0
100
AcDbBlockEnd
  0
BLOCK
  5
3F9
330
3F8
100
AcDbEntity
  8
0
100
AcDbBlockBegin
  2
Bez nazwy_STORY_MARKER
 70
     0
 10
0.0
 20
0.0
 30
0.0
  3
Bez nazwy_STORY_MARKER
  1

  0
ENDBLK
  5
3FA
330
3F8
100
AcDbEntity
  8
0
100
AcDbBlockEnd
  0
BLOCK
  5
3FC
330
3FB
100
AcDbEntity
  8
0
100
AcDbBlockBegin
  2
Rysunek_1
 70
     0
 10
0.0
 20
0.0
 30
0.0
  3
Rysunek_1
  1

  0
ENDBLK
  5
3FD
330
3FB
100
AcDbEntity
  8
0
100
AcDbBlockEnd
  0
BLOCK
  5
406
330
405
100
AcDbEntity
  8
0
100
AcDbBlockBegin
  2
02.04.2-20 \U+FF8CCIANA+PIWICA 08.01._STORY_MARKER
 70
     0
 10
0.0
 20
0.0
 30
0.0
  3
02.04.2-20 \U+FF8CCIANA+PIWICA 08.01._STORY_MARKER
  1

  0
ENDBLK
  5
407
330
405
100
AcDbEntity
  8
0
100
AcDbBlockEnd
  0
ENDSEC
  0
SECTION
  2
ENTITIES
  0
HATCH
  5
5E
330
1F
100
AcDbEntity
  8
0
  6
Continuous
370
    13
100
AcDbHatch
 10
0.0
 20
0.0
 30
0.0
210
0.0
220
0.0
230
1.0
  2
SOLID
 70
     1
 71
     0
 91
        1
 92
        2
 72
     0
 73
     1
 93
       20
 10
-4108.137291971802
 20
104.4964427370623
 10
-4101.934766201363
 20
106.3318546917502
 10
-4095.72481276703
 20
107.2996209025785
 10
-4086.554214057152
 20
107.5431006793819
 10
-4078.141095521307
 20
106.5695311716341
 10
-4071.558356021981
 20
104.7913054288339
 10
-4065.841999450281
 20
102.4888581085268
 10
-4062.785162779976
 20
99.02166397995327
 10
-4061.617091954856
 20
95.571497547851
 10
-4063.628810232576
 20
91.0788530884763
 10
-4067.820502814729
 20
87.99664013510666
 10
-4076.857091325751
 20
84.83762401347117
 10
-4085.11362098476
 20
83.68167238333335
 10
-4094.389532690775
 20
83.72476743190794
 10
-4102.674371547746
 20
84.97752143267378
 10
-4108.344218359632
 20
86.72834652996153
 10
-4115.671909378323
 20
91.52004970747329
 10
-4117.296184171762
 20
95.571497547851
 10
-4116.128913230011
 20
99.02050776244175
 10
-4113.659888149684
 20
101.5195285575128
 97
        0
 75
     0
 76
     1
 98
        0
  0
HATCH
  5
5F
330
1F
100
AcDbEntity
  8
0
  6
Continuous
370
    13
100
AcDbHatch
 10
0.0
 20
0.0
 30
0.0
210
0.0
220
0.0
230
1.0
  2
A_kratka_gesto_0002
 70
     0
 71
     0
 91
        1
 92
        2
 72
     0
 73
     1
 93
        7
 10
-2705.456638063307
 20
2617.662772220635
 10
-2725.456638063305
 20
2617.662772220635
 10
-2773.737363459494
 20
2569.382046824447
 10
-2759.595227835764
 20
2555.239911200717
 10
-2725.456638063306
 20
2589.378500973172
 10
-2725.456638063306
 20
2547.925322514236
 10
-2705.456638063307
 20
2547.925322514236
 97
        0
 75
     0
 76
     2
 52
0.0
 41
1.0
 77
     0
 78
     2
 53
45.0
 43
0.0
 44
0.0
 45
-7.071067811865475
 46
7.071067811865476
 79
     0
 53
135.0
 43
0.0
 44
0.0
 45
7.071067811865473
 46
7.071067811865477
 79
     0
 98
        0
  0
HATCH
  5
60
330
1F
100
AcDbEntity
  8
0
  6
Continuous
370
    13
100
AcDbHatch
 10
0.0
 20
0.0
 30
0.0
210
0.0
220
0.0
230
1.0
  2
Beton_zbrojony_kopia_0002
 70
     0
 71
     0
 91
        1
 92
        2
 72
     0
 73
     1
 93
        4
 10
-4299.456638063308
 20
95.571497547851
 10
-4299.456638063308
 20
673.4691530345905
 10
-3879.456638063308
 20
673.4691530345904
 10
-3879.456638063308
 20
95.571497547851
 97
        0
 75
     0
 76
     2
 52
0.0
 41
1.0
 77
     0
 78
     2
 53
44.99999999999999
 43
0.0
 44
0.0
 45
-36.76955127300131
 46
36.76955127300132
 79
     0
 53
44.99999999999999
 43
-18.38477563650066
 44
18.38477563650066
 45
-36.76955127300131
 46
36.76955127300132
 79
     2
 49
38.99999856948853
 49
-12.99999952316284
 98
        0
  0
HATCH
  5
61
330
1F
100
AcDbEntity
  8
0
  6
Continuous
370
    13
100
AcDbHatch
 10
0.0
 20
0.0
 30
0.0
210
0.0
220
0.0
230
1.0
  2
A_kratka_gesto_0002
 70
     0
 71
     0
 91
        1
 92
        2
 72
     0
 73
     1
 93
        8
 10
-2705.456638063307
 20
2527.925322514236
 10
-2725.456638063306
 20
2527.925322514236
 10
-2725.456638063306
 20
2469.378500973173
 10
-2750.456638063305
 20
2469.378500973173
 10
-2750.456638063305
 20
2449.378500973173
 10
-2685.456638063309
 20
2449.378500973173
 10
-2685.456638063309
 20
2469.378500973173
 10
-2705.456638063307
 20
2469.378500973173
 97
        0
 75
     0
 76
     2
 52
0.0
 41
1.0
 77
     0
 78
     2
 53
45.0
 43
0.0
 44
0.0
 45
-7.071067811865475
 46
7.071067811865476
 79
     0
 53
135.0
 43
0.0
 44
0.0
 45
7.071067811865473
 46
7.071067811865477
 79
     0
 98
        0
  0
HATCH
  5
62
330
1F
100
AcDbEntity
  8
0
  6
Continuous
370
    13
100
AcDbHatch
 10
0.0
 20
0.0
 30
0.0
210
0.0
220
0.0
230
1.0
  2
Beton_0002
 70
     0
 71
     0
 91
        1
 92
        2
 72
     0
 73
     1
 93
        4
 10
-4543.456638063308
 20
2118.925322514235
 10
-4543.456638063308
 20
2148.925322514235
 10
-5590.025815327086
 20
2148.925322514235
 10
-5590.025815327086
 20
2118.925322514235
 97
        0
 75
     0
 76
     2
 52
0.0
 41
1.0
 77
     0
 78
     2
 53
44.99999999999999
 43
0.0
 44
0.0
 45
-36.76955127300131
 46
36.76955127300132
 79
     2
 49
38.99999856948853
 49
-12.99999952316284
 53
44.99999999999999
 43
0.0000000000000036
 44
36.76955127300131
 45
-36.76955127300131
 46
36.76955127300132
 79
     2
 49
38.99999856948853
 49
-12.99999952316284
 98
        0
  0
HATCH
  5
63
330
1F
100
AcDbEntity
  8
0
  6
Continuous
370
    13
100
AcDbHatch
 10
0.0
 20
0.0
 30
0.0
210
0.0
220
0.0
230
1.0
  2
Beton_zbrojony_kopia_0002
 70
     0
 71
     0
 91
        1
 92
        2
 72
     0
 73
     1
 93
        4
 10
-5590.025815327086
 20
1895.925322514235
 10
-5590.025815327086
 20
2065.925322514235
 10
-4543.456638063308
 20
2065.925322514235
 10
-4543.456638063308
 20
1895.925322514235
 97
        0
 75
     0
 76
     2
 52
0.0
 41
1.0
 77
     0
 78
     2
 53
44.99999999999999
 43
0.0
 44
0.0
 45
-36.76955127300131
 46
36.76955127300132
 79
     0
 53
44.99999999999999
 43
-18.38477563650066
 44
18.38477563650066
 45
-36.76955127300131
 46
36.76955127300132
 79
     2
 49
38.99999856948853
 49
-12.99999952316284
 98
        0
  0
HATCH
  5
64
330
1F
100
AcDbEntity
  8
0
  6
Continuous
370
    13
100
AcDbHatch
 10
0.0
 20
0.0
 30
0.0
210
0.0
220
0.0
230
1.0
  2
Beton_zbrojony_kopia_0002
 70
     0
 71
     0
 91
        1
 92
        2
 72
     0
 73
     1
 93
       16
 10
-4523.456638063309
 20
1887.925322514235
 10
-4673.456638063309
 20
1887.925322514235
 10
-4673.456638063309
 20
1737.925322514235
 10
-4299.456638063308
 20
1363.925322514235
 10
-4299.456638063308
 20
713.4691530345905
 10
-3879.456638063308
 20
713.4691530345902
 10
-3879.456638063308
 20
953.9253225142348
 10
-3999.456638063307
 20
953.9253225142348
 10
-3999.456638063309
 20
2145.848399437312
 10
-4080.033561140235
 20
2145.848399437312
 10
-4116.956638063309
 20
2108.925322514233
 10
-4116.956638063309
 20
1848.925322514235
 10
-4376.956638063309
 20
1848.925322514235
 10
-4376.956638063309
 20
2108.925322514235
 10
-4416.956638063308
 20
2148.925322514235
 10
-4523.456638063309
 20
2148.925322514235
 97
        0
 75
     0
 76
     2
 52
0.0
 41
1.0
 77
     0
 78
     2
 53
44.99999999999999
 43
0.0
 44
0.0
 45
-36.76955127300131
 46
36.76955127300132
 79
     0
 53
44.99999999999999
 43
-18.38477563650066
 44
18.38477563650066
 45
-36.76955127300131
 46
36.76955127300132
 79
     2
 49
38.99999856948853
 49
-12.99999952316284
 98
        0
  0
HATCH
  5
65
330
1F
100
AcDbEntity
  8
0
  6
Continuous
370
    13
100
AcDbHatch
 10
0.0
 20
0.0
 30
0.0
210
0.0
220
0.0
230
1.0
  2
Beton_zbrojony_kopia_0002
 70
     0
 71
     0
 91
        1
 92
        2
 72
     0
 73
     1
 93
       17
 10
-4299.456638063308
 20
95.571497547851
 10
-4299.456638063308
 20
-175.4285024521489
 10
-2202.883362090924
 20
-175.4285024521489
 10
-2202.883362090924
 20
-45.4285024521488
 10
-2227.883362090924
 20
-45.4285024521488
 10
-2240.428865970436
 20
-41.00445611184877
 10
-2247.883362090924
 20
-25.42850245214878
 10
-2247.883362090924
 20
34.57149754785105
 10
-2277.883362090925
 20
34.57149754785105
 10
-2277.883362090925
 20
65.57149754785118
 10
-2307.883362090924
 20
85.57149754785121
 10
-2347.883362090924
 20
85.57149754785121
 10
-2347.883362090924
 20
95.57149754785121
 10
-2690.452821811579
 20
95.57149754785121
 10
-2871.575201650187
 20
65.86757542288524
 10
-3084.116005413215
 20
64.13720256778444
 10
-3174.72102386121
 20
95.57149754785121
 97
        0
 75
     0
 76
     2
 52
0.0
 41
1.0
 77
     0
 78
     2
 53
44.99999999999999
 43
0.0
 44
0.0
 45
-36.76955127300131
 46
36.76955127300132
 79
     0
 53
44.99999999999999
 43
-18.38477563650066
 44
18.38477563650066
 45
-36.76955127300131
 46
36.76955127300132
 79
     2
 49
38.99999856948853
 49
-12.99999952316284
 98
        0
  0
HATCH
  5
66
330
1F
100
AcDbEntity
  8
0
  6
Continuous
370
    13
100
AcDbHatch
 10
0.0
 20
0.0
 30
0.0
210
0.0
220
0.0
230
1.0
  2
Beton_zbrojony_kopia_0002
 70
     0
 71
     0
 91
        1
 92
        2
 72
     0
 73
     1
 93
       13
 10
-170.0258153270866
 20
95.57149754785121
 10
-170.0258153270866
 20
-175.4285024521489
 10
-2162.883362090925
 20
-175.4285024521489
 10
-2162.883362090925
 20
-45.4285024521488
 10
-2137.883362090925
 20
-45.4285024521488
 10
-2125.337858211413
 20
-41.00445611184877
 10
-2117.883362090925
 20
-25.42850245214878
 10
-2117.883362090925
 20
34.57149754785105
 10
-2087.883362090924
 20
34.57149754785105
 10
-2087.883362090924
 20
65.57149754785118
 10
-2057.883362090924
 20
85.57149754785121
 10
-2017.883362090926
 20
85.57149754785121
 10
-2017.883362090926
 20
95.57149754785121
 97
        0
 75
     0
 76
     2
 52
0.0
 41
1.0
 77
     0
 78
     2
 53
44.99999999999999
 43
0.0
 44
0.0
 45
-36.76955127300131
 46
36.76955127300132
 79
     0
 53
44.99999999999999
 43
-18.38477563650066
 44
18.38477563650066
 45
-36.76955127300131
 46
36.76955127300132
 79
     2
 49
38.99999856948853
 49
-12.99999952316284
 98
        0
  0
HATCH
  5
67
330
1F
100
AcDbEntity
  8
@__WIDOCZNE
  6
Continuous
 62
   142
370
    13
100
AcDbHatch
 10
0.0
 20
0.0
 30
0.0
210
0.0
220
0.0
230
1.0
  2
SOLID
 70
     1
 71
     1
 91
        1
 92
        2
 72
     1
 73
     1
 93
        6
 10
-2545.135247894203
 20
-363.6926135919485
 42
0.0
 10
-2545.135247894203
 20
-314.8092602002024
 42
0.0
 10
-2594.018601285948
 20
-314.8092602002024
 42
0.414213562373095
 10
-2652.678625356048
 20
-373.4692842702956
 42
0.0
 10
-2652.678625356048
 20
-422.3526376620417
 42
0.0
 10
-2603.795271964296
 20
-422.3526376620417
 42
0.414213562373095
 97
        1
330
69
 75
     0
 76
     1
 98
        0
  0
LWPOLYLINE
  5
69
102
{ACAD_REACTORS
330
67
102
}
330
1F
100
AcDbEntity
  8
@__WIDOCZNE
  6
Continuous
 62
   142
370
    13
100
AcDbPolyline
 90
        6
 70
   129
 43
0.0
 10
-2545.135247894203
 20
-363.6926135919485
 10
-2545.135247894203
 20
-314.8092602002024
 10
-2594.018601285948
 20
-314.8092602002024
 42
0.414213562373095
 10
-2652.678625356048
 20
-373.4692842702956
 10
-2652.678625356048
 20
-422.3526376620417
 10
-2603.795271964296
 20
-422.3526376620417
 42
0.414213562373095
  0
HATCH
  5
6A
330
1F
100
AcDbEntity
  8
@__WIDOCZNE
  6
Continuous
370
    13
100
AcDbHatch
 10
0.0
 20
0.0
 30
0.0
210
0.0
220
0.0
230
1.0
  2
SOLID
 70
     1
 71
     1
 91
        3
 92
        2
 72
     1
 73
     1
 93
        8
 10
-3449.298038393381
 20
-420.7316492227775
 42
0.0723831287448308
 10
-3520.245494853091
 20
-421.3365668693003
 42
0.0
 10
-3520.245494853091
 20
-557.8353706797856
 42
0.0475754375093521
 10
-3481.878998014628
 20
-562.019552131183
 42
0.0
 10
-3476.370849652348
 20
-562.019552131183
 42
0.0201526900432898
 10
-3460.016044390349
 20
-561.1379994497432
 42
0.1117820670402823
 10
-3425.144930673241
 20
-550.1224350492737
 42
0.5989391739264164
 10
-3436.718023299015
 20
-484.7355826344193
 42
0.7144612958116017
 97
        1
330
6B
 92
        2
 72
     1
 73
     1
 93
        4
 10
-3494.71957832295
 20
-476.6422594248547
 42
0.018587651104709
 10
-3459.722035373053
 20
-476.6085615551517
 42
0.8637728306683231
 10
-3460.74251375242
 20
-440.2505811285013
 42
0.0363046036528515
 10
-3494.71957832295
 20
-440.2505811285013
 42
0.0
 97
        1
330
6C
 92
        2
 72
     1
 73
     1
 93
        4
 10
-3494.324961451184
 20
-539.7947566996984
 42
0.0570602598095221
 10
-3458.244698598588
 20
-539.4465556796548
 42
0.9504624262000833
 10
-3458.623172790766
 20
-497.0215992708107
 42
0.0333151677067815
 10
-3494.324961451184
 20
-497.0215992708107
 42
0.0
 97
        1
330
6D
 75
     0
 76
     1
 98
        0
  0
LWPOLYLINE
  5
6B
102
{ACAD_REACTORS
330
6A
102
}
330
1F
100
AcDbEntity
  8
@__WIDOCZNE
  6
Continuous
370
    13
100
AcDbPolyline
 90
        8
 70
   129
 43
0.0
 10
-3449.298038393381
 20
-420.7316492227775
 42
0.0723831287448308
 10
-3520.245494853091
 20
-421.3365668693003
 10
-3520.245494853091
 20
-557.8353706797856
 42
0.0475754375093521
 10
-3481.878998014628
 20
-562.019552131183
 10
-3476.370849652348
 20
-562.019552131183
 42
0.0201526900432898
 10
-3460.016044390349
 20
-561.1379994497432
 42
0.1117820670402823
 10
-3425.144930673241
 20
-550.1224350492737
 42
0.5989391739264164
 10
-3436.718023299015
 20
-484.7355826344193
 42
0.7144612958116017
  0
LWPOLYLINE
  5
6C
102
{ACAD_REACTORS
330
6A
102
}
330
1F
100
AcDbEntity
  8
@__WIDOCZNE
  6
Continuous
370
    13
100
AcDbPolyline
 90
        4
 70
   129
 43
0.0
 10
-3494.71957832295
 20
-476.6422594248547
 42
0.018587651104709
 10
-3459.722035373053
 20
-476.6085615551517
 42
0.8637728306683231
 10
-3460.74251375242
 20
-440.2505811285013
 42
0.0363046036528515
 10
-3494.71957832295
 20
-440.2505811285013
  0
LWPOLYLINE
  5
6D
102
{ACAD_REACTORS
330
6A
102
}
330
1F
100
AcDbEntity
  8
@__WIDOCZNE
  6
Continuous
370
    13
100
AcDbPolyline
 90
        4
 70
   129
 43
0.0
 10
-3494.324961451184
 20
-539.7947566996984
 42
0.0570602598095221
 10
-3458.244698598588
 20
-539.4465556796548
 42
0.9504624262000833
 10
-3458.623172790766
 20
-497.0215992708107
 42
0.0333151677067815
 10
-3494.324961451184
 20
-497.0215992708107
  0
HATCH
  5
6E
330
1F
100
AcDbEntity
  8
@__WIDOCZNE
  6
Continuous
370
    13
100
AcDbHatch
 10
0.0
 20
0.0
 30
0.0
210
0.0
220
0.0
230
1.0
  2
SOLID
 70
     1
 71
     1
 91
        1
 92
        2
 72
     1
 73
     1
 93
       12
 10
-3220.165579683275
 20
-451.9774449835745
 42
0.0
 10
-3251.831513973377
 20
-451.9774449835745
 42
0.0
 10
-3251.831513973377
 20
-421.1778922530318
 42
0.0
 10
-3276.253607085998
 20
-426.1450976318721
 42
0.0
 10
-3276.253607085998
 20
-527.6828697326674
 42
0.3686923280690939
 10
-3241.91712930131
 20
-561.9010131982163
 42
0.0
 10
-3217.162439367172
 20
-561.8155532232862
 42
0.0
 10
-3211.88690405188
 20
-538.7350862188789
 42
0.0
 10
-3237.166507955853
 20
-538.7350862188789
 42
-0.3159610186060354
 10
-3251.831513973377
 20
-524.0700802013538
 42
0.0
 10
-3251.831513973377
 20
-474.7823169663332
 42
0.0
 10
-3220.165579683275
 20
-474.7823169663332
 42
0.0
 97
        1
330
6F
 75
     0
 76
     1
 98
        0
  0
LWPOLYLINE
  5
6F
102
{ACAD_REACTORS
330
6E
102
}
330
1F
100
AcDbEntity
  8
@__WIDOCZNE
  6
Continuous
370
    13
100
AcDbPolyline
 90
       12
 70
   129
 43
0.0
 10
-3220.165579683275
 20
-451.9774449835745
 10
-3251.831513973377
 20
-451.9774449835745
 10
-3251.831513973377
 20
-421.1778922530318
 10
-3276.253607085998
 20
-426.1450976318721
 10
-3276.253607085998
 20
-527.6828697326674
 42
0.3686923280690939
 10
-3241.91712930131
 20
-561.9010131982163
 10
-3217.162439367172
 20
-561.8155532232862
 10
-3211.88690405188
 20
-538.7350862188789
 10
-3237.166507955853
 20
-538.7350862188789
 42
-0.3159610186060354
 10
-3251.831513973377
 20
-524.0700802013538
 10
-3251.831513973377
 20
-474.7823169663332
 10
-3220.165579683275
 20
-474.7823169663332
  0
HATCH
  5
70
330
1F
100
AcDbEntity
  8
@__WIDOCZNE
  6
Continuous
370
    13
100
AcDbHatch
 10
0.0
 20
0.0
 30
0.0
210
0.0
220
0.0
230
1.0
  2
SOLID
 70
     1
 71
     1
 91
        2
 92
        2
 72
     1
 73
     1
 93
       14
 10
-3152.496083737569
 20
-475.4474568462601
 42
-0.387209016979461
 10
-3137.111041495075
 20
-491.5901224153971
 42
0.0
 10
-3136.973566928699
 20
-497.696397605641
 42
0.1185067504646354
 10
-3172.324296884112
 20
-497.3779334954613
 42
0.2642193030162518
 10
-3197.61721970378
 20
-517.4546527984198
 42
0.1757337626801403
 10
-3197.647801982063
 20
-539.6852016797149
 42
0.2604621029539542
 10
-3173.231311188424
 20
-561.4033985149509
 42
0.0083652857947627
 10
-3166.182310049282
 20
-562.019552131183
 42
0.0
 10
-3136.405880823729
 20
-562.019552131183
 42
0.028992295246684
 10
-3112.103080484086
 20
-558.8811521585602
 42
0.0
 10
-3113.349903958792
 20
-489.935139201205
 42
0.4278697545607686
 10
-3147.991992060891
 20
-453.3408660908107
 42
0.0
 10
-3182.704929423261
 20
-453.1951418649698
 42
0.0
 10
-3188.197872397977
 20
-475.4474568462601
 42
0.0
 97
        1
330
71
 92
        2
 72
     1
 73
     1
 93
        6
 10
-3136.755180013678
 20
-514.6114659218711
 42
0.1273826308893613
 10
-3163.768741673668
 20
-513.9161457175787
 42
0.2091253650713026
 10
-3174.4449768537
 20
-524.0507224291011
 42
0.067218802794298
 10
-3174.319560607136
 20
-531.8223825480361
 42
0.2977682718343915
 10
-3163.340191482739
 20
-543.1094069484759
 42
0.0710664823309622
 10
-3136.755180013678
 20
-543.0574361541727
 42
0.0
 97
        1
330
72
 75
     0
 76
     1
 98
        0
  0
LWPOLYLINE
  5
71
102
{ACAD_REACTORS
330
70
102
}
330
1F
100
AcDbEntity
  8
@__WIDOCZNE
  6
Continuous
370
    13
100
AcDbPolyline
 90
       14
 70
   129
 43
0.0
 10
-3152.496083737569
 20
-475.4474568462601
 42
-0.387209016979461
 10
-3137.111041495075
 20
-491.5901224153971
 10
-3136.973566928699
 20
-497.696397605641
 42
0.1185067504646354
 10
-3172.324296884112
 20
-497.3779334954613
 42
0.2642193030162518
 10
-3197.61721970378
 20
-517.4546527984198
 42
0.1757337626801403
 10
-3197.647801982063
 20
-539.6852016797149
 42
0.2604621029539542
 10
-3173.231311188424
 20
-561.4033985149509
 42
0.0083652857947627
 10
-3166.182310049282
 20
-562.019552131183
 10
-3136.405880823729
 20
-562.019552131183
 42
0.028992295246684
 10
-3112.103080484086
 20
-558.8811521585602
 10
-3113.349903958792
 20
-489.935139201205
 42
0.4278697545607686
 10
-3147.991992060891
 20
-453.3408660908107
 10
-3182.704929423261
 20
-453.1951418649698
 10
-3188.197872397977
 20
-475.4474568462601
  0
LWPOLYLINE
  5
72
102
{ACAD_REACTORS
330
70
102
}
330
1F
100
AcDbEntity
  8
@__WIDOCZNE
  6
Continuous
370
    13
100
AcDbPolyline
 90
        6
 70
   129
 43
0.0
 10
-3136.755180013678
 20
-514.6114659218711
 42
0.1273826308893613
 10
-3163.768741673668
 20
-513.9161457175787
 42
0.2091253650713026
 10
-3174.4449768537
 20
-524.0507224291011
 42
0.067218802794298
 10
-3174.319560607136
 20
-531.8223825480361
 42
0.2977682718343915
 10
-3163.340191482739
 20
-543.1094069484759
 42
0.0710664823309622
 10
-3136.755180013678
 20
-543.0574361541727
  0
HATCH
  5
73
330
1F
100
AcDbEntity
  8
@__WIDOCZNE
  6
Continuous
370
    13
100
AcDbHatch
 10
0.0
 20
0.0
 30
0.0
210
0.0
220
0.0
230
1.0
  2
SOLID
 70
     1
 71
     1
 91
        1
 92
        2
 72
     1
 73
     1
 93
       26
 10
-3070.592531137862
 20
-452.8401534685395
 42
0.0863077155126181
 10
-3093.632531842733
 20
-458.4855830116787
 42
0.0
 10
-3093.632531842733
 20
-562.019552131183
 42
0.0
 10
-3067.78154715264
 20
-562.019552131183
 42
0.0
 10
-3067.78154715264
 20
-475.3309155649072
 42
-0.12168371550613
 10
-3048.563352550719
 20
-473.4366367313629
 42
-0.3861329478031837
 10
-3032.881680923706
 20
-491.6999564524864
 42
0.0
 10
-3032.881680923706
 20
-562.019552131183
 42
0.0
 10
-3008.045654029512
 20
-562.019552131183
 42
0.0
 10
-3008.407443812961
 20
-493.9953080565267
 42
0.0
 10
-3008.045654029512
 20
-493.9878471033194
 42
0.0799288732000265
 10
-3010.53883851943
 20
-479.8574696320237
 42
0.0
 10
-3008.023503454924
 20
-478.3019318903541
 42
-0.1916235362829357
 10
-2985.794992113684
 20
-473.9753291816211
 42
-0.3589776600930252
 10
-2972.311629333859
 20
-490.1010473590148
 42
0.0
 10
-2972.299212554816
 20
-562.019552131183
 42
0.0
 10
-2948.614855825941
 20
-562.019552131183
 42
0.0
 10
-2948.625382082962
 20
-485.1131408555249
 42
0.3475935087177212
 10
-2977.449428131502
 20
-451.9774449835745
 42
0.0
 10
-2996.948956361784
 20
-451.9774449835745
 42
0.0002381544695914
 10
-2997.08311550587
 20
-451.9868865012102
 42
0.1173548723086789
 10
-3009.017947479132
 20
-455.4370005095574
 42
0.1053500657717058
 10
-3021.370666465952
 20
-463.1990868266327
 42
0.1560368886834541
 10
-3039.671603211963
 20
-452.6177554293744
 42
0.0158994515272265
 10
-3048.47653233613
 20
-451.9774449835745
 42
0.0
 10
-3059.802756132173
 20
-451.9774449835745
 42
0.0194967579096993
 97
        1
330
74
 75
     0
 76
     1
 98
        0
  0
LWPOLYLINE
  5
74
102
{ACAD_REACTORS
330
73
102
}
330
1F
100
AcDbEntity
  8
@__WIDOCZNE
  6
Continuous
370
    13
100
AcDbPolyline
 90
       26
 70
   129
 43
0.0
 10
-3070.592531137862
 20
-452.8401534685395
 42
0.0863077155126181
 10
-3093.632531842733
 20
-458.4855830116787
 10
-3093.632531842733
 20
-562.019552131183
 10
-3067.78154715264
 20
-562.019552131183
 10
-3067.78154715264
 20
-475.3309155649072
 42
-0.12168371550613
 10
-3048.563352550719
 20
-473.4366367313629
 42
-0.3861329478031837
 10
-3032.881680923706
 20
-491.6999564524864
 10
-3032.881680923706
 20
-562.019552131183
 10
-3008.045654029512
 20
-562.019552131183
 10
-3008.407443812961
 20
-493.9953080565267
 10
-3008.045654029512
 20
-493.9878471033194
 42
0.0799288732000265
 10
-3010.53883851943
 20
-479.8574696320237
 10
-3008.023503454924
 20
-478.3019318903541
 42
-0.1916235362829357
 10
-2985.794992113684
 20
-473.9753291816211
 42
-0.3589776600930252
 10
-2972.311629333859
 20
-490.1010473590148
 10
-2972.299212554816
 20
-562.019552131183
 10
-2948.614855825941
 20
-562.019552131183
 10
-2948.625382082962
 20
-485.1131408555249
 42
0.3475935087177212
 10
-2977.449428131502
 20
-451.9774449835745
 10
-2996.948956361784
 20
-451.9774449835745
 42
0.0002381544695914
 10
-2997.08311550587
 20
-451.9868865012102
 42
0.1173548723086789
 10
-3009.017947479132
 20
-455.4370005095574
 42
0.1053500657717058
 10
-3021.370666465952
 20
-463.1990868266327
 42
0.1560368886834541
 10
-3039.671603211963
 20
-452.6177554293744
 42
0.0158994515272265
 10
-3048.47653233613
 20
-451.9774449835745
 10
-3059.802756132173
 20
-451.9774449835745
 42
0.0194967579096993
  0
HATCH
  5
75
330
1F
100
AcDbEntity
  8
@__WIDOCZNE
  6
Continuous
370
    13
100
AcDbHatch
 10
0.0
 20
0.0
 30
0.0
210
0.0
220
0.0
230
1.0
  2
SOLID
 70
     1
 71
     1
 91
        2
 92
        2
 72
     1
 73
     1
 93
       14
 10
-2891.524713375714
 20
-454.4539109640822
 42
0.2809658966461606
 10
-2928.111295051236
 20
-492.3033373370977
 42
0.1091159824470767
 10
-2928.083858265051
 20
-526.052408785578
 42
0.2766399819923606
 10
-2891.329381559279
 20
-560.5453918039667
 42
0.0392105095801167
 10
-2881.250626493449
 20
-561.9754117343446
 42
0.0
 10
-2846.215358027514
 20
-562.019552131183
 42
0.0
 10
-2841.842534808738
 20
-540.3914134628012
 42
0.0
 10
-2878.442156750523
 20
-540.3914134628012
 42
-0.1667294674755062
 10
-2894.309206821761
 20
-534.9491149378249
 42
-0.081638462027361
 10
-2902.459119086098
 20
-524.4681774693142
 42
-0.0661503038161424
 10
-2903.559569378317
 20
-517.4298807059297
 42
0.0
 10
-2833.604760293008
 20
-517.4298807059297
 42
0.0
 10
-2833.604760293008
 20
-495.0774565011569
 42
0.3105787245802772
 10
-2866.985973128047
 20
-454.3992647596438
 42
0.1083142208160692
 97
        1
330
76
 92
        2
 72
     1
 73
     1
 93
        5
 10
-2873.617798320179
 20
-473.0825624193511
 42
0.1431069476368757
 10
-2885.441232292559
 20
-472.6629956383588
 42
0.3279495498710064
 10
-2903.550332579943
 20
-497.3447401889308
 42
0.0
 10
-2857.064241425219
 20
-497.3447401889308
 42
0.0
 10
-2857.064241425219
 20
-495.4442091024063
 42
0.3298596086471468
 97
        1
330
77
 75
     0
 76
     1
 98
        0
  0
LWPOLYLINE
  5
76
102
{ACAD_REACTORS
330
75
102
}
330
1F
100
AcDbEntity
  8
@__WIDOCZNE
  6
Continuous
370
    13
100
AcDbPolyline
 90
       14
 70
   129
 43
0.0
 10
-2891.524713375714
 20
-454.4539109640822
 42
0.2809658966461606
 10
-2928.111295051236
 20
-492.3033373370977
 42
0.1091159824470767
 10
-2928.083858265051
 20
-526.052408785578
 42
0.2766399819923606
 10
-2891.329381559279
 20
-560.5453918039667
 42
0.0392105095801167
 10
-2881.250626493449
 20
-561.9754117343446
 10
-2846.215358027514
 20
-562.019552131183
 10
-2841.842534808738
 20
-540.3914134628012
 10
-2878.442156750523
 20
-540.3914134628012
 42
-0.1667294674755062
 10
-2894.309206821761
 20
-534.9491149378249
 42
-0.081638462027361
 10
-2902.459119086098
 20
-524.4681774693142
 42
-0.0661503038161424
 10
-2903.559569378317
 20
-517.4298807059297
 10
-2833.604760293008
 20
-517.4298807059297
 10
-2833.604760293008
 20
-495.0774565011569
 42
0.3105787245802772
 10
-2866.985973128047
 20
-454.3992647596438
 42
0.1083142208160692
  0
LWPOLYLINE
  5
77
102
{ACAD_REACTORS
330
75
102
}
330
1F
100
AcDbEntity
  8
@__WIDOCZNE
  6
Continuous
370
    13
100
AcDbPolyline
 90
        5
 70
   129
 43
0.0
 10
-2873.617798320179
 20
-473.0825624193511
 42
0.1431069476368757
 10
-2885.441232292559
 20
-472.6629956383588
 42
0.3279495498710064
 10
-2903.550332579943
 20
-497.3447401889308
 10
-2857.064241425219
 20
-497.3447401889308
 10
-2857.064241425219
 20
-495.4442091024063
 42
0.3298596086471468
  0
HATCH
  5
78
330
1F
100
AcDbEntity
  8
@__WIDOCZNE
  6
Continuous
370
    13
100
AcDbHatch
 10
0.0
 20
0.0
 30
0.0
210
0.0
220
0.0
230
1.0
  2
SOLID
 70
     1
 71
     1
 91
        1
 92
        2
 72
     1
 73
     1
 93
       13
 10
-2759.042693567167
 20
-452.6869155659157
 42
0.0175531184166386
 10
-2770.212936893998
 20
-451.9774449835745
 42
0.0
 10
-2779.245713028747
 20
-451.9774449835745
 42
0.0177750747803509
 10
-2790.55679368253
 20
-452.7009007132594
 42
0.0683229953867364
 10
-2815.698110966839
 20
-457.6603676573312
 42
0.0
 10
-2815.698110966839
 20
-562.019552131183
 42
0.0
 10
-2790.843025025946
 20
-562.019552131183
 42
0.0
 10
-2790.843025025946
 20
-475.2424619347033
 42
-0.0958663550348273
 10
-2766.615052334398
 20
-474.1376126558195
 42
-0.3633763851128492
 10
-2751.985755033891
 20
-491.6093173881022
 42
0.0
 10
-2751.985755033891
 20
-562.019552131183
 42
0.0
 10
-2727.780697767406
 20
-562.019552131183
 42
0.0
 10
-2727.780697767406
 20
-487.8439875538787
 42
0.3803017440747632
 97
        1
330
79
 75
     0
 76
     1
 98
        0
  0
LWPOLYLINE
  5
79
102
{ACAD_REACTORS
330
78
102
}
330
1F
100
AcDbEntity
  8
@__WIDOCZNE
  6
Continuous
370
    13
100
AcDbPolyline
 90
       13
 70
   129
 43
0.0
 10
-2759.042693567167
 20
-452.6869155659157
 42
0.0175531184166386
 10
-2770.212936893998
 20
-451.9774449835745
 10
-2779.245713028747
 20
-451.9774449835745
 42
0.0177750747803509
 10
-2790.55679368253
 20
-452.7009007132594
 42
0.0683229953867364
 10
-2815.698110966839
 20
-457.6603676573312
 10
-2815.698110966839
 20
-562.019552131183
 10
-2790.843025025946
 20
-562.019552131183
 10
-2790.843025025946
 20
-475.2424619347033
 42
-0.0958663550348273
 10
-2766.615052334398
 20
-474.1376126558195
 42
-0.3633763851128492
 10
-2751.985755033891
 20
-491.6093173881022
 10
-2751.985755033891
 20
-562.019552131183
 10
-2727.780697767406
 20
-562.019552131183
 10
-2727.780697767406
 20
-487.8439875538787
 42
0.3803017440747632
  0
HATCH
  5
7A
330
1F
100
AcDbEntity
  8
@__WIDOCZNE
  6
Continuous
370
    13
100
AcDbHatch
 10
0.0
 20
0.0
 30
0.0
210
0.0
220
0.0
230
1.0
  2
SOLID
 70
     1
 71
     1
 91
        1
 92
        2
 72
     1
 73
     1
 93
       12
 10
-2708.922035145836
 20
-527.6828697326674
 42
0.3564817226562251
 10
-2674.585557361157
 20
-561.9010131982163
 42
0.0
 10
-2649.830867427013
 20
-561.8155532232862
 42
0.0
 10
-2644.555332111727
 20
-538.7350862188789
 42
0.0
 10
-2669.834936015691
 20
-538.7350862188789
 42
-0.3014632934563285
 10
-2684.499942033215
 20
-524.0700802013538
 42
0.0
 10
-2684.499942033215
 20
-474.7823169663332
 42
0.0
 10
-2652.83400774312
 20
-474.7823169663332
 42
0.0
 10
-2652.83400774312
 20
-451.9774449835745
 42
0.0
 10
-2684.499942033215
 20
-451.9774449835745
 42
0.0
 10
-2684.499942033215
 20
-421.1778922530318
 42
0.0
 10
-2708.922035145836
 20
-426.1450976318721
 42
0.0
 97
        1
330
7B
 75
     0
 76
     1
 98
        0
  0
LWPOLYLINE
  5
7B
102
{ACAD_REACTORS
330
7A
102
}
330
1F
100
AcDbEntity
  8
@__WIDOCZNE
  6
Continuous
370
    13
100
AcDbPolyline
 90
       12
 70
   129
 43
0.0
 10
-2708.922035145836
 20
-527.6828697326674
 42
0.3564817226562251
 10
-2674.585557361157
 20
-561.9010131982163
 10
-2649.830867427013
 20
-561.8155532232862
 10
-2644.555332111727
 20
-538.7350862188789
 10
-2669.834936015691
 20
-538.7350862188789
 42
-0.3014632934563285
 10
-2684.499942033215
 20
-524.0700802013538
 10
-2684.499942033215
 20
-474.7823169663332
 10
-2652.83400774312
 20
-474.7823169663332
 10
-2652.83400774312
 20
-451.9774449835745
 10
-2684.499942033215
 20
-451.9774449835745
 10
-2684.499942033215
 20
-421.1778922530318
 10
-2708.922035145836
 20
-426.1450976318721
  0
HATCH
  5
7C
330
1F
100
AcDbEntity
  8
@__WIDOCZNE
  6
Continuous
370
    13
100
AcDbHatch
 10
0.0
 20
0.0
 30
0.0
210
0.0
220
0.0
230
1.0
  2
SOLID
 70
     1
 71
     1
 91
        2
 92
        2
 72
     1
 73
     1
 93
        9
 10
-3357.300385626227
 20
-452.9218645737105
 42
0.2820479307333718
 10
-3394.779318555767
 20
-490.8149904927288
 42
0.0886832537999132
 10
-3394.71112821761
 20
-525.2230491699883
 42
0.2508564250541997
 10
-3360.040787953157
 20
-562.019552131183
 42
0.0
 10
-3330.178177573879
 20
-562.019552131183
 42
0.2670900430231695
 10
-3295.083936890429
 20
-521.8797956984178
 42
0.1207336614180937
 10
-3294.996330866152
 20
-492.6656863427688
 42
0.3094451166888095
 10
-3332.15793525099
 20
-452.9905507086098
 42
0.0268897328129527
 10
-3338.810991404222
 20
-451.9774449835745
 42
0.074328415179198
 97
        1
330
7D
 92
        2
 72
     1
 73
     1
 93
        8
 10
-3370.102426551094
 20
-496.008724899214
 42
0.0948073731652809
 10
-3370.293472644585
 20
-518.3215904298681
 42
0.0590800675341869
 10
-3368.122613421841
 20
-525.7430715712894
 42
0.6394418664691048
 10
-3322.535161543111
 20
-527.1278835593745
 42
0.0835238969854629
 10
-3319.681587687693
 20
-517.7930228584884
 42
0.0916297819744675
 10
-3320.134136191776
 20
-494.8819989382127
 42
0.2559732989582162
 10
-3336.864754235568
 20
-474.139048784038
 42
0.1954327814670101
 10
-3353.875384681279
 20
-474.832243041438
 42
0.2505066079508973
 97
        1
330
7E
 75
     0
 76
     1
 98
        0
  0
LWPOLYLINE
  5
7D
102
{ACAD_REACTORS
330
7C
102
}
330
1F
100
AcDbEntity
  8
@__WIDOCZNE
  6
Continuous
370
    13
100
AcDbPolyline
 90
        9
 70
   129
 43
0.0
 10
-3357.300385626227
 20
-452.9218645737105
 42
0.2820479307333718
 10
-3394.779318555767
 20
-490.8149904927288
 42
0.0886832537999132
 10
-3394.71112821761
 20
-525.2230491699883
 42
0.2508564250541997
 10
-3360.040787953157
 20
-562.019552131183
 10
-3330.178177573879
 20
-562.019552131183
 42
0.2670900430231695
 10
-3295.083936890429
 20
-521.8797956984178
 42
0.1207336614180937
 10
-3294.996330866152
 20
-492.6656863427688
 42
0.3094451166888095
 10
-3332.15793525099
 20
-452.9905507086098
 42
0.0268897328129527
 10
-3338.810991404222
 20
-451.9774449835745
 42
0.074328415179198
  0
LWPOLYLINE
  5
7E
102
{ACAD_REACTORS
330
7C
102
}
330
1F
100
AcDbEntity
  8
@__WIDOCZNE
  6
Continuous
370
    13
100
AcDbPolyline
 90
        8
 70
   129
 43
0.0
 10
-3370.102426551094
 20
-496.008724899214
 42
0.0948073731652809
 10
-3370.293472644585
 20
-518.3215904298681
 42
0.0590800675341869
 10
-3368.122613421841
 20
-525.7430715712894
 42
0.6394418664691048
 10
-3322.535161543111
 20
-527.1278835593745
 42
0.0835238969854629
 10
-3319.681587687693
 20
-517.7930228584884
 42
0.0916297819744675
 10
-3320.134136191776
 20
-494.8819989382127
 42
0.2559732989582162
 10
-3336.864754235568
 20
-474.139048784038
 42
0.1954327814670101
 10
-3353.875384681279
 20
-474.832243041438
 42
0.2505066079508973
  0
HATCH
  5
7F
330
1F
100
AcDbEntity
  8
0
  6
Continuous
370
    13
100
AcDbHatch
 10
0.0
 20
0.0
 30
0.0
210
0.0
220
0.0
230
1.0
  2
Płyty_kamienne_0002
 70
     0
 71
     0
 91
        1
 92
        2
 72
     0
 73
     1
 93
        4
 10
-3168.710997205485
 20
93.48639283764624
 10
-3084.116005413215
 20
64.13720256778444
 10
-2868.895960670926
 20
66.30696875171004
 10
-2699.101090347854
 20
95.571497547851
 97
        0
 75
     0
 76
     2
 52
0.0
 41
1.0
 77
     0
 78
     2
 53
45.0
 43
0.0
 44
70.0
 45
-22.27386360737625
 46
22.27386360737625
 79
     4
 49
0.0
 49
-21.0
 49
0.0
 49
-31.5
 53
110.0
 43
70.0
 44
70.0
 45
29.60031755475611
 46
10.77363451475858
 79
     4
 49
0.0
 49
-15.4
 49
0.0
 49
-26.6
 98
        0
  0
INSERT
  5
FC
330
1F
100
AcDbEntity
  8
0
  6
Continuous
370
    13
100
AcDbBlockReference
  2
InsulFib 65
 10
-4543.456637664645
 20
2149.561579436579
 30
0.0
 50
270.0
  0
INSERT
  5
209
330
1F
100
AcDbEntity
  8
0
  6
Continuous
370
    13
100
AcDbBlockReference
  2
InsulFib 65_2
 10
-5590.025815327086
 20
2081.925323251761
 30
0.0
  0
INSERT
  5
210
330
1F
100
AcDbEntity
  8
@__WIDOCZNE
  6
Continuous
370
    13
100
AcDbBlockReference
 66
     1
  2
Sygnał termostatu 12
 10
-1606.743238819634
 20
2615.267368390179
 30
0.0
  0
ATTRIB
  5
211
330
210
100
AcDbEntity
  8
@__WIDOCZNE
  6
Continuous
370
    13
100
AcDbText
 10
-1654.930738819634
 20
2587.145982675895
 30
0.0
 40
63.5
  1
01
  7
GENERATED_STYLE_1
 11
-1654.930738819634
 21
2568.378756113395
 31
0.0
100
AcDbAttribute
  2
txt
 70
     0
 74
     1
  0
SEQEND
  5
212
330
210
100
AcDbEntity
  8
@__WIDOCZNE
  6
Continuous
370
    13
  0
INSERT
  5
218
330
1F
100
AcDbEntity
  8
@__WIDOCZNE
  6
Continuous
370
    13
100
AcDbBlockReference
 66
     1
  2
Sygnał termostatu 12_2
 10
-1606.743238819634
 20
2475.267368390183
 30
0.0
  0
ATTRIB
  5
219
330
218
100
AcDbEntity
  8
@__WIDOCZNE
  6
Continuous
370
    13
100
AcDbText
 10
-1654.930738819634
 20
2447.145982675897
 30
0.0
 40
63.5
  1
02
  7
GENERATED_STYLE_1
 11
-1654.930738819634
 21
2428.378756113397
 31
0.0
100
AcDbAttribute
  2
txt
 70
     0
 74
     1
  0
SEQEND
  5
21A
330
218
100
AcDbEntity
  8
@__WIDOCZNE
  6
Continuous
370
    13
  0
INSERT
  5
220
330
1F
100
AcDbEntity
  8
@__WIDOCZNE
  6
Continuous
370
    13
100
AcDbBlockReference
 66
     1
  2
Sygnał termostatu 12_3
 10
-1606.743238819634
 20
2335.267368390181
 30
0.0
  0
ATTRIB
  5
221
330
220
100
AcDbEntity
  8
@__WIDOCZNE
  6
Continuous
370
    13
100
AcDbText
 10
-1654.930738819634
 20
2307.145982675896
 30
0.0
 40
63.5
  1
03
  7
GENERATED_STYLE_1
 11
-1654.930738819634
 21
2288.378756113396
 31
0.0
100
AcDbAttribute
  2
txt
 70
     0
 74
     1
  0
SEQEND
  5
222
330
220
100
AcDbEntity
  8
@__WIDOCZNE
  6
Continuous
370
    13
  0
INSERT
  5
228
330
1F
100
AcDbEntity
  8
@__WIDOCZNE
  6
Continuous
370
    13
100
AcDbBlockReference
 66
     1
  2
Sygnał termostatu 12_4
 10
-1606.743238819634
 20
2195.267368390179
 30
0.0
  0
ATTRIB
  5
229
330
228
100
AcDbEntity
  8
@__WIDOCZNE
  6
Continuous
370
    13
100
AcDbText
 10
-1654.930738819634
 20
2167.145982675894
 30
0.0
 40
63.5
  1
04
  7
GENERATED_STYLE_1
 11
-1654.930738819634
 21
2148.378756113394
 31
0.0
100
AcDbAttribute
  2
txt
 70
     0
 74
     1
  0
SEQEND
  5
22A
330
228
100
AcDbEntity
  8
@__WIDOCZNE
  6
Continuous
370
    13
  0
INSERT
  5
230
330
1F
100
AcDbEntity
  8
@__WIDOCZNE
  6
Continuous
370
    13
100
AcDbBlockReference
 66
     1
  2
Sygnał termostatu 12_5
 10
-1606.743238819634
 20
2055.267368390178
 30
0.0
  0
ATTRIB
  5
231
330
230
100
AcDbEntity
  8
@__WIDOCZNE
  6
Continuous
370
    13
100
AcDbText
 10
-1654.930738819634
 20
2027.145982675893
 30
0.0
 40
63.5
  1
05
  7
GENERATED_STYLE_1
 11
-1654.930738819634
 21
2008.378756113393
 31
0.0
100
AcDbAttribute
  2
txt
 70
     0
 74
     1
  0
SEQEND
  5
232
330
230
100
AcDbEntity
  8
@__WIDOCZNE
  6
Continuous
370
    13
  0
INSERT
  5
233
330
1F
100
AcDbEntity
  8
@__WIDOCZNE
  6
Continuous
370
    13
100
AcDbBlockReference
 66
     1
  2
Sygnał termostatu 12
 10
-3541.228567836687
 20
1824.921146150423
 30
0.0
  0
ATTRIB
  5
234
330
233
100
AcDbEntity
  8
@__WIDOCZNE
  6
Continuous
370
    13
100
AcDbText
 10
-3589.416067836687
 20
1796.799760436137
 30
0.0
 40
63.5
  1
01
  7
GENERATED_STYLE_1
 11
-3589.416067836687
 21
1778.032533873637
 31
0.0
100
AcDbAttribute
  2
txt
 70
     0
 74
     1
  0
SEQEND
  5
235
330
233
100
AcDbEntity
  8
@__WIDOCZNE
  6
Continuous
370
    13
  0
INSERT
  5
236
330
1F
100
AcDbEntity
  8
@__WIDOCZNE
  6
Continuous
370
    13
100
AcDbBlockReference
 66
     1
  2
Sygnał termostatu 12_2
 10
-3541.228567836688
 20
961.9253225142339
 30
0.0
  0
ATTRIB
  5
237
330
236
100
AcDbEntity
  8
@__WIDOCZNE
  6
Continuous
370
    13
100
AcDbText
 10
-3589.416067836688
 20
933.8039367999481
 30
0.0
 40
63.5
  1
02
  7
GENERATED_STYLE_1
 11
-3589.416067836688
 21
915.0367102374481
 31
0.0
100
AcDbAttribute
  2
txt
 70
     0
 74
     1
  0
SEQEND
  5
238
330
236
100
AcDbEntity
  8
@__WIDOCZNE
  6
Continuous
370
    13
  0
INSERT
  5
239
330
1F
100
AcDbEntity
  8
@__WIDOCZNE
  6
Continuous
370
    13
100
AcDbBlockReference
 66
     1
  2
Sygnał termostatu 12_3
 10
-1908.996075156892
 20
440.7403206618661
 30
0.0
  0
ATTRIB
  5
23A
330
239
100
AcDbEntity
  8
@__WIDOCZNE
  6
Continuous
370
    13
100
AcDbText
 10
-1957.183575156892
 20
412.6189349475804
 30
0.0
 40
63.5
  1
03
  7
GENERATED_STYLE_1
 11
-1957.183575156892
 21
393.8517083850804
 31
0.0
100
AcDbAttribute
  2
txt
 70
     0
 74
     1
  0
SEQEND
  5
23B
330
239
100
AcDbEntity
  8
@__WIDOCZNE
  6
Continuous
370
    13
  0
INSERT
  5
23C
330
1F
100
AcDbEntity
  8
@__WIDOCZNE
  6
Continuous
370
    13
100
AcDbBlockReference
 66
     1
  2
Sygnał termostatu 12_4
 10
-4396.877221214295
 20
195.6395137168334
 30
0.0
  0
ATTRIB
  5
23D
330
23C
100
AcDbEntity
  8
@__WIDOCZNE
  6
Continuous
370
    13
100
AcDbText
 10
-4445.064721214294
 20
167.5181280025477
 30
0.0
 40
63.5
  1
04
  7
GENERATED_STYLE_1
 11
-4445.064721214294
 21
148.7509014400477
 31
0.0
100
AcDbAttribute
  2
txt
 70
     0
 74
     1
  0
SEQEND
  5
23E
330
23C
100
AcDbEntity
  8
@__WIDOCZNE
  6
Continuous
370
    13
  0
INSERT
  5
23F
330
1F
100
AcDbEntity
  8
@__WIDOCZNE
  6
Continuous
370
    13
100
AcDbBlockReference
 66
     1
  2
Sygnał termostatu 12_5
 10
-2667.643141920941
 20
436.2403206618661
 30
0.0
  0
ATTRIB
  5
240
330
23F
100
AcDbEntity
  8
@__WIDOCZNE
  6
Continuous
370
    13
100
AcDbText
 10
-2715.830641920941
 20
408.1189349475804
 30
0.0
 40
63.5
  1
05
  7
GENERATED_STYLE_1
 11
-2715.830641920941
 21
389.3517083850804
 31
0.0
100
AcDbAttribute
  2
txt
 70
     0
 74
     1
  0
SEQEND
  5
241
330
23F
100
AcDbEntity
  8
@__WIDOCZNE
  6
Continuous
370
    13
  0
INSERT
  5
242
330
1F
100
AcDbEntity
  8
@__WIDOCZNE
  6
Continuous
370
    13
100
AcDbBlockReference
 66
     1
  2
Sygnał termostatu 12_2
 10
-3612.015015038809
 20
436.2403206618661
 30
0.0
  0
ATTRIB
  5
243
330
242
100
AcDbEntity
  8
@__WIDOCZNE
  6
Continuous
370
    13
100
AcDbText
 10
-3660.202515038809
 20
408.1189349475804
 30
0.0
 40
63.5
  1
02
  7
GENERATED_STYLE_1
 11
-3660.202515038809
 21
389.3517083850804
 31
0.0
100
AcDbAttribute
  2
txt
 70
     0
 74
     1
  0
SEQEND
  5
244
330
242
100
AcDbEntity
  8
@__WIDOCZNE
  6
Continuous
370
    13
  0
LINE
  5
245
330
1F
100
AcDbEntity
  8
0
  6
Continuous
370
    50
100
AcDbLine
 10
-3396.997646919329
 20
560.7302490123267
 30
0.0
 11
-4402.08871106624
 21
560.7302490123267
 31
0.0
  0
LINE
  5
246
330
1F
100
AcDbEntity
  8
0
  6
Continuous
370
    13
100
AcDbLine
 10
-2550.456638063308
 20
2547.925322514236
 30
0.0
 11
-2550.456638063308
 21
2677.925322514236
 31
0.0
  0
LINE
  5
247
330
1F
100
AcDbEntity
  8
0
  6
Continuous
370
    13
100
AcDbLine
 10
-2600.456638063308
 20
2377.925322514235
 30
0.0
 11
-2600.456638063308
 21
2527.925322514236
 31
0.0
  0
LINE
  5
248
330
1F
100
AcDbEntity
  8
0
  6
Continuous
370
    13
100
AcDbLine
 10
-2890.456638063307
 20
2677.925322514236
 30
0.0
 11
-2890.456638063307
 21
2547.925322514236
 31
0.0
  0
LINE
  5
249
330
1F
100
AcDbEntity
  8
0
  6
Continuous
370
    13
100
AcDbLine
 10
-4336.877221214296
 20
195.6395137168334
 30
0.0
 11
-4099.456638063309
 21
195.6395137168334
 31
0.0
  0
CIRCLE
  5
24A
330
1F
100
AcDbEntity
  8
0
  6
Continuous
370
    13
100
AcDbCircle
 10
-4089.456638063309
 20
195.6395137168334
 30
0.0
 40
10.0
  0
HATCH
  5
24B
330
1F
100
AcDbEntity
  8
0
  6
Continuous
370
    13
100
AcDbHatch
 10
0.0
 20
0.0
 30
0.0
210
0.0
220
0.0
230
1.0
  2
SOLID
 70
     1
 71
     0
 91
        1
 92
        2
 72
     0
 73
     1
 93
       16
 10
-4079.456638063309
 20
195.6395137168334
 10
-4080.217842738196
 20
199.4663480404843
 10
-4082.385570251444
 20
202.7105815286989
 10
-4085.629803739658
 20
204.8783090419463
 10
-4089.456638063309
 20
205.6395137168334
 10
-4093.28347238696
 20
204.8783090419463
 10
-4096.527705875174
 20
202.7105815286989
 10
-4098.695433388422
 20
199.4663480404843
 10
-4099.456638063309
 20
195.6395137168334
 10
-4098.695433388422
 20
191.8126793931825
 10
-4096.527705875174
 20
188.5684459049679
 10
-4093.28347238696
 20
186.4007183917205
 10
-4089.456638063309
 20
185.6395137168334
 10
-4085.629803739658
 20
186.4007183917205
 10
-4082.385570251444
 20
188.5684459049679
 10
-4080.217842738196
 20
191.8126793931825
 97
        0
 75
     0
 76
     1
 98
        0
  0
LINE
  5
24C
330
1F
100
AcDbEntity
  8
0
  6
Continuous
370
    13
100
AcDbLine
 10
-2705.456638063307
 20
2469.378500973173
 30
0.0
 11
-2705.456638063307
 21
2527.925322514236
 31
0.0
  0
LINE
  5
24D
330
1F
100
AcDbEntity
  8
0
  6
Continuous
370
    13
100
AcDbLine
 10
-3649.609786475203
 20
389.4788711479223
 30
0.0
 11
-3763.916590245619
 21
247.3008067685718
 31
0.0
  0
LINE
  5
24E
330
1F
100
AcDbEntity
  8
0
  6
Continuous
370
    13
100
AcDbLine
 10
-3879.456638063308
 20
95.571497547851
 30
0.0
 11
-4299.456638063308
 21
95.571497547851
 31
0.0
  0
LINE
  5
24F
330
1F
100
AcDbEntity
  8
0
  6
Continuous
370
    50
100
AcDbLine
 10
-4089.456638063309
 20
95.571497547851
 30
0.0
 11
-4089.456638063309
 21
245.571497547851
 31
0.0
  0
LINE
  5
250
330
1F
100
AcDbEntity
  8
0
  6
Continuous
370
    50
100
AcDbLine
 10
-4089.456638063309
 20
95.571497547851
 30
0.0
 11
-4089.456638063309
 21
-54.42850245214892
 31
0.0
  0
LINE
  5
251
330
1F
100
AcDbEntity
  8
0
  6
Continuous
370
    50
100
AcDbLine
 10
-4109.456638063309
 20
-54.42850245214892
 30
0.0
 11
-4069.45663806331
 21
-54.42850245214892
 31
0.0
  0
LINE
  5
252
330
1F
100
AcDbEntity
  8
0
  6
Continuous
370
    13
100
AcDbLine
 10
-2600.456638063308
 20
2547.925322514236
 30
0.0
 11
-2600.456638063308
 21
2677.925322514236
 31
0.0
  0
LINE
  5
253
330
1F
100
AcDbEntity
  8
0
  6
Continuous
370
    13
100
AcDbLine
 10
20.53537459221388
 20
-275.4285024521474
 30
0.0
 11
20.53537459221388
 21
-715.428502452147
 31
0.0
  0
LINE
  5
254
330
1F
100
AcDbEntity
  8
0
  6
Continuous
370
    13
100
AcDbLine
 10
-3579.464625407786
 20
-715.4285024521487
 30
0.0
 11
20.53537459221388
 21
-715.4285024521487
 31
0.0
  0
LINE
  5
255
330
1F
100
AcDbEntity
  8
0
  6
Continuous
370
    13
100
AcDbLine
 10
-2840.456638063307
 20
2377.925322514235
 30
0.0
 11
-2840.456638063307
 21
2527.925322514236
 31
0.0
  0
LINE
  5
256
330
1F
100
AcDbEntity
  8
0
  6
Continuous
370
    50
100
AcDbLine
 10
-4109.456638063309
 20
245.571497547851
 30
0.0
 11
-4069.45663806331
 21
245.571497547851
 31
0.0
  0
LINE
  5
257
330
1F
100
AcDbEntity
  8
0
  6
Continuous
370
    13
100
AcDbLine
 10
-2840.456638063307
 20
2547.925322514236
 30
0.0
 11
-2840.456638063307
 21
2677.925322514236
 31
0.0
  0
LINE
  5
258
330
1F
100
AcDbEntity
  8
0
  6
Continuous
370
    13
100
AcDbLine
 10
-2500.456638063309
 20
2677.925322514236
 30
0.0
 11
-2500.456638063309
 21
2767.925322514235
 31
0.0
  0
LINE
  5
259
330
1F
100
AcDbEntity
  8
0
  6
Continuous
370
    13
100
AcDbLine
 10
-2940.456638063306
 20
2677.925322514236
 30
0.0
 11
-2940.456638063306
 21
2767.925322514235
 31
0.0
  0
LINE
  5
25A
330
1F
100
AcDbEntity
  8
0
  6
Continuous
370
    13
100
AcDbLine
 10
-2940.456638063306
 20
2767.925322514235
 30
0.0
 11
-2500.456638063309
 21
2767.925322514235
 31
0.0
  0
LINE
  5
25B
330
1F
100
AcDbEntity
  8
0
  6
Continuous
370
    13
100
AcDbLine
 10
-2940.456638063306
 20
2737.925322514235
 30
0.0
 11
-2500.456638063309
 21
2737.925322514235
 31
0.0
  0
LINE
  5
25C
330
1F
100
AcDbEntity
  8
0
  6
Continuous
370
    13
100
AcDbLine
 10
-2890.456638063307
 20
2547.925322514236
 30
0.0
 11
-2550.456638063308
 21
2547.925322514236
 31
0.0
  0
LINE
  5
25D
330
1F
100
AcDbEntity
  8
0
  6
Continuous
370
    13
100
AcDbLine
 10
-3744.744063946365
 20
961.9253225142339
 30
0.0
 11
-3601.228567836687
 21
961.9253225142339
 31
0.0
  0
LINE
  5
25F
330
1F
100
AcDbEntity
  8
0
  6
Przerywana
370
    13
100
AcDbLine
 10
-5590.025815327086
 20
2201.353673002244
 30
0.0
 11
-5590.025815327086
 21
1875.452357537249
 31
0.0
  0
LINE
  5
260
330
1F
100
AcDbEntity
  8
0
  6
Continuous
370
    35
100
AcDbLine
 10
-3850.456638063308
 20
673.4691530345902
 30
0.0
 11
-3850.456638063308
 21
124.5714975478509
 31
0.0
  0
LINE
  5
261
330
1F
100
AcDbEntity
  8
0
  6
Continuous
370
    35
100
AcDbLine
 10
-4299.456638063308
 20
673.4691530345905
 30
0.0
 11
-4299.456638063308
 21
-175.4285024521489
 31
0.0
  0
LINE
  5
262
330
1F
100
AcDbEntity
  8
0
  6
Continuous
370
    35
100
AcDbLine
 10
-3879.456638063308
 20
673.4691530345902
 30
0.0
 11
-3879.456638063308
 21
95.571497547851
 31
0.0
  0
LINE
  5
263
330
1F
100
AcDbEntity
  8
0
  6
Continuous
370
    13
100
AcDbLine
 10
-3860.456638063308
 20
673.4691530345902
 30
0.0
 11
-3860.456638063308
 21
114.5714975478511
 31
0.0
  0
LINE
  5
264
330
1F
100
AcDbEntity
  8
0
  6
Continuous
370
    13
100
AcDbLine
 10
-4523.456638063309
 20
2177.925322514235
 30
0.0
 11
-4523.456638063309
 21
2377.925322514235
 31
0.0
  0
LINE
  5
265
330
1F
100
AcDbEntity
  8
0
  6
Continuous
370
    13
100
AcDbLine
 10
-4523.456638063309
 20
2377.925322514235
 30
0.0
 11
-1864.721079655093
 21
2377.925322514235
 31
0.0
  0
LINE
  5
266
330
1F
100
AcDbEntity
  8
0
  6
Continuous
370
    35
100
AcDbLine
 10
-3999.456638063307
 20
2148.925322514235
 30
0.0
 11
-3999.456638063307
 21
953.9253225142348
 31
0.0
  0
LINE
  5
267
330
1F
100
AcDbEntity
  8
0
  6
Continuous
370
    35
100
AcDbLine
 10
-3999.456638063307
 20
953.9253225142348
 30
0.0
 11
-3879.456638063308
 21
953.9253225142348
 31
0.0
  0
LINE
  5
268
330
1F
100
AcDbEntity
  8
0
  6
Continuous
370
    35
100
AcDbLine
 10
-3970.456638063307
 20
2182.925322514235
 30
0.0
 11
-3970.456638063307
 21
982.9253225142347
 31
0.0
  0
LINE
  5
269
330
1F
100
AcDbEntity
  8
0
  6
Continuous
370
    35
100
AcDbLine
 10
-3970.456638063307
 20
982.9253225142347
 30
0.0
 11
-3850.456638063308
 21
982.9253225142347
 31
0.0
  0
LINE
  5
26A
330
1F
100
AcDbEntity
  8
0
  6
Continuous
370
    13
100
AcDbLine
 10
-5590.025815327086
 20
2148.925322514235
 30
0.0
 11
-4543.456638063308
 21
2148.925322514235
 31
0.0
  0
LINE
  5
26B
330
1F
100
AcDbEntity
  8
0
  6
Continuous
370
    13
100
AcDbLine
 10
-5590.025815327086
 20
2118.925322514235
 30
0.0
 11
-4543.456638063308
 21
2118.925322514235
 31
0.0
  0
LINE
  5
26C
330
1F
100
AcDbEntity
  8
0
  6
Continuous
370
    35
100
AcDbLine
 10
-4076.956638063308
 20
2148.925322514234
 30
0.0
 11
-3999.456638063307
 21
2148.925322514235
 31
0.0
  0
LINE
  5
26D
330
1F
100
AcDbEntity
  8
0
  6
Continuous
370
    35
100
AcDbLine
 10
-4076.956638063308
 20
2148.925322514234
 30
0.0
 11
-4116.956638063309
 21
2108.925322514235
 31
0.0
  0
LINE
  5
26E
330
1F
100
AcDbEntity
  8
0
  6
Continuous
370
    13
100
AcDbLine
 10
-3554.473427216445
 20
2201.018117799237
 30
0.0
 11
-3585.533524726864
 21
2251.094385600298
 31
0.0
  0
LINE
  5
26F
330
1F
100
AcDbEntity
  8
0
  6
Continuous
370
    13
100
AcDbLine
 10
-3554.473427216445
 20
2201.018117799237
 30
0.0
 11
-3523.413329706018
 21
2251.094385600298
 31
0.0
  0
LINE
  5
270
330
1F
100
AcDbEntity
  8
0
  6
Continuous
370
    13
100
AcDbLine
 10
-3585.533524726864
 20
2251.094385600298
 30
0.0
 11
-3523.413329706018
 21
2251.094385600298
 31
0.0
  0
LINE
  5
271
330
1F
100
AcDbEntity
  8
0
  6
Continuous
370
    13
100
AcDbLine
 10
-3585.009780886475
 20
2201.018117799237
 30
0.0
 11
-3523.937073546422
 21
2201.018117799237
 31
0.0
  0
LINE
  5
272
330
1F
100
AcDbEntity
  8
0
  6
Continuous
370
    13
100
AcDbLine
 10
-3980.456638063307
 20
1661.925322514235
 30
0.0
 11
-3970.456638063307
 21
1661.925322514235
 31
0.0
  0
LINE
  5
273
330
1F
100
AcDbEntity
  8
0
  6
Continuous
370
    35
100
AcDbLine
 10
-4673.456638063309
 20
1887.925322514235
 30
0.0
 11
-4673.456638063309
 21
1737.925322514235
 31
0.0
  0
LINE
  5
274
330
1F
100
AcDbEntity
  8
0
  6
Continuous
370
    35
100
AcDbLine
 10
-4523.456638063309
 20
1887.925322514235
 30
0.0
 11
-4673.456638063309
 21
1887.925322514235
 31
0.0
  0
LINE
  5
275
330
1F
100
AcDbEntity
  8
0
  6
Continuous
370
    35
100
AcDbLine
 10
-4673.456638063309
 20
1887.925322514235
 30
0.0
 11
-4673.456638063309
 21
1895.925322514235
 31
0.0
  0
LINE
  5
276
330
1F
100
AcDbEntity
  8
0
  6
Continuous
370
    35
100
AcDbLine
 10
-4299.456638063308
 20
1363.925322514235
 30
0.0
 11
-4673.456638063309
 21
1737.925322514235
 31
0.0
  0
LINE
  5
277
330
1F
100
AcDbEntity
  8
0
  6
Continuous
370
    35
100
AcDbLine
 10
-4477.630634321637
 20
2186.351265738296
 30
0.0
 11
-4494.809514793857
 21
2198.30554486866
 31
0.0
  0
LINE
  5
278
330
1F
100
AcDbEntity
  8
0
  6
Continuous
370
    35
100
AcDbLine
 10
-4523.456638063309
 20
2177.925322514235
 30
0.0
 11
-4523.456638063309
 21
2187.925322514235
 31
0.0
  0
LINE
  5
279
330
1F
100
AcDbEntity
  8
0
  6
Continuous
370
    35
100
AcDbLine
 10
-4016.282641804979
 20
2186.351265738296
 30
0.0
 11
-3999.103761332758
 21
2198.30554486866
 31
0.0
  0
LINE
  5
27A
330
1F
100
AcDbEntity
  8
0
  6
Continuous
370
    35
100
AcDbLine
 10
-4027.203842499212
 20
2182.925322514235
 30
0.0
 11
-4098.456638063306
 21
2182.925322514235
 31
0.0
  0
LINE
  5
27B
330
1F
100
AcDbEntity
  8
0
  6
Continuous
370
    35
100
AcDbLine
 10
-3990.456638063307
 20
2201.018117799237
 30
0.0
 11
-3985.456638063306
 21
2201.018117799237
 31
0.0
  0
LINE
  5
27C
330
1F
100
AcDbEntity
  8
0
  6
Continuous
370
    13
100
AcDbLine
 10
-4090.456638063309
 20
2182.925322514235
 30
0.0
 11
-4090.456638063305
 21
2167.925322514235
 31
0.0
  0
LINE
  5
27D
330
1F
100
AcDbEntity
  8
0
  6
Continuous
370
    35
100
AcDbLine
 10
-4098.456638063306
 20
2182.925322514235
 30
0.0
 11
-4098.456638063306
 21
2176.425322514235
 31
0.0
  0
LINE
  5
27E
330
1F
100
AcDbEntity
  8
0
  6
Continuous
370
    35
100
AcDbLine
 10
-4101.456638063304
 20
2176.425322514235
 30
0.0
 11
-4101.456638063304
 21
2179.925322514235
 31
0.0
  0
LINE
  5
27F
330
1F
100
AcDbEntity
  8
0
  6
Continuous
370
    35
100
AcDbLine
 10
-4098.456638063306
 20
2176.425322514235
 30
0.0
 11
-4101.456638063304
 21
2176.425322514235
 31
0.0
  0
LINE
  5
280
330
1F
100
AcDbEntity
  8
0
  6
Continuous
370
    35
100
AcDbLine
 10
-4395.45663806331
 20
2182.925322514235
 30
0.0
 11
-4395.45663806331
 21
2176.425322514235
 31
0.0
  0
LINE
  5
281
330
1F
100
AcDbEntity
  8
0
  6
Continuous
370
    35
100
AcDbLine
 10
-4392.456638063311
 20
2176.425322514235
 30
0.0
 11
-4392.456638063311
 21
2179.925322514235
 31
0.0
  0
LINE
  5
282
330
1F
100
AcDbEntity
  8
0
  6
Continuous
370
    13
100
AcDbLine
 10
-3980.456638063307
 20
2167.925322514235
 30
0.0
 11
-3970.456638063307
 21
2167.925322514235
 31
0.0
  0
LINE
  5
283
330
1F
100
AcDbEntity
  8
0
  6
Continuous
370
    13
100
AcDbLine
 10
-3980.456638063307
 20
2159.925322514235
 30
0.0
 11
-3970.456638063307
 21
2159.925322514235
 31
0.0
  0
LINE
  5
284
330
1F
100
AcDbEntity
  8
0
  6
Continuous
370
    13
100
AcDbLine
 10
-4357.956638063309
 20
2144.925322514235
 30
0.0
 11
-4347.956638063309
 21
2144.925322514235
 31
0.0
  0
LINE
  5
285
330
1F
100
AcDbEntity
  8
0
  6
Continuous
370
    35
100
AcDbLine
 10
-4347.956638063309
 20
2152.925322514235
 30
0.0
 11
-4347.956638063309
 21
1881.925322514235
 31
0.0
  0
LINE
  5
286
330
1F
100
AcDbEntity
  8
0
  6
Continuous
370
    13
100
AcDbLine
 10
-4357.956638063309
 20
2152.925322514235
 30
0.0
 11
-4357.956638063309
 21
1866.925322514235
 31
0.0
  0
LINE
  5
287
330
1F
100
AcDbEntity
  8
0
  6
Continuous
370
    35
100
AcDbLine
 10
-4523.456638063309
 20
2148.925322514235
 30
0.0
 11
-4523.456638063309
 21
1887.925322514235
 31
0.0
  0
LINE
  5
288
330
1F
100
AcDbEntity
  8
0
  6
Continuous
370
    35
100
AcDbLine
 10
-4543.456638063308
 20
2148.925322514235
 30
0.0
 11
-4543.456638063308
 21
1895.925322514235
 31
0.0
  0
LINE
  5
289
330
1F
100
AcDbEntity
  8
0
  6
Continuous
370
    35
100
AcDbLine
 10
-4395.45663806331
 20
2176.425322514235
 30
0.0
 11
-4392.456638063311
 21
2176.425322514235
 31
0.0
  0
LINE
  5
28A
330
1F
100
AcDbEntity
  8
0
  6
Continuous
370
    13
100
AcDbLine
 10
-4098.456638063306
 20
2176.425322514235
 30
0.0
 11
-4090.456638063305
 21
2167.925322514235
 31
0.0
  0
LINE
  5
28B
330
1F
100
AcDbEntity
  8
0
  6
Continuous
370
    13
100
AcDbLine
 10
-4395.45663806331
 20
2176.425322514235
 30
0.0
 11
-4403.456638063309
 21
2167.925322514235
 31
0.0
  0
LINE
  5
28C
330
1F
100
AcDbEntity
  8
0
  6
Continuous
370
    13
100
AcDbLine
 10
-4403.456638063309
 20
2182.925322514235
 30
0.0
 11
-4403.456638063309
 21
2167.925322514235
 31
0.0
  0
LINE
  5
28D
330
1F
100
AcDbEntity
  8
0
  6
Continuous
370
    13
100
AcDbLine
 10
-4367.956638063309
 20
2182.925322514235
 30
0.0
 11
-4367.956638063309
 21
2155.925322514235
 31
0.0
  0
LINE
  5
28E
330
1F
100
AcDbEntity
  8
0
  6
Continuous
370
    13
100
AcDbLine
 10
-4523.456638063309
 20
2167.925322514235
 30
0.0
 11
-4403.456638063309
 21
2167.925322514235
 31
0.0
  0
LINE
  5
28F
330
1F
100
AcDbEntity
  8
0
  6
Continuous
370
    13
100
AcDbLine
 10
-4523.456638063309
 20
2148.925322514235
 30
0.0
 11
-4523.456638063309
 21
2177.925322514235
 31
0.0
  0
LINE
  5
290
330
1F
100
AcDbEntity
  8
0
  6
Continuous
370
    35
100
AcDbLine
 10
-3850.456638063308
 20
982.9253225142347
 30
0.0
 11
-3850.456638063308
 21
713.4691530345902
 31
0.0
  0
LINE
  5
291
330
1F
100
AcDbEntity
  8
0
  6
Continuous
370
    35
100
AcDbLine
 10
-3970.456638063307
 20
2182.925322514235
 30
0.0
 11
-3970.456638063307
 21
2187.925322514235
 31
0.0
  0
LINE
  5
292
330
1F
100
AcDbEntity
  8
0
  6
Continuous
370
    13
100
AcDbLine
 10
-4543.456638063308
 20
2148.925322514235
 30
0.0
 11
-4543.456638063308
 21
2177.925322514235
 31
0.0
  0
LINE
  5
293
330
1F
100
AcDbEntity
  8
0
  6
Continuous
370
    35
100
AcDbLine
 10
-4543.456638063308
 20
1895.925322514235
 30
0.0
 11
-4523.456638063309
 21
1895.925322514235
 31
0.0
  0
LINE
  5
294
330
1F
100
AcDbEntity
  8
0
  6
Continuous
370
    35
100
AcDbLine
 10
-4387.956638063311
 20
2167.925322514235
 30
0.0
 11
-4387.956638063311
 21
2166.425322514235
 31
0.0
  0
LINE
  5
295
330
1F
100
AcDbEntity
  8
0
  6
Continuous
370
    35
100
AcDbLine
 10
-4372.95663806331
 20
2152.925322514235
 30
0.0
 11
-4347.956638063309
 21
2152.925322514235
 31
0.0
  0
LINE
  5
296
330
1F
100
AcDbEntity
  8
0
  6
Continuous
370
    35
100
AcDbLine
 10
-4395.45663806331
 20
2182.925322514235
 30
0.0
 11
-4372.95663806331
 21
2182.925322514235
 31
0.0
  0
LINE
  5
297
330
1F
100
AcDbEntity
  8
0
  6
Continuous
370
    35
100
AcDbLine
 10
-4347.956638063309
 20
2155.925322514235
 30
0.0
 11
-4347.956638063309
 21
2152.925322514235
 31
0.0
  0
LINE
  5
298
330
1F
100
AcDbEntity
  8
0
  6
Continuous
370
    35
100
AcDbLine
 10
-4466.709433627404
 20
2182.925322514235
 30
0.0
 11
-4395.45663806331
 21
2182.925322514235
 31
0.0
  0
LINE
  5
299
330
1F
100
AcDbEntity
  8
0
  6
Continuous
370
    35
100
AcDbLine
 10
-4503.456638063309
 20
2201.018117799237
 30
0.0
 11
-4508.45663806331
 21
2201.018117799237
 31
0.0
  0
LINE
  5
29A
330
1F
100
AcDbEntity
  8
0
  6
Continuous
370
    13
100
AcDbLine
 10
-3980.456638063307
 20
1914.925322514235
 30
0.0
 11
-3970.456638063307
 21
1914.925322514235
 31
0.0
  0
LINE
  5
29B
330
1F
100
AcDbEntity
  8
0
  6
Continuous
370
    13
100
AcDbLine
 10
-4135.956638063307
 20
1866.925322514235
 30
0.0
 11
-4357.956638063309
 21
1866.925322514235
 31
0.0
  0
LINE
  5
29C
330
1F
100
AcDbEntity
  8
0
  6
Continuous
370
    13
100
AcDbLine
 10
-4135.956638063307
 20
1884.925322514235
 30
0.0
 11
-4145.956638063307
 21
1884.925322514235
 31
0.0
  0
LINE
  5
29D
330
1F
100
AcDbEntity
  8
0
  6
Continuous
370
    13
100
AcDbLine
 10
-4135.956638063307
 20
1876.925322514235
 30
0.0
 11
-4145.956638063307
 21
1876.925322514235
 31
0.0
  0
LINE
  5
29E
330
1F
100
AcDbEntity
  8
0
  6
Continuous
370
    35
100
AcDbLine
 10
-4347.956638063309
 20
1881.925322514235
 30
0.0
 11
-4347.956638063309
 21
1876.925322514235
 31
0.0
  0
LINE
  5
29F
330
1F
100
AcDbEntity
  8
0
  6
Continuous
370
    35
100
AcDbLine
 10
-4376.956638063309
 20
2108.925322514235
 30
0.0
 11
-4376.956638063309
 21
1848.925322514235
 31
0.0
  0
LINE
  5
2A0
330
1F
100
AcDbEntity
  8
0
  6
Continuous
370
    35
100
AcDbLine
 10
-4416.956638063308
 20
2148.925322514235
 30
0.0
 11
-4376.956638063309
 21
2108.925322514235
 31
0.0
  0
LINE
  5
2A1
330
1F
100
AcDbEntity
  8
0
  6
Continuous
370
    13
100
AcDbLine
 10
-3980.456638063307
 20
1906.925322514235
 30
0.0
 11
-3970.456638063307
 21
1906.925322514235
 31
0.0
  0
LINE
  5
2A2
330
1F
100
AcDbEntity
  8
0
  6
Continuous
370
    13
100
AcDbLine
 10
-4347.956638063309
 20
1876.925322514235
 30
0.0
 11
-4357.956638063309
 21
1876.925322514235
 31
0.0
  0
LINE
  5
2A3
330
1F
100
AcDbEntity
  8
0
  6
Continuous
370
    13
100
AcDbLine
 10
-3980.456638063307
 20
1653.925322514235
 30
0.0
 11
-3970.456638063307
 21
1653.925322514235
 31
0.0
  0
LINE
  5
2A4
330
1F
100
AcDbEntity
  8
0
  6
Continuous
370
    13
100
AcDbLine
 10
-4347.956638063309
 20
1884.925322514235
 30
0.0
 11
-4357.956638063309
 21
1884.925322514235
 31
0.0
  0
LINE
  5
2A5
330
1F
100
AcDbEntity
  8
0
  6
Continuous
370
    35
100
AcDbLine
 10
-4376.956638063309
 20
1848.925322514235
 30
0.0
 11
-4116.956638063309
 21
1848.925322514235
 31
0.0
  0
LINE
  5
2A6
330
1F
100
AcDbEntity
  8
0
  6
Continuous
370
    35
100
AcDbLine
 10
-4145.956638063307
 20
1876.925322514235
 30
0.0
 11
-4347.956638063309
 21
1876.925322514235
 31
0.0
  0
LINE
  5
2A7
330
1F
100
AcDbEntity
  8
0
  6
Continuous
370
    13
100
AcDbLine
 10
-3980.456638063307
 20
2167.925322514235
 30
0.0
 11
-4090.456638063305
 21
2167.925322514235
 31
0.0
  0
LINE
  5
2A8
330
1F
100
AcDbEntity
  8
0
  6
Continuous
370
    35
100
AcDbLine
 10
-4116.956638063309
 20
1848.925322514235
 30
0.0
 11
-4116.956638063309
 21
2108.925322514235
 31
0.0
  0
LINE
  5
2A9
330
1F
100
AcDbEntity
  8
0
  6
Continuous
370
    35
100
AcDbLine
 10
-4543.456638063308
 20
2177.925322514235
 30
0.0
 11
-4523.456638063309
 21
2177.925322514235
 31
0.0
  0
LINE
  5
2AA
330
1F
100
AcDbEntity
  8
0
  6
Continuous
370
    35
100
AcDbLine
 10
-4523.456638063309
 20
2148.925322514235
 30
0.0
 11
-4416.956638063308
 21
2148.925322514235
 31
0.0
  0
LINE
  5
2AB
330
1F
100
AcDbEntity
  8
0
  6
Continuous
370
    35
100
AcDbLine
 10
-4145.956638063307
 20
2152.925322514235
 30
0.0
 11
-4145.956638063307
 21
1876.925322514235
 31
0.0
  0
LINE
  5
2AC
330
1F
100
AcDbEntity
  8
0
  6
Continuous
370
    13
100
AcDbLine
 10
-4135.956638063307
 20
2152.925322514235
 30
0.0
 11
-4135.956638063307
 21
1866.925322514235
 31
0.0
  0
LINE
  5
2AD
330
1F
100
AcDbEntity
  8
0
  6
Continuous
370
    13
100
AcDbLine
 10
-4125.956638063308
 20
2182.925322514235
 30
0.0
 11
-4125.956638063308
 21
2155.925322514235
 31
0.0
  0
LINE
  5
2AE
330
1F
100
AcDbEntity
  8
0
  6
Continuous
370
    35
100
AcDbLine
 10
-4105.956638063304
 20
2167.925322514235
 30
0.0
 11
-4105.956638063304
 21
2166.425322514235
 31
0.0
  0
LINE
  5
2AF
330
1F
100
AcDbEntity
  8
0
  6
Continuous
370
    35
100
AcDbLine
 10
-4120.956638063307
 20
2152.925322514235
 30
0.0
 11
-4145.956638063307
 21
2152.925322514235
 31
0.0
  0
LINE
  5
2B0
330
1F
100
AcDbEntity
  8
0
  6
Continuous
370
    35
100
AcDbLine
 10
-4098.456638063306
 20
2182.925322514235
 30
0.0
 11
-4120.956638063307
 21
2182.925322514235
 31
0.0
  0
LINE
  5
2B1
330
1F
100
AcDbEntity
  8
0
  6
Continuous
370
    35
100
AcDbLine
 10
-4145.956638063307
 20
2155.925322514235
 30
0.0
 11
-4145.956638063307
 21
2152.925322514235
 31
0.0
  0
LINE
  5
2B2
330
1F
100
AcDbEntity
  8
0
  6
Continuous
370
    35
100
AcDbLine
 10
-4098.456638063306
 20
2152.925322514235
 30
0.0
 11
-4120.956638063307
 21
2152.925322514235
 31
0.0
  0
LINE
  5
2B3
330
1F
100
AcDbEntity
  8
0
  6
Continuous
370
    35
100
AcDbLine
 10
-4120.956638063307
 20
2155.925322514235
 30
0.0
 11
-4145.956638063307
 21
2155.925322514235
 31
0.0
  0
LINE
  5
2B4
330
1F
100
AcDbEntity
  8
0
  6
Continuous
370
    35
100
AcDbLine
 10
-4105.956638063304
 20
2166.425322514235
 30
0.0
 11
-4102.956638063306
 21
2166.425322514235
 31
0.0
  0
LINE
  5
2B5
330
1F
100
AcDbEntity
  8
0
  6
Continuous
370
    35
100
AcDbLine
 10
-4120.956638063307
 20
2155.925322514235
 30
0.0
 11
-4120.956638063307
 21
2182.925322514235
 31
0.0
  0
LINE
  5
2B6
330
1F
100
AcDbEntity
  8
0
  6
Continuous
370
    35
100
AcDbLine
 10
-4098.456638063306
 20
2157.425322514235
 30
0.0
 11
-4098.456638063306
 21
2152.925322514235
 31
0.0
  0
LINE
  5
2B7
330
1F
100
AcDbEntity
  8
0
  6
Continuous
370
    35
100
AcDbLine
 10
-4117.956638063309
 20
2179.925322514235
 30
0.0
 11
-4117.956638063309
 21
2170.925322514235
 31
0.0
  0
LINE
  5
2B8
330
1F
100
AcDbEntity
  8
0
  6
Continuous
370
    35
100
AcDbLine
 10
-4117.956638063309
 20
2155.925322514235
 30
0.0
 11
-4117.956638063309
 21
2167.925322514235
 31
0.0
  0
LINE
  5
2B9
330
1F
100
AcDbEntity
  8
0
  6
Continuous
370
    35
100
AcDbLine
 10
-4102.956638063306
 20
2170.925322514235
 30
0.0
 11
-4102.956638063306
 21
2166.425322514235
 31
0.0
  0
LINE
  5
2BA
330
1F
100
AcDbEntity
  8
0
  6
Continuous
370
    35
100
AcDbLine
 10
-4102.956638063306
 20
2167.925322514235
 30
0.0
 11
-4102.956638063306
 21
2172.425322514235
 31
0.0
  0
LINE
  5
2BB
330
1F
100
AcDbEntity
  8
0
  6
Continuous
370
    35
100
AcDbLine
 10
-4101.456638063304
 20
2157.425322514235
 30
0.0
 11
-4101.456638063304
 21
2155.925322514235
 31
0.0
  0
LINE
  5
2BC
330
1F
100
AcDbEntity
  8
0
  6
Continuous
370
    35
100
AcDbLine
 10
-4098.456638063306
 20
2157.425322514235
 30
0.0
 11
-4101.456638063304
 21
2157.425322514235
 31
0.0
  0
LINE
  5
2BD
330
1F
100
AcDbEntity
  8
0
  6
Continuous
370
    35
100
AcDbLine
 10
-4101.456638063304
 20
2179.925322514235
 30
0.0
 11
-4117.956638063309
 21
2179.925322514235
 31
0.0
  0
LINE
  5
2BE
330
1F
100
AcDbEntity
  8
0
  6
Continuous
370
    35
100
AcDbLine
 10
-4101.456638063304
 20
2155.925322514235
 30
0.0
 11
-4117.956638063309
 21
2155.925322514235
 31
0.0
  0
LINE
  5
2BF
330
1F
100
AcDbEntity
  8
0
  6
Continuous
370
    35
100
AcDbLine
 10
-4105.956638063304
 20
2170.925322514235
 30
0.0
 11
-4105.956638063304
 21
2172.425322514235
 31
0.0
  0
LINE
  5
2C0
330
1F
100
AcDbEntity
  8
0
  6
Continuous
370
    35
100
AcDbLine
 10
-4105.956638063304
 20
2172.425322514235
 30
0.0
 11
-4102.956638063306
 21
2172.425322514235
 31
0.0
  0
LINE
  5
2C1
330
1F
100
AcDbEntity
  8
0
  6
Continuous
370
    35
100
AcDbLine
 10
-4117.956638063309
 20
2167.925322514235
 30
0.0
 11
-4105.956638063304
 21
2167.925322514235
 31
0.0
  0
LINE
  5
2C2
330
1F
100
AcDbEntity
  8
0
  6
Continuous
370
    35
100
AcDbLine
 10
-4105.956638063304
 20
2170.925322514235
 30
0.0
 11
-4117.956638063309
 21
2170.925322514235
 31
0.0
  0
LINE
  5
2C3
330
1F
100
AcDbEntity
  8
0
  6
Continuous
370
    35
100
AcDbLine
 10
-4395.45663806331
 20
2152.925322514235
 30
0.0
 11
-4372.95663806331
 21
2152.925322514235
 31
0.0
  0
LINE
  5
2C4
330
1F
100
AcDbEntity
  8
0
  6
Continuous
370
    35
100
AcDbLine
 10
-4372.95663806331
 20
2155.925322514235
 30
0.0
 11
-4347.956638063309
 21
2155.925322514235
 31
0.0
  0
LINE
  5
2C5
330
1F
100
AcDbEntity
  8
0
  6
Continuous
370
    35
100
AcDbLine
 10
-4387.956638063311
 20
2166.425322514235
 30
0.0
 11
-4390.95663806331
 21
2166.425322514235
 31
0.0
  0
LINE
  5
2C6
330
1F
100
AcDbEntity
  8
0
  6
Continuous
370
    35
100
AcDbLine
 10
-4372.95663806331
 20
2155.925322514235
 30
0.0
 11
-4372.95663806331
 21
2182.925322514235
 31
0.0
  0
LINE
  5
2C7
330
1F
100
AcDbEntity
  8
0
  6
Continuous
370
    35
100
AcDbLine
 10
-4395.45663806331
 20
2157.425322514235
 30
0.0
 11
-4395.45663806331
 21
2152.925322514235
 31
0.0
  0
LINE
  5
2C8
330
1F
100
AcDbEntity
  8
0
  6
Continuous
370
    35
100
AcDbLine
 10
-4375.956638063308
 20
2179.925322514235
 30
0.0
 11
-4375.956638063308
 21
2170.925322514235
 31
0.0
  0
LINE
  5
2C9
330
1F
100
AcDbEntity
  8
0
  6
Continuous
370
    35
100
AcDbLine
 10
-4375.956638063308
 20
2155.925322514235
 30
0.0
 11
-4375.956638063308
 21
2167.925322514235
 31
0.0
  0
LINE
  5
2CA
330
1F
100
AcDbEntity
  8
0
  6
Continuous
370
    35
100
AcDbLine
 10
-4390.95663806331
 20
2170.925322514235
 30
0.0
 11
-4390.95663806331
 21
2166.425322514235
 31
0.0
  0
LINE
  5
2CB
330
1F
100
AcDbEntity
  8
0
  6
Continuous
370
    35
100
AcDbLine
 10
-4390.95663806331
 20
2167.925322514235
 30
0.0
 11
-4390.95663806331
 21
2172.425322514235
 31
0.0
  0
LINE
  5
2CC
330
1F
100
AcDbEntity
  8
0
  6
Continuous
370
    35
100
AcDbLine
 10
-4392.456638063311
 20
2157.425322514235
 30
0.0
 11
-4392.456638063311
 21
2155.925322514235
 31
0.0
  0
LINE
  5
2CD
330
1F
100
AcDbEntity
  8
0
  6
Continuous
370
    35
100
AcDbLine
 10
-4395.45663806331
 20
2157.425322514235
 30
0.0
 11
-4392.456638063311
 21
2157.425322514235
 31
0.0
  0
LINE
  5
2CE
330
1F
100
AcDbEntity
  8
0
  6
Continuous
370
    35
100
AcDbLine
 10
-4392.456638063311
 20
2179.925322514235
 30
0.0
 11
-4375.956638063308
 21
2179.925322514235
 31
0.0
  0
LINE
  5
2CF
330
1F
100
AcDbEntity
  8
0
  6
Continuous
370
    35
100
AcDbLine
 10
-4392.456638063311
 20
2155.925322514235
 30
0.0
 11
-4375.956638063308
 21
2155.925322514235
 31
0.0
  0
LINE
  5
2D0
330
1F
100
AcDbEntity
  8
0
  6
Continuous
370
    35
100
AcDbLine
 10
-4387.956638063311
 20
2170.925322514235
 30
0.0
 11
-4387.956638063311
 21
2172.425322514235
 31
0.0
  0
LINE
  5
2D1
330
1F
100
AcDbEntity
  8
0
  6
Continuous
370
    35
100
AcDbLine
 10
-4387.956638063311
 20
2172.425322514235
 30
0.0
 11
-4390.95663806331
 21
2172.425322514235
 31
0.0
  0
LINE
  5
2D2
330
1F
100
AcDbEntity
  8
0
  6
Continuous
370
    35
100
AcDbLine
 10
-4375.956638063308
 20
2167.925322514235
 30
0.0
 11
-4387.956638063311
 21
2167.925322514235
 31
0.0
  0
LINE
  5
2D3
330
1F
100
AcDbEntity
  8
0
  6
Continuous
370
    35
100
AcDbLine
 10
-4387.956638063311
 20
2170.925322514235
 30
0.0
 11
-4375.956638063308
 21
2170.925322514235
 31
0.0
  0
LINE
  5
2D4
330
1F
100
AcDbEntity
  8
0
  6
Continuous
370
    13
100
AcDbLine
 10
-4367.956638063309
 20
2182.925322514235
 30
0.0
 11
-4125.956638063308
 21
2182.925322514235
 31
0.0
  0
LINE
  5
2D5
330
1F
100
AcDbEntity
  8
0
  6
Continuous
370
    13
100
AcDbLine
 10
-4125.956638063308
 20
2155.925322514235
 30
0.0
 11
-4367.956638063309
 21
2155.925322514235
 31
0.0
  0
LINE
  5
2D6
330
1F
100
AcDbEntity
  8
0
  6
Continuous
370
    13
100
AcDbLine
 10
-3980.456638063307
 20
1408.925322514235
 30
0.0
 11
-3970.456638063307
 21
1408.925322514235
 31
0.0
  0
LINE
  5
2D7
330
1F
100
AcDbEntity
  8
0
  6
Continuous
370
    13
100
AcDbLine
 10
-3980.456638063307
 20
1400.925322514235
 30
0.0
 11
-3970.456638063307
 21
1400.925322514235
 31
0.0
  0
LINE
  5
2D8
330
1F
100
AcDbEntity
  8
0
  6
Continuous
370
    13
100
AcDbLine
 10
-4135.956638063307
 20
2144.925322514235
 30
0.0
 11
-4145.956638063307
 21
2144.925322514235
 31
0.0
  0
LINE
  5
2D9
330
1F
100
AcDbEntity
  8
0
  6
Continuous
370
    13
100
AcDbLine
 10
-5590.025815327086
 20
2167.925322514235
 30
0.0
 11
-4543.456638063308
 21
2167.925322514235
 31
0.0
  0
LINE
  5
2DA
330
1F
100
AcDbEntity
  8
0
  6
Continuous
370
    35
100
AcDbLine
 10
-5590.025815327086
 20
2177.925322514235
 30
0.0
 11
-4543.456638063308
 21
2177.925322514235
 31
0.0
  0
LINE
  5
2DB
330
1F
100
AcDbEntity
  8
0
  6
Continuous
370
    35
100
AcDbLine
 10
-4543.456638063308
 20
1895.925322514235
 30
0.0
 11
-5590.025815327086
 21
1895.925322514235
 31
0.0
  0
LINE
  5
2DC
330
1F
100
AcDbEntity
  8
0
  6
Continuous
370
    35
100
AcDbLine
 10
-5590.025815327086
 20
2065.925322514235
 30
0.0
 11
-4543.456638063308
 21
2065.925322514235
 31
0.0
  0
LINE
  5
2DD
330
1F
100
AcDbEntity
  8
0
  6
Continuous
370
    13
100
AcDbLine
 10
-3980.456638063307
 20
2167.925322514235
 30
0.0
 11
-3980.456638063307
 21
972.925322514235
 31
0.0
  0
LINE
  5
2DE
330
1F
100
AcDbEntity
  8
0
  6
Continuous
370
    13
100
AcDbLine
 10
-3980.456638063307
 20
972.925322514235
 30
0.0
 11
-3860.456638063308
 21
972.925322514235
 31
0.0
  0
LINE
  5
2DF
330
1F
100
AcDbEntity
  8
0
  6
Continuous
370
    35
100
AcDbLine
 10
-4518.456638063308
 20
2014.492810212024
 30
0.0
 11
-4518.456638063308
 21
1964.492810212024
 31
0.0
  0
LINE
  5
2E0
330
1F
100
AcDbEntity
  8
0
  6
Continuous
370
    35
100
AcDbLine
 10
-4548.456638063309
 20
2014.492810212024
 30
0.0
 11
-4548.456638063309
 21
1964.492810212024
 31
0.0
  0
LINE
  5
2E1
330
1F
100
AcDbEntity
  8
0
  6
Continuous
370
    35
100
AcDbLine
 10
-4518.456638063308
 20
2014.492810212024
 30
0.0
 11
-4548.456638063309
 21
2014.492810212024
 31
0.0
  0
LINE
  5
2E2
330
1F
100
AcDbEntity
  8
0
  6
Continuous
370
    35
100
AcDbLine
 10
-4518.456638063308
 20
1974.492810212024
 30
0.0
 11
-4508.456638063308
 21
1974.492810212024
 31
0.0
  0
LINE
  5
2E3
330
1F
100
AcDbEntity
  8
0
  6
Continuous
370
    13
100
AcDbLine
 10
-2725.456638063306
 20
2589.378500973173
 30
0.0
 11
-2759.595227835764
 21
2555.239911200716
 31
0.0
  0
LINE
  5
2E4
330
1F
100
AcDbEntity
  8
0
  6
Continuous
370
    13
100
AcDbLine
 10
-2705.456638063307
 20
2617.662772220635
 30
0.0
 11
-2725.456638063306
 21
2617.662772220635
 31
0.0
  0
LINE
  5
2E5
330
1F
100
AcDbEntity
  8
0
  6
Continuous
370
    13
100
AcDbLine
 10
-2725.456638063306
 20
2617.662772220634
 30
0.0
 11
-2773.737363459494
 21
2569.382046824447
 31
0.0
  0
LINE
  5
2E6
330
1F
100
AcDbEntity
  8
0
  6
Continuous
370
    13
100
AcDbLine
 10
-2773.737363459494
 20
2569.382046824447
 30
0.0
 11
-2759.595227835764
 21
2555.239911200716
 31
0.0
  0
LINE
  5
2E7
330
1F
100
AcDbEntity
  8
0
  6
Continuous
370
    13
100
AcDbLine
 10
-2750.456638063305
 20
2449.378500973173
 30
0.0
 11
-2750.456638063305
 21
2469.378500973173
 31
0.0
  0
LINE
  5
2E8
330
1F
100
AcDbEntity
  8
0
  6
Continuous
370
    13
100
AcDbLine
 10
-2750.456638063305
 20
2469.378500973173
 30
0.0
 11
-2725.456638063306
 21
2469.378500973173
 31
0.0
  0
LINE
  5
2E9
330
1F
100
AcDbEntity
  8
0
  6
Continuous
370
    13
100
AcDbLine
 10
-2685.456638063309
 20
2449.378500973173
 30
0.0
 11
-2685.456638063309
 21
2469.378500973173
 31
0.0
  0
LINE
  5
2EA
330
1F
100
AcDbEntity
  8
0
  6
Continuous
370
    13
100
AcDbLine
 10
-2685.456638063309
 20
2469.378500973173
 30
0.0
 11
-2705.456638063307
 21
2469.378500973173
 31
0.0
  0
LINE
  5
2EB
330
1F
100
AcDbEntity
  8
0
  6
Continuous
370
    13
100
AcDbLine
 10
-2685.456638063309
 20
2449.378500973173
 30
0.0
 11
-2750.456638063305
 21
2449.378500973173
 31
0.0
  0
LINE
  5
2EC
330
1F
100
AcDbEntity
  8
0
  6
Continuous
370
    13
100
AcDbLine
 10
-2705.456638063307
 20
2547.925322514236
 30
0.0
 11
-2705.456638063307
 21
2617.662772220635
 31
0.0
  0
LINE
  5
2ED
330
1F
100
AcDbEntity
  8
0
  6
Continuous
370
    13
100
AcDbLine
 10
-2725.456638063306
 20
2469.378500973173
 30
0.0
 11
-2725.456638063306
 21
2527.925322514236
 31
0.0
  0
LINE
  5
2EE
330
1F
100
AcDbEntity
  8
0
  6
Continuous
370
    13
100
AcDbLine
 10
-2725.456638063306
 20
2547.925322514236
 30
0.0
 11
-2725.456638063306
 21
2589.378500973173
 31
0.0
  0
LINE
  5
2EF
330
1F
100
AcDbEntity
  8
0
  6
Continuous
370
    35
100
AcDbLine
 10
-4518.456638063308
 20
2004.492810212024
 30
0.0
 11
-4508.456638063308
 21
2004.492810212024
 31
0.0
  0
LINE
  5
2F0
330
1F
100
AcDbEntity
  8
0
  6
Continuous
370
    35
100
AcDbLine
 10
-4508.456638063308
 20
2009.492810212024
 30
0.0
 11
-4508.456638063308
 21
1999.492810212024
 31
0.0
  0
LINE
  5
2F1
330
1F
100
AcDbEntity
  8
0
  6
Continuous
370
    35
100
AcDbLine
 10
-4508.456638063308
 20
1979.492810212024
 30
0.0
 11
-4508.456638063308
 21
1969.492810212024
 31
0.0
  0
LINE
  5
2F2
330
1F
100
AcDbEntity
  8
0
  6
Continuous
370
    35
100
AcDbLine
 10
-4548.456638063309
 20
1974.492810212024
 30
0.0
 11
-4558.456638063309
 21
1974.492810212024
 31
0.0
  0
LINE
  5
2F3
330
1F
100
AcDbEntity
  8
0
  6
Continuous
370
    35
100
AcDbLine
 10
-4548.456638063309
 20
2004.492810212024
 30
0.0
 11
-4558.456638063309
 21
2004.492810212024
 31
0.0
  0
LINE
  5
2F4
330
1F
100
AcDbEntity
  8
0
  6
Continuous
370
    35
100
AcDbLine
 10
-4558.456638063309
 20
2009.492810212024
 30
0.0
 11
-4558.456638063309
 21
1999.492810212024
 31
0.0
  0
LINE
  5
2F5
330
1F
100
AcDbEntity
  8
0
  6
Continuous
370
    35
100
AcDbLine
 10
-4558.456638063309
 20
1979.492810212024
 30
0.0
 11
-4558.456638063309
 21
1969.492810212024
 31
0.0
  0
LINE
  5
2F6
330
1F
100
AcDbEntity
  8
0
  6
Continuous
370
    13
100
AcDbLine
 10
-3449.895687171726
 20
2170.962367184836
 30
0.0
 11
-3384.446823260298
 21
2170.962367184836
 31
0.0
  0
LINE
  5
2F7
330
1F
100
AcDbEntity
  8
0
  6
Continuous
370
    13
100
AcDbLine
 10
-3326.549751338646
 20
2170.962367184836
 30
0.0
 11
-3294.513513728376
 21
2170.962367184836
 31
0.0
  0
LINE
  5
2F8
330
1F
100
AcDbEntity
  8
0
  6
Continuous
370
    13
100
AcDbLine
 10
-3258.952562836788
 20
2170.962367184836
 30
0.0
 11
-3193.50369892536
 21
2170.962367184836
 31
0.0
  0
LINE
  5
2F9
330
1F
100
AcDbEntity
  8
0
  6
Continuous
370
    13
100
AcDbLine
 10
-3135.606627003709
 20
2170.962367184836
 30
0.0
 11
-3103.570389393438
 21
2170.962367184836
 31
0.0
  0
LINE
  5
2FA
330
1F
100
AcDbEntity
  8
0
  6
Continuous
370
    13
100
AcDbLine
 10
-3068.00943850185
 20
2170.962367184836
 30
0.0
 11
-3002.560574590422
 21
2170.962367184836
 31
0.0
  0
LINE
  5
2FB
330
1F
100
AcDbEntity
  8
0
  6
Continuous
370
    13
100
AcDbLine
 10
-2944.663502668771
 20
2170.962367184836
 30
0.0
 11
-2912.6272650585
 21
2170.962367184836
 31
0.0
  0
LINE
  5
2FC
330
1F
100
AcDbEntity
  8
0
  6
Continuous
370
    13
100
AcDbLine
 10
-2877.066314166912
 20
2170.962367184836
 30
0.0
 11
-2811.617450255485
 21
2170.962367184836
 31
0.0
  0
LINE
  5
2FD
330
1F
100
AcDbEntity
  8
0
  6
Continuous
370
    13
100
AcDbLine
 10
-2753.720378333833
 20
2170.962367184836
 30
0.0
 11
-2721.684140723562
 21
2170.962367184836
 31
0.0
  0
LINE
  5
2FE
330
1F
100
AcDbEntity
  8
0
  6
Continuous
370
    13
100
AcDbLine
 10
-2686.123189831974
 20
2170.962367184836
 30
0.0
 11
-2620.674325920547
 21
2170.962367184836
 31
0.0
  0
LINE
  5
2FF
330
1F
100
AcDbEntity
  8
0
  6
Continuous
370
    13
100
AcDbLine
 10
-2562.777253998896
 20
2170.962367184836
 30
0.0
 11
-2530.741016388625
 21
2170.962367184836
 31
0.0
  0
LINE
  5
300
330
1F
100
AcDbEntity
  8
0
  6
Continuous
370
    13
100
AcDbLine
 10
-1870.34837174877
 20
2170.962367184836
 30
0.0
 11
-1902.384609359041
 21
2170.962367184836
 31
0.0
  0
LINE
  5
301
330
1F
100
AcDbEntity
  8
0
  6
Continuous
370
    13
100
AcDbLine
 10
-1937.945560250629
 20
2170.962367184836
 30
0.0
 11
-2003.394424162057
 21
2170.962367184836
 31
0.0
  0
LINE
  5
302
330
1F
100
AcDbEntity
  8
0
  6
Continuous
370
    13
100
AcDbLine
 10
-2061.291496083708
 20
2170.962367184836
 30
0.0
 11
-2093.327733693979
 21
2170.962367184836
 31
0.0
  0
LINE
  5
303
330
1F
100
AcDbEntity
  8
0
  6
Continuous
370
    13
100
AcDbLine
 10
-2128.888684585567
 20
2170.962367184836
 30
0.0
 11
-2194.337548496994
 21
2170.962367184836
 31
0.0
  0
LINE
  5
304
330
1F
100
AcDbEntity
  8
0
  6
Continuous
370
    13
100
AcDbLine
 10
-2252.234620418646
 20
2170.962367184836
 30
0.0
 11
-2284.270858028917
 21
2170.962367184836
 31
0.0
  0
LINE
  5
305
330
1F
100
AcDbEntity
  8
0
  6
Continuous
370
    13
100
AcDbLine
 10
-2319.831808920504
 20
2170.962367184836
 30
0.0
 11
-2385.280672831932
 21
2170.962367184836
 31
0.0
  0
LINE
  5
306
330
1F
100
AcDbEntity
  8
0
  6
Continuous
370
    13
100
AcDbLine
 10
-2443.177744753584
 20
2170.962367184836
 30
0.0
 11
-2475.213982363854
 21
2170.962367184836
 31
0.0
  0
LINE
  5
307
330
1F
100
AcDbEntity
  8
0
  6
Continuous
370
    13
100
AcDbLine
 10
-3945.219918724966
 20
2170.861648510474
 30
0.0
 11
-3966.788405662044
 21
2170.861648510474
 31
0.0
  0
LINE
  5
308
330
1F
100
AcDbEntity
  8
0
  6
Continuous
370
    13
100
AcDbLine
 10
-3890.047947169416
 20
2170.962367184836
 30
0.0
 11
-3824.599083257988
 21
2170.962367184836
 31
0.0
  0
LINE
  5
309
330
1F
100
AcDbEntity
  8
0
  6
Continuous
370
    13
100
AcDbLine
 10
-3761.667483343148
 20
2170.962367184836
 30
0.0
 11
-3696.21861943172
 21
2170.962367184836
 31
0.0
  0
LINE
  5
30A
330
1F
100
AcDbEntity
  8
0
  6
Continuous
370
    13
100
AcDbLine
 10
-3640.838811506663
 20
2170.962367184836
 30
0.0
 11
-3575.389947595236
 21
2170.962367184836
 31
0.0
  0
LINE
  5
30B
330
1F
100
AcDbEntity
  8
0
  6
Continuous
370
    13
100
AcDbLine
 10
-3517.492875673584
 20
2170.962367184836
 30
0.0
 11
-3485.456638063313
 21
2170.962367184836
 31
0.0
  0
LINE
  5
30C
330
1F
100
AcDbEntity
  8
0
  6
Continuous
370
    13
100
AcDbLine
 10
-3906.591019364976
 20
2170.861648510474
 30
0.0
 11
-3928.159506302054
 21
2170.861648510474
 31
0.0
  0
LINE
  5
30D
330
1F
100
AcDbEntity
  8
0
  6
Continuous
370
    13
100
AcDbLine
 10
-3962.230460229604
 20
2146.256219125111
 30
0.0
 11
-3916.919708290932
 21
2146.256219125111
 31
0.0
  0
LINE
  5
30E
330
1F
100
AcDbEntity
  8
0
  6
Continuous
370
    13
100
AcDbLine
 10
-3391.192547412809
 20
2146.256219125111
 30
0.0
 11
-3345.881795474123
 21
2146.256219125111
 31
0.0
  0
LINE
  5
30F
330
1F
100
AcDbEntity
  8
0
  6
Continuous
370
    13
100
AcDbLine
 10
-3282.950195559289
 20
2146.256219125111
 30
0.0
 11
-3217.501331647862
 21
2146.256219125111
 31
0.0
  0
LINE
  5
310
330
1F
100
AcDbEntity
  8
0
  6
Continuous
370
    13
100
AcDbLine
 10
-3144.50067574665
 20
2146.256219125111
 30
0.0
 11
-3099.189923807965
 21
2146.256219125111
 31
0.0
  0
LINE
  5
311
330
1F
100
AcDbEntity
  8
0
  6
Continuous
370
    13
100
AcDbLine
 10
-3481.814051290167
 20
2146.256219125111
 30
0.0
 11
-3436.503299351495
 21
2146.256219125111
 31
0.0
  0
LINE
  5
312
330
1F
100
AcDbEntity
  8
0
  6
Continuous
370
    13
100
AcDbLine
 10
-2970.372331550594
 20
2146.256219125111
 30
0.0
 11
-2925.061579611908
 21
2146.256219125111
 31
0.0
  0
LINE
  5
313
330
1F
100
AcDbEntity
  8
0
  6
Continuous
370
    13
100
AcDbLine
 10
-2862.129979697075
 20
2146.256219125111
 30
0.0
 11
-2796.681115785647
 21
2146.256219125111
 31
0.0
  0
LINE
  5
314
330
1F
100
AcDbEntity
  8
0
  6
Continuous
370
    13
100
AcDbLine
 10
-2723.680459884436
 20
2146.256219125111
 30
0.0
 11
-2678.36970794575
 21
2146.256219125111
 31
0.0
  0
LINE
  5
315
330
1F
100
AcDbEntity
  8
0
  6
Continuous
370
    13
100
AcDbLine
 10
-3060.993835427952
 20
2146.256219125111
 30
0.0
 11
-3015.68308348928
 21
2146.256219125111
 31
0.0
  0
LINE
  5
316
330
1F
100
AcDbEntity
  8
0
  6
Continuous
370
    13
100
AcDbLine
 10
-2549.55211568838
 20
2146.256219125111
 30
0.0
 11
-2504.241363749694
 21
2146.256219125111
 31
0.0
  0
LINE
  5
317
330
1F
100
AcDbEntity
  8
0
  6
Continuous
370
    13
100
AcDbLine
 10
-2441.309763834861
 20
2146.256219125111
 30
0.0
 11
-2375.860899923433
 21
2146.256219125111
 31
0.0
  0
LINE
  5
318
330
1F
100
AcDbEntity
  8
0
  6
Continuous
370
    13
100
AcDbLine
 10
-2302.860244022222
 20
2146.256219125111
 30
0.0
 11
-2257.549492083536
 21
2146.256219125111
 31
0.0
  0
LINE
  5
319
330
1F
100
AcDbEntity
  8
0
  6
Continuous
370
    13
100
AcDbLine
 10
-2640.173619565738
 20
2146.256219125111
 30
0.0
 11
-2594.862867627066
 21
2146.256219125111
 31
0.0
  0
LINE
  5
31A
330
1F
100
AcDbEntity
  8
0
  6
Continuous
370
    13
100
AcDbLine
 10
-2128.731899826166
 20
2146.256219125111
 30
0.0
 11
-2083.421147887479
 21
2146.256219125111
 31
0.0
  0
LINE
  5
31B
330
1F
100
AcDbEntity
  8
0
  6
Continuous
370
    13
100
AcDbLine
 10
-2020.489547972646
 20
2146.256219125111
 30
0.0
 11
-1955.040684061219
 21
2146.256219125111
 31
0.0
  0
LINE
  5
31C
330
1F
100
AcDbEntity
  8
0
  6
Continuous
370
    13
100
AcDbLine
 10
-2219.353403703524
 20
2146.256219125111
 30
0.0
 11
-2174.042651764852
 21
2146.256219125111
 31
0.0
  0
LINE
  5
31D
330
1F
100
AcDbEntity
  8
0
  6
Continuous
370
    13
100
AcDbLine
 10
-1910.031831593779
 20
2146.256219125111
 30
0.0
 11
-1864.721079655093
 21
2146.256219125111
 31
0.0
  0
LINE
  5
31E
330
1F
100
AcDbEntity
  8
0
  6
Continuous
370
    13
100
AcDbLine
 10
-3812.012763275023
 20
2146.256219125111
 30
0.0
 11
-3766.702011336337
 21
2146.256219125111
 31
0.0
  0
LINE
  5
31F
330
1F
100
AcDbEntity
  8
0
  6
Continuous
370
    13
100
AcDbLine
 10
-3703.770411421503
 20
2146.256219125111
 30
0.0
 11
-3638.321547510076
 21
2146.256219125111
 31
0.0
  0
LINE
  5
320
330
1F
100
AcDbEntity
  8
0
  6
Continuous
370
    13
100
AcDbLine
 10
-3565.320891608865
 20
2146.256219125111
 30
0.0
 11
-3520.010139670178
 21
2146.256219125111
 31
0.0
  0
LINE
  5
321
330
1F
100
AcDbEntity
  8
0
  6
Continuous
370
    13
100
AcDbLine
 10
-3902.634267152381
 20
2146.256219125111
 30
0.0
 11
-3857.323515213709
 21
2146.256219125111
 31
0.0
  0
LINE
  5
322
330
1F
100
AcDbEntity
  8
0
  6
Continuous
370
    13
100
AcDbLine
 10
-3409.108311236349
 20
2104.659654672961
 30
0.0
 11
-3392.331132029188
 21
2104.659654672961
 31
0.0
  0
LINE
  5
323
330
1F
100
AcDbEntity
  8
0
  6
Continuous
370
    13
100
AcDbLine
 10
-3353.602945258526
 20
2104.748785854582
 30
0.0
 11
-3342.258812083568
 21
2104.748785854582
 31
0.0
  0
LINE
  5
324
330
1F
100
AcDbEntity
  8
0
  6
Continuous
370
    13
100
AcDbLine
 10
-3265.910485256603
 20
2104.659654672961
 30
0.0
 11
-3249.133306049442
 21
2104.659654672961
 31
0.0
  0
LINE
  5
325
330
1F
100
AcDbEntity
  8
0
  6
Continuous
370
    13
100
AcDbLine
 10
-3210.40511927878
 20
2104.748785854582
 30
0.0
 11
-3199.060986103822
 21
2104.748785854582
 31
0.0
  0
LINE
  5
326
330
1F
100
AcDbEntity
  8
0
  6
Continuous
370
    13
100
AcDbLine
 10
-3122.712659276857
 20
2104.659654672961
 30
0.0
 11
-3105.935480069696
 21
2104.659654672961
 31
0.0
  0
LINE
  5
327
330
1F
100
AcDbEntity
  8
0
  6
Continuous
370
    13
100
AcDbLine
 10
-3067.207293299035
 20
2104.748785854582
 30
0.0
 11
-3055.863160124076
 21
2104.748785854582
 31
0.0
  0
LINE
  5
328
330
1F
100
AcDbEntity
  8
0
  6
Continuous
370
    13
100
AcDbLine
 10
-2979.514833297111
 20
2104.659654672961
 30
0.0
 11
-2962.737654089951
 21
2104.659654672961
 31
0.0
  0
LINE
  5
329
330
1F
100
AcDbEntity
  8
0
  6
Continuous
370
    13
100
AcDbLine
 10
-2924.009467319289
 20
2104.748785854582
 30
0.0
 11
-2912.665334144331
 21
2104.748785854582
 31
0.0
  0
LINE
  5
32A
330
1F
100
AcDbEntity
  8
0
  6
Continuous
370
    13
100
AcDbLine
 10
-2836.317007317366
 20
2104.659654672961
 30
0.0
 11
-2819.539828110205
 21
2104.659654672961
 31
0.0
  0
LINE
  5
32B
330
1F
100
AcDbEntity
  8
0
  6
Continuous
370
    13
100
AcDbLine
 10
-2780.811641339543
 20
2104.748785854582
 30
0.0
 11
-2769.467508164585
 21
2104.748785854582
 31
0.0
  0
LINE
  5
32C
330
1F
100
AcDbEntity
  8
0
  6
Continuous
370
    13
100
AcDbLine
 10
-2693.11918133762
 20
2104.659654672961
 30
0.0
 11
-2676.342002130459
 21
2104.659654672961
 31
0.0
  0
LINE
  5
32D
330
1F
100
AcDbEntity
  8
0
  6
Continuous
370
    13
100
AcDbLine
 10
-2637.613815359798
 20
2104.748785854582
 30
0.0
 11
-2626.269682184839
 21
2104.748785854582
 31
0.0
  0
LINE
  5
32E
330
1F
100
AcDbEntity
  8
0
  6
Continuous
370
    13
100
AcDbLine
 10
-2549.921355357874
 20
2104.659654672961
 30
0.0
 11
-2533.144176150714
 21
2104.659654672961
 31
0.0
  0
LINE
  5
32F
330
1F
100
AcDbEntity
  8
0
  6
Continuous
370
    13
100
AcDbLine
 10
-2494.415989380052
 20
2104.748785854582
 30
0.0
 11
-2483.071856205093
 21
2104.748785854582
 31
0.0
  0
LINE
  5
330
330
1F
100
AcDbEntity
  8
0
  6
Continuous
370
    13
100
AcDbLine
 10
-2406.723529378128
 20
2104.659654672961
 30
0.0
 11
-2389.946350170968
 21
2104.659654672961
 31
0.0
  0
LINE
  5
331
330
1F
100
AcDbEntity
  8
0
  6
Continuous
370
    13
100
AcDbLine
 10
-2351.218163400306
 20
2104.748785854582
 30
0.0
 11
-2339.874030225348
 21
2104.748785854582
 31
0.0
  0
LINE
  5
332
330
1F
100
AcDbEntity
  8
0
  6
Continuous
370
    13
100
AcDbLine
 10
-2263.525703398383
 20
2104.659654672961
 30
0.0
 11
-2246.748524191222
 21
2104.659654672961
 31
0.0
  0
LINE
  5
333
330
1F
100
AcDbEntity
  8
0
  6
Continuous
370
    13
100
AcDbLine
 10
-2208.02033742056
 20
2104.748785854582
 30
0.0
 11
-2196.676204245602
 21
2104.748785854582
 31
0.0
  0
LINE
  5
334
330
1F
100
AcDbEntity
  8
0
  6
Continuous
370
    13
100
AcDbLine
 10
-2120.327877418637
 20
2104.659654672961
 30
0.0
 11
-2103.550698211477
 21
2104.659654672961
 31
0.0
  0
LINE
  5
335
330
1F
100
AcDbEntity
  8
0
  6
Continuous
370
    13
100
AcDbLine
 10
-2064.822511440815
 20
2104.748785854582
 30
0.0
 11
-2053.478378265856
 21
2104.748785854582
 31
0.0
  0
LINE
  5
336
330
1F
100
AcDbEntity
  8
0
  6
Continuous
370
    13
100
AcDbLine
 10
-1977.130051438891
 20
2104.659654672961
 30
0.0
 11
-1960.352872231731
 21
2104.659654672961
 31
0.0
  0
LINE
  5
337
330
1F
100
AcDbEntity
  8
0
  6
Continuous
370
    13
100
AcDbLine
 10
-1921.624685461069
 20
2104.748785854582
 30
0.0
 11
-1910.28055228611
 21
2104.748785854582
 31
0.0
  0
LINE
  5
338
330
1F
100
AcDbEntity
  8
0
  6
Continuous
370
    13
100
AcDbLine
 10
-1881.498258862253
 20
2104.659654672961
 30
0.0
 11
-1864.721079655093
 21
2104.659654672961
 31
0.0
  0
LINE
  5
339
330
1F
100
AcDbEntity
  8
0
  6
Continuous
370
    13
100
AcDbLine
 10
-3792.219799878525
 20
2106.337372593676
 30
0.0
 11
-3782.153492354228
 21
2106.337372593676
 31
0.0
  0
LINE
  5
33A
330
1F
100
AcDbEntity
  8
0
  6
Continuous
370
    13
100
AcDbLine
 10
-3668.068673745518
 20
2104.659654672961
 30
0.0
 11
-3658.841225181577
 21
2104.659654672961
 31
0.0
  0
LINE
  5
33B
330
1F
100
AcDbEntity
  8
0
  6
Continuous
370
    13
100
AcDbLine
 10
-3552.306137216094
 20
2104.659654672961
 30
0.0
 11
-3535.528958008934
 21
2104.659654672961
 31
0.0
  0
LINE
  5
33C
330
1F
100
AcDbEntity
  8
0
  6
Continuous
370
    13
100
AcDbLine
 10
-3846.535240942588
 20
2104.748785854582
 30
0.0
 11
-3824.676836586066
 21
2104.748785854582
 31
0.0
  0
LINE
  5
33D
330
1F
100
AcDbEntity
  8
0
  6
Continuous
370
    13
100
AcDbLine
 10
-3740.606050599455
 20
2104.748785854582
 30
0.0
 11
-3718.747646242934
 21
2104.748785854582
 31
0.0
  0
LINE
  5
33E
330
1F
100
AcDbEntity
  8
0
  6
Continuous
370
    13
100
AcDbLine
 10
-2940.456638063306
 20
2677.925322514236
 30
0.0
 11
-2500.456638063309
 21
2677.925322514236
 31
0.0
  0
LINE
  5
33F
330
1F
100
AcDbEntity
  8
0
  6
Continuous
370
    13
100
AcDbLine
 10
-2530.456638063308
 20
2677.925322514236
 30
0.0
 11
-2530.456638063308
 21
2527.925322514236
 31
0.0
  0
LINE
  5
340
330
1F
100
AcDbEntity
  8
0
  6
Continuous
370
    13
100
AcDbLine
 10
-2530.456638063308
 20
2527.925322514236
 30
0.0
 11
-2910.456638063307
 21
2527.925322514236
 31
0.0
  0
LINE
  5
341
330
1F
100
AcDbEntity
  8
0
  6
Continuous
370
    13
100
AcDbLine
 10
-2910.456638063307
 20
2527.925322514236
 30
0.0
 11
-2910.456638063307
 21
2677.925322514236
 31
0.0
  0
LINE
  5
342
330
1F
100
AcDbEntity
  8
0
  6
Continuous
370
    13
100
AcDbLine
 10
-3612.8184558998
 20
2104.748785854582
 30
0.0
 11
-3590.960051543279
 21
2104.748785854582
 31
0.0
  0
LINE
  5
343
330
1F
100
AcDbEntity
  8
0
  6
Continuous
370
    13
100
AcDbLine
 10
-3496.800771238272
 20
2104.748785854582
 30
0.0
 11
-3485.456638063313
 21
2104.748785854582
 31
0.0
  0
LINE
  5
344
330
1F
100
AcDbEntity
  8
0
  6
Continuous
370
    13
100
AcDbLine
 10
-3918.195201873191
 20
2104.748785854582
 30
0.0
 11
-3896.336797516669
 21
2104.748785854582
 31
0.0
  0
LINE
  5
345
330
1F
100
AcDbEntity
  8
0
  6
Continuous
370
    13
100
AcDbLine
 10
-3643.145052514525
 20
2058.571743951319
 30
0.0
 11
-3633.917603950584
 21
2058.571743951319
 31
0.0
  0
LINE
  5
346
330
1F
100
AcDbEntity
  8
0
  6
Continuous
370
    13
100
AcDbLine
 10
-3527.767271514229
 20
2058.571743951319
 30
0.0
 11
-3518.539822950288
 21
2058.571743951319
 31
0.0
  0
LINE
  5
347
330
1F
100
AcDbEntity
  8
0
  6
Continuous
370
    13
100
AcDbLine
 10
-3408.035611985621
 20
2058.571743951319
 30
0.0
 11
-3398.808163421681
 21
2058.571743951319
 31
0.0
  0
LINE
  5
348
330
1F
100
AcDbEntity
  8
0
  6
Continuous
370
    13
100
AcDbLine
 10
-3283.9500739287
 20
2058.571743951319
 30
0.0
 11
-3274.72262536476
 21
2058.571743951319
 31
0.0
  0
LINE
  5
349
330
1F
100
AcDbEntity
  8
0
  6
Continuous
370
    13
100
AcDbLine
 10
-3832.538768496141
 20
2058.571743951319
 30
0.0
 11
-3823.3113199322
 21
2058.571743951319
 31
0.0
  0
LINE
  5
34A
330
1F
100
AcDbEntity
  8
0
  6
Continuous
370
    13
100
AcDbLine
 10
-3953.927675781591
 20
2058.571743951319
 30
0.0
 11
-3944.70022721765
 21
2058.571743951319
 31
0.0
  0
LINE
  5
34B
330
1F
100
AcDbEntity
  8
0
  6
Continuous
370
    13
100
AcDbLine
 10
-3133.221573194588
 20
2058.571743951319
 30
0.0
 11
-3123.994124630647
 21
2058.571743951319
 31
0.0
  0
LINE
  5
34C
330
1F
100
AcDbEntity
  8
0
  6
Continuous
370
    13
100
AcDbLine
 10
-3027.071240758232
 20
2058.571743951319
 30
0.0
 11
-3017.843792194291
 21
2058.571743951319
 31
0.0
  0
LINE
  5
34D
330
1F
100
AcDbEntity
  8
0
  6
Continuous
370
    13
100
AcDbLine
 10
-2965.597249854536
 20
2058.571743951319
 30
0.0
 11
-2956.369801290595
 21
2058.571743951319
 31
0.0
  0
LINE
  5
34E
330
1F
100
AcDbEntity
  8
0
  6
Continuous
370
    13
100
AcDbLine
 10
-2813.211501363579
 20
2058.571743951319
 30
0.0
 11
-2803.984052799638
 21
2058.571743951319
 31
0.0
  0
LINE
  5
34F
330
1F
100
AcDbEntity
  8
0
  6
Continuous
370
    13
100
AcDbLine
 10
-2702.187598891596
 20
2058.571743951319
 30
0.0
 11
-2692.960150327655
 21
2058.571743951319
 31
0.0
  0
LINE
  5
350
330
1F
100
AcDbEntity
  8
0
  6
Continuous
370
    13
100
AcDbLine
 10
-2584.632878627145
 20
2058.571743951319
 30
0.0
 11
-2575.405430063205
 21
2058.571743951319
 31
0.0
  0
LINE
  5
351
330
1F
100
AcDbEntity
  8
0
  6
Continuous
370
    13
100
AcDbLine
 10
-2443.131826456971
 20
2058.571743951319
 30
0.0
 11
-2433.904377893031
 21
2058.571743951319
 31
0.0
  0
LINE
  5
352
330
1F
100
AcDbEntity
  8
0
  6
Continuous
370
    13
100
AcDbLine
 10
-2268.976685324452
 20
2058.571743951319
 30
0.0
 11
-2259.749236760511
 21
2058.571743951319
 31
0.0
  0
LINE
  5
353
330
1F
100
AcDbEntity
  8
0
  6
Continuous
370
    13
100
AcDbLine
 10
-2168.83747917325
 20
2058.571743951319
 30
0.0
 11
-2159.610030609309
 21
2058.571743951319
 31
0.0
  0
LINE
  5
354
330
1F
100
AcDbEntity
  8
0
  6
Continuous
370
    13
100
AcDbLine
 10
-2118.767876097651
 20
2058.571743951319
 30
0.0
 11
-2109.54042753371
 21
2058.571743951319
 31
0.0
  0
LINE
  5
355
330
1F
100
AcDbEntity
  8
0
  6
Continuous
370
    13
100
AcDbLine
 10
-2003.909786604671
 20
2058.571743951319
 30
0.0
 11
-1994.682338040731
 21
2058.571743951319
 31
0.0
  0
LINE
  5
356
330
1F
100
AcDbEntity
  8
0
  6
Continuous
370
    13
100
AcDbLine
 10
-1892.88588413269
 20
2058.571743951319
 30
0.0
 11
-1883.65843556875
 21
2058.571743951319
 31
0.0
  0
LINE
  5
357
330
1F
100
AcDbEntity
  8
0
  6
Continuous
370
    35
100
AcDbLine
 10
-4299.456638063308
 20
713.4691530345905
 30
0.0
 11
-4299.456638063308
 21
1363.925322514235
 31
0.0
  0
LINE
  5
358
330
1F
100
AcDbEntity
  8
0
  6
Continuous
370
    35
100
AcDbLine
 10
-3879.456638063308
 20
953.9253225142348
 30
0.0
 11
-3879.456638063308
 21
713.4691530345902
 31
0.0
  0
LINE
  5
359
330
1F
100
AcDbEntity
  8
0
  6
Continuous
370
    13
100
AcDbLine
 10
-3860.456638063308
 20
972.925322514235
 30
0.0
 11
-3860.456638063308
 21
713.4691530345902
 31
0.0
  0
LINE
  5
35A
330
1F
100
AcDbEntity
  8
0
  6
Continuous
370
    13
100
AcDbLine
 10
-2700.691559433445
 20
386.1623604406362
 30
0.0
 11
-2942.01630392464
 21
85.99575681909614
 31
0.0
  0
CIRCLE
  5
35B
330
1F
100
AcDbEntity
  8
0
  6
Continuous
370
    13
100
AcDbCircle
 10
-2948.28209916404
 20
78.2021819001053
 30
0.0
 40
10.0
  0
HATCH
  5
35C
330
1F
100
AcDbEntity
  8
0
  6
Continuous
370
    13
100
AcDbHatch
 10
0.0
 20
0.0
 30
0.0
210
0.0
220
0.0
230
1.0
  2
SOLID
 70
     1
 71
     0
 91
        1
 92
        2
 72
     0
 73
     1
 93
       16
 10
-2938.28209916404
 20
78.2021819001053
 10
-2939.043303838927
 20
82.0290162237562
 10
-2941.211031352174
 20
85.27324971197078
 10
-2944.455264840389
 20
87.44097722521818
 10
-2948.28209916404
 20
88.2021819001053
 10
-2952.10893348769
 20
87.44097722521818
 10
-2955.353166975905
 20
85.27324971197078
 10
-2957.520894489152
 20
82.0290162237562
 10
-2958.282099164039
 20
78.2021819001053
 10
-2957.520894489152
 20
74.3753475764544
 10
-2955.353166975905
 20
71.13111408823983
 10
-2952.10893348769
 20
68.96338657499244
 10
-2948.28209916404
 20
68.20218190010532
 10
-2944.455264840389
 20
68.96338657499244
 10
-2941.211031352174
 20
71.13111408823984
 10
-2939.043303838927
 20
74.37534757645442
 97
        0
 75
     0
 76
     1
 98
        0
  0
LINE
  5
35D
330
1F
100
AcDbEntity
  8
0
  6
Continuous
370
    13
100
AcDbLine
 10
-2147.883362090924
 20
-25.42850245214878
 30
0.0
 11
-2147.883362090924
 21
44.57149754785106
 31
0.0
  0
LINE
  5
35E
330
1F
100
AcDbEntity
  8
0
  6
Continuous
370
    13
100
AcDbLine
 10
-2217.883362090925
 20
-25.42850245214878
 30
0.0
 11
-2217.883362090925
 21
44.57149754785106
 31
0.0
  0
LINE
  5
35F
330
1F
100
AcDbEntity
  8
0
  6
Continuous
370
    35
100
AcDbLine
 10
-2087.883362090924
 20
34.57149754785105
 30
0.0
 11
-2087.883362090924
 21
65.57149754785118
 31
0.0
  0
LINE
  5
360
330
1F
100
AcDbEntity
  8
0
  6
Continuous
370
    35
100
AcDbLine
 10
-2162.883362090925
 20
-45.4285024521488
 30
0.0
 11
-2162.883362090925
 21
-35.42850245214879
 31
0.0
  0
LINE
  5
361
330
1F
100
AcDbEntity
  8
0
  6
Continuous
370
    35
100
AcDbLine
 10
-2202.883362090924
 20
-45.4285024521488
 30
0.0
 11
-2202.883362090924
 21
-35.42850245214879
 31
0.0
  0
LINE
  5
362
330
1F
100
AcDbEntity
  8
0
  6
Continuous
370
    35
100
AcDbLine
 10
-2227.883362090924
 20
-45.4285024521488
 30
0.0
 11
-2202.883362090924
 21
-45.4285024521488
 31
0.0
  0
LINE
  5
363
330
1F
100
AcDbEntity
  8
0
  6
Continuous
370
    35
100
AcDbLine
 10
-2137.883362090925
 20
-45.4285024521488
 30
0.0
 11
-2162.883362090925
 21
-45.4285024521488
 31
0.0
  0
LINE
  5
364
330
1F
100
AcDbEntity
  8
0
  6
Continuous
370
    35
100
AcDbLine
 10
-2117.883362090925
 20
-25.42850245214878
 30
0.0
 11
-2117.883362090925
 21
34.57149754785105
 31
0.0
  0
LINE
  5
365
330
1F
100
AcDbEntity
  8
0
  6
Continuous
370
    13
100
AcDbLine
 10
-2127.883362090925
 20
44.57149754785106
 30
0.0
 11
-2182.883362090924
 21
44.57149754785106
 31
0.0
  0
LINE
  5
366
330
1F
100
AcDbEntity
  8
0
  6
Continuous
370
    35
100
AcDbLine
 10
-2077.883362090924
 20
124.5714975478511
 30
0.0
 11
-2077.883362090924
 21
85.57149754785121
 31
0.0
  0
LINE
  5
367
330
1F
100
AcDbEntity
  8
0
  6
Continuous
370
    35
100
AcDbLine
 10
-2017.883362090926
 20
95.57149754785121
 30
0.0
 11
-2017.883362090926
 21
85.57149754785121
 31
0.0
  0
LINE
  5
368
330
1F
100
AcDbEntity
  8
0
  6
Continuous
370
    35
100
AcDbLine
 10
-2127.883362090925
 20
-25.42850245214878
 30
0.0
 11
-2127.883362090925
 21
44.57149754785106
 31
0.0
  0
LINE
  5
369
330
1F
100
AcDbEntity
  8
0
  6
Continuous
370
    35
100
AcDbLine
 10
-2137.883362090925
 20
-35.42850245214879
 30
0.0
 11
-2182.883362090924
 21
-35.42850245214879
 31
0.0
  0
LINE
  5
36A
330
1F
100
AcDbEntity
  8
0
  6
Continuous
370
    35
100
AcDbLine
 10
-2047.883362090925
 20
124.5714975478511
 30
0.0
 11
-2047.883362090925
 21
95.57149754785121
 31
0.0
  0
LINE
  5
36B
330
1F
100
AcDbEntity
  8
0
  6
Continuous
370
    35
100
AcDbLine
 10
-2097.883362090924
 20
114.5714975478511
 30
0.0
 11
-2182.883362090924
 21
114.5714975478511
 31
0.0
  0
LINE
  5
36C
330
1F
100
AcDbEntity
  8
0
  6
Continuous
370
    35
100
AcDbLine
 10
-2057.883362090924
 20
124.5714975478511
 30
0.0
 11
-2182.883362090924
 21
124.5714975478511
 31
0.0
  0
LINE
  5
36D
330
1F
100
AcDbEntity
  8
0
  6
Continuous
370
    35
100
AcDbLine
 10
-2057.883362090924
 20
124.5714975478511
 30
0.0
 11
-2057.883362090924
 21
114.5714975478511
 31
0.0
  0
LINE
  5
36E
330
1F
100
AcDbEntity
  8
0
  6
Continuous
370
    35
100
AcDbLine
 10
-2057.883362090924
 20
114.5714975478511
 30
0.0
 11
-2097.883362090924
 21
114.5714975478511
 31
0.0
  0
LINE
  5
36F
330
1F
100
AcDbEntity
  8
0
  6
Continuous
370
    35
100
AcDbLine
 10
-2097.883362090924
 20
114.5714975478511
 30
0.0
 11
-2097.883362090924
 21
44.57149754785106
 31
0.0
  0
LINE
  5
370
330
1F
100
AcDbEntity
  8
0
  6
Continuous
370
    35
100
AcDbLine
 10
-2057.883362090924
 20
85.57149754785121
 30
0.0
 11
-2087.883362090924
 21
65.57149754785118
 31
0.0
  0
LINE
  5
371
330
1F
100
AcDbEntity
  8
0
  6
Continuous
370
    35
100
AcDbLine
 10
-2017.883362090926
 20
85.57149754785121
 30
0.0
 11
-2057.883362090924
 21
85.57149754785121
 31
0.0
  0
LINE
  5
372
330
1F
100
AcDbEntity
  8
0
  6
Continuous
370
    35
100
AcDbLine
 10
-2087.883362090924
 20
34.57149754785105
 30
0.0
 11
-2117.883362090925
 21
34.57149754785105
 31
0.0
  0
LINE
  5
373
330
1F
100
AcDbEntity
  8
0
  6
Continuous
370
    35
100
AcDbLine
 10
-2097.883362090924
 20
44.57149754785106
 30
0.0
 11
-2127.883362090925
 21
44.57149754785106
 31
0.0
  0
LINE
  5
374
330
1F
100
AcDbEntity
  8
0
  6
Continuous
370
    35
100
AcDbLine
 10
-2047.883362090925
 20
124.5714975478511
 30
0.0
 11
-2057.883362090924
 21
124.5714975478511
 31
0.0
  0
LINE
  5
375
330
1F
100
AcDbEntity
  8
0
  6
Continuous
370
    35
100
AcDbLine
 10
-2047.883362090925
 20
95.57149754785121
 30
0.0
 11
-2017.883362090926
 21
95.57149754785121
 31
0.0
  0
LINE
  5
376
330
1F
100
AcDbEntity
  8
0
  6
Continuous
370
    35
100
AcDbLine
 10
-2277.883362090925
 20
34.57149754785105
 30
0.0
 11
-2277.883362090925
 21
65.57149754785118
 31
0.0
  0
LINE
  5
377
330
1F
100
AcDbEntity
  8
0
  6
Continuous
370
    35
100
AcDbLine
 10
-2247.883362090924
 20
-25.42850245214878
 30
0.0
 11
-2247.883362090924
 21
34.57149754785105
 31
0.0
  0
LINE
  5
378
330
1F
100
AcDbEntity
  8
0
  6
Continuous
370
    13
100
AcDbLine
 10
-2237.883362090924
 20
44.57149754785106
 30
0.0
 11
-2182.883362090924
 21
44.57149754785106
 31
0.0
  0
LINE
  5
379
330
1F
100
AcDbEntity
  8
0
  6
Continuous
370
    35
100
AcDbLine
 10
-2287.883362090925
 20
124.5714975478511
 30
0.0
 11
-2287.883362090925
 21
85.57149754785121
 31
0.0
  0
LINE
  5
37A
330
1F
100
AcDbEntity
  8
0
  6
Continuous
370
    35
100
AcDbLine
 10
-2347.883362090924
 20
95.57149754785121
 30
0.0
 11
-2347.883362090924
 21
85.57149754785121
 31
0.0
  0
LINE
  5
37B
330
1F
100
AcDbEntity
  8
0
  6
Continuous
370
    35
100
AcDbLine
 10
-2237.883362090924
 20
-25.42850245214878
 30
0.0
 11
-2237.883362090924
 21
44.57149754785106
 31
0.0
  0
LINE
  5
37C
330
1F
100
AcDbEntity
  8
0
  6
Continuous
370
    35
100
AcDbLine
 10
-2227.883362090924
 20
-35.42850245214879
 30
0.0
 11
-2182.883362090924
 21
-35.42850245214879
 31
0.0
  0
LINE
  5
37D
330
1F
100
AcDbEntity
  8
0
  6
Continuous
370
    35
100
AcDbLine
 10
-2317.883362090924
 20
124.5714975478511
 30
0.0
 11
-2317.883362090924
 21
95.57149754785121
 31
0.0
  0
LINE
  5
37E
330
1F
100
AcDbEntity
  8
0
  6
Continuous
370
    35
100
AcDbLine
 10
-2267.883362090925
 20
114.5714975478511
 30
0.0
 11
-2182.883362090924
 21
114.5714975478511
 31
0.0
  0
LINE
  5
37F
330
1F
100
AcDbEntity
  8
0
  6
Continuous
370
    35
100
AcDbLine
 10
-2307.883362090924
 20
124.5714975478511
 30
0.0
 11
-2182.883362090924
 21
124.5714975478511
 31
0.0
  0
LINE
  5
380
330
1F
100
AcDbEntity
  8
0
  6
Continuous
370
    35
100
AcDbLine
 10
-2307.883362090924
 20
124.5714975478511
 30
0.0
 11
-2307.883362090924
 21
114.5714975478511
 31
0.0
  0
LINE
  5
381
330
1F
100
AcDbEntity
  8
0
  6
Continuous
370
    35
100
AcDbLine
 10
-2307.883362090924
 20
114.5714975478511
 30
0.0
 11
-2267.883362090925
 21
114.5714975478511
 31
0.0
  0
LINE
  5
382
330
1F
100
AcDbEntity
  8
0
  6
Continuous
370
    35
100
AcDbLine
 10
-2267.883362090925
 20
114.5714975478511
 30
0.0
 11
-2267.883362090925
 21
44.57149754785106
 31
0.0
  0
LINE
  5
383
330
1F
100
AcDbEntity
  8
0
  6
Continuous
370
    35
100
AcDbLine
 10
-2307.883362090924
 20
85.57149754785121
 30
0.0
 11
-2277.883362090925
 21
65.57149754785118
 31
0.0
  0
LINE
  5
384
330
1F
100
AcDbEntity
  8
0
  6
Continuous
370
    35
100
AcDbLine
 10
-2347.883362090924
 20
85.57149754785121
 30
0.0
 11
-2307.883362090924
 21
85.57149754785121
 31
0.0
  0
LINE
  5
385
330
1F
100
AcDbEntity
  8
0
  6
Continuous
370
    35
100
AcDbLine
 10
-2277.883362090925
 20
34.57149754785105
 30
0.0
 11
-2247.883362090924
 21
34.57149754785105
 31
0.0
  0
LINE
  5
386
330
1F
100
AcDbEntity
  8
0
  6
Continuous
370
    35
100
AcDbLine
 10
-2267.883362090925
 20
44.57149754785106
 30
0.0
 11
-2237.883362090924
 21
44.57149754785106
 31
0.0
  0
LINE
  5
387
330
1F
100
AcDbEntity
  8
0
  6
Continuous
370
    35
100
AcDbLine
 10
-2317.883362090924
 20
124.5714975478511
 30
0.0
 11
-2307.883362090924
 21
124.5714975478511
 31
0.0
  0
LINE
  5
388
330
1F
100
AcDbEntity
  8
0
  6
Continuous
370
    35
100
AcDbLine
 10
-2317.883362090924
 20
95.57149754785121
 30
0.0
 11
-2347.883362090924
 21
95.57149754785121
 31
0.0
  0
LINE
  5
389
330
1F
100
AcDbEntity
  8
0
  6
Continuous
370
    13
100
AcDbLine
 10
-3174.72102386121
 20
95.57149754785121
 30
0.0
 11
-3084.116005413215
 21
64.13720256778444
 31
0.0
  0
LINE
  5
38A
330
1F
100
AcDbEntity
  8
0
  6
Continuous
370
    13
100
AcDbLine
 10
-3084.116005413215
 20
64.13720256778444
 30
0.0
 11
-2871.575201650187
 21
65.86757542288524
 31
0.0
  0
LINE
  5
38B
330
1F
100
AcDbEntity
  8
0
  6
Continuous
370
    13
100
AcDbLine
 10
-2871.575201650187
 20
65.86757542288524
 30
0.0
 11
-2690.452821811579
 21
95.57149754785121
 31
0.0
  0
LINE
  5
38C
330
1F
100
AcDbEntity
  8
0
  6
Continuous
370
    35
100
AcDbLine
 10
-4299.456638063308
 20
-175.4285024521489
 30
0.0
 11
-2202.883362090924
 21
-175.4285024521489
 31
0.0
  0
LINE
  5
38D
330
1F
100
AcDbEntity
  8
0
  6
Continuous
370
    35
100
AcDbLine
 10
-3850.456638063308
 20
124.5714975478509
 30
0.0
 11
-2317.883362090924
 21
124.5714975478511
 31
0.0
  0
LINE
  5
38E
330
1F
100
AcDbEntity
  8
0
  6
Continuous
370
    13
100
AcDbLine
 10
-3860.456638063308
 20
114.5714975478511
 30
0.0
 11
-2317.883362090924
 21
114.5714975478511
 31
0.0
  0
LINE
  5
38F
330
1F
100
AcDbEntity
  8
0
  6
Continuous
370
    35
100
AcDbLine
 10
-3879.456638063308
 20
95.571497547851
 30
0.0
 11
-2317.883362090924
 21
95.57149754785121
 31
0.0
  0
LINE
  5
390
330
1F
100
AcDbEntity
  8
0
  6
Przerywana
370
    13
100
AcDbLine
 10
-2242.725365457204
 20
-213.4003721729289
 30
0.0
 11
-2116.782342199834
 21
-213.4003721729289
 31
0.0
  0
LINE
  5
391
330
1F
100
AcDbEntity
  8
0
  6
Continuous
370
    35
100
AcDbLine
 10
-2202.883362090924
 20
-45.4285024521488
 30
0.0
 11
-2202.883362090924
 21
-213.4003721729289
 31
0.0
  0
LINE
  5
392
330
1F
100
AcDbEntity
  8
0
  6
Continuous
370
    35
100
AcDbLine
 10
-2162.883362090925
 20
-45.4285024521488
 30
0.0
 11
-2162.883362090925
 21
-213.4003721729289
 31
0.0
  0
LINE
  5
393
330
1F
100
AcDbEntity
  8
0
  6
Continuous
370
    35
100
AcDbLine
 10
-2195.883362090923
 20
-35.42850245214879
 30
0.0
 11
-2195.883362090923
 21
-213.4003721729289
 31
0.0
  0
LINE
  5
394
330
1F
100
AcDbEntity
  8
0
  6
Continuous
370
    35
100
AcDbLine
 10
-2169.883362090927
 20
-35.42850245214879
 30
0.0
 11
-2169.883362090927
 21
-213.4003721729289
 31
0.0
  0
LINE
  5
395
330
1F
100
AcDbEntity
  8
0
  6
Continuous
370
    35
100
AcDbLine
 10
-2162.883362090925
 20
-175.4285024521489
 30
0.0
 11
-170.0258153270866
 21
-175.4285024521489
 31
0.0
  0
LINE
  5
396
330
1F
100
AcDbEntity
  8
0
  6
Continuous
370
    35
100
AcDbLine
 10
-2047.883362090925
 20
124.5714975478511
 30
0.0
 11
-170.0258153270866
 21
124.5714975478511
 31
0.0
  0
LINE
  5
397
330
1F
100
AcDbEntity
  8
0
  6
Continuous
370
    13
100
AcDbLine
 10
-2047.883362090925
 20
114.5714975478511
 30
0.0
 11
-170.0258153270866
 21
114.5714975478511
 31
0.0
  0
LINE
  5
398
330
1F
100
AcDbEntity
  8
0
  6
Continuous
370
    35
100
AcDbLine
 10
-2047.883362090925
 20
95.57149754785121
 30
0.0
 11
-170.0258153270866
 21
95.57149754785121
 31
0.0
  0
LINE
  5
399
330
1F
100
AcDbEntity
  8
0
  6
Przerywana
370
    13
100
AcDbLine
 10
-1864.721079655093
 20
2444.197422151944
 30
0.0
 11
-1864.721079655093
 21
1993.311834178011
 31
0.0
  0
LINE
  5
39A
330
1F
100
AcDbEntity
  8
0
  6
Continuous
370
    13
100
AcDbLine
 10
-1946.590846593287
 20
393.9788711479224
 30
0.0
 11
-2018.721836284785
 21
304.2602878455489
 31
0.0
  0
LINE
  5
39B
330
1F
100
AcDbEntity
  8
0
  6
Continuous
370
    13
100
AcDbLine
 10
-3699.547625561212
 20
1824.921146150423
 30
0.0
 11
-3601.228567836685
 21
1824.921146150423
 31
0.0
  0
LINE
  5
39C
330
1F
100
AcDbEntity
  8
0
  6
Continuous
370
    50
100
AcDbLine
 10
-3396.997646919329
 20
560.7302490123267
 30
0.0
 11
-3396.997646919329
 21
1428.35581722866
 31
0.0
  0
LINE
  5
39D
330
1F
100
AcDbEntity
  8
0
  6
Continuous
370
    50
100
AcDbLine
 10
-1666.743238819633
 20
-175.4285024521489
 30
0.0
 11
-1666.743238819633
 21
1428.35581722866
 31
0.0
  0
LINE
  5
39E
330
1F
100
AcDbEntity
  8
0
  6
Continuous
370
    50
100
AcDbLine
 10
-5526.560194107635
 20
2242.607441065185
 30
0.0
 11
-5526.560194107635
 21
-175.4285024521489
 31
0.0
  0
LINE
  5
39F
330
1F
100
AcDbEntity
  8
0
  6
Continuous
370
    13
100
AcDbLine
 10
20.53537459221388
 20
-277.8729468965906
 30
0.0
 11
20.53537459221388
 21
-715.428502452147
 31
0.0
  0
LINE
  5
3A0
330
1F
100
AcDbEntity
  8
0
  6
Continuous
370
    13
100
AcDbLine
 10
-3559.464625407788
 20
-715.4285024521496
 30
0.0
 11
20.53537459221388
 21
-715.4285024521496
 31
0.0
  0
LWPOLYLINE
  5
3A1
330
1F
100
AcDbEntity
  8
@__WIDOCZNE
  6
Continuous
370
    13
100
AcDbPolyline
 90
        2
 70
   129
 43
0.0
 10
20.53537459221388
 20
-596.0951691188268
 10
-2493.956627656733
 20
-596.0951691188268
  0
LWPOLYLINE
  5
3A2
330
1F
100
AcDbEntity
  8
@__WIDOCZNE
  6
Continuous
370
    13
100
AcDbPolyline
 90
        4
 70
   129
 43
0.0
 10
-3559.464625407788
 20
-277.8729468966386
 10
-3559.464625407788
 20
-715.4285024521496
 10
20.53537459221388
 20
-715.428502452147
 10
20.53537459221388
 20
-277.8729468966368
  0
LWPOLYLINE
  5
3A3
330
1F
100
AcDbEntity
  8
@__WIDOCZNE
  6
Continuous
370
    13
100
AcDbPolyline
 90
        2
 70
   128
 43
0.0
 10
-257.9090698519479
 20
-377.3173913410701
 10
-257.9090698519479
 20
-277.8729468966368
  0
LWPOLYLINE
  5
3A4
330
1F
100
AcDbEntity
  8
@__WIDOCZNE
  6
Continuous
370
    13
100
AcDbPolyline
 90
        2
 70
   128
 43
0.0
 10
20.53537459221388
 20
-377.3173913410701
 10
-596.0201809631691
 20
-377.3173913410701
  0
LWPOLYLINE
  5
3A5
330
1F
100
AcDbEntity
  8
@__WIDOCZNE
  6
Continuous
370
    13
100
AcDbPolyline
 90
        2
 70
   128
 43
0.0
 10
-596.0201809631691
 20
-596.0951691188268
 10
-596.0201809631691
 20
-277.8729468966368
  0
LWPOLYLINE
  5
3A6
330
1F
100
AcDbEntity
  8
@__WIDOCZNE
  6
Continuous
370
    13
100
AcDbPolyline
 90
        2
 70
   128
 43
0.0
 10
-2493.956627656733
 20
-277.8729468966386
 10
-2493.956627656733
 20
-715.4285024521514
  0
LWPOLYLINE
  5
3A7
330
1F
100
AcDbEntity
  8
0
  6
Continuous
370
    13
100
AcDbPolyline
 90
        2
 70
   128
 43
0.0
 10
-5583.294957919798
 20
2073.925322514235
 10
-4548.401322069159
 20
2073.925322514235
  0
LWPOLYLINE
  5
3A8
330
1F
100
AcDbEntity
  8
0
  6
Continuous
370
    13
100
AcDbPolyline
 90
        2
 70
   128
 43
0.0
 10
-2042.156080195117
 20
104.5524744923994
 10
-176.779501512403
 20
104.5524744923994
  0
LWPOLYLINE
  5
3A9
330
1F
100
AcDbEntity
  8
0
  6
Continuous
370
    13
100
AcDbPolyline
 90
        8
 70
   128
 43
0.0
 10
-5583.294957919798
 20
2156.925322514236
 10
-4417.441919437541
 20
2156.925322514236
 42
-0.1989123673796662
 10
-4410.370851625676
 20
2153.996390326101
 10
-4371.885570251443
 20
2115.51110895187
 42
-0.1989123673796335
 10
-4368.95663806331
 20
2108.440041140004
 10
-4368.95663806331
 20
1866.925322514236
 42
0.414213562373095
 10
-4358.95663806331
 20
1856.925322514236
 10
-4225.332503802436
 20
1856.925322514236
  0
LWPOLYLINE
  5
3AA
330
1F
100
AcDbEntity
  8
0
  6
Continuous
370
    13
100
AcDbPolyline
 90
        6
 70
   128
 43
0.0
 10
-4124.956638063308
 20
1986.10469755242
 10
-4124.956638063308
 20
2108.440041140006
 42
-0.1989123673796988
 10
-4122.027705875173
 20
2115.511108951872
 10
-4083.542424500941
 20
2153.996390326102
 42
-0.1989123673796498
 10
-4076.471356689075
 20
2156.925322514236
 10
-3992.224395694331
 20
2156.925322514236
  0
LWPOLYLINE
  5
3AB
330
1F
100
AcDbEntity
  8
0
  6
Continuous
370
    13
100
AcDbPolyline
 90
        4
 70
   128
 43
0.0
 10
-4225.332503802436
 20
1856.925322514236
 10
-4134.956638063308
 20
1856.925322514236
 42
0.414213562373095
 10
-4124.956638063308
 20
1866.925322514236
 10
-4124.956638063308
 20
1986.10469755242
  0
LWPOLYLINE
  5
3AC
330
1F
100
AcDbEntity
  8
0
  6
Continuous
370
    13
100
AcDbPolyline
 90
        2
 70
   128
 43
0.0
 10
-3990.512135521936
 20
2165.03707461795
 10
-3990.512135521936
 20
953.7888206243836
  0
LWPOLYLINE
  5
3AD
330
1F
100
AcDbEntity
  8
0
  6
Continuous
370
    13
100
AcDbPolyline
 90
        2
 70
   128
 43
0.0
 10
-3999.186547365136
 20
963.0267257073411
 10
-3863.597380389844
 20
963.0267257073411
  0
LWPOLYLINE
  5
3AE
330
1F
100
AcDbEntity
  8
0
  6
Continuous
370
    13
100
AcDbPolyline
 90
        2
 70
   128
 43
0.0
 10
-3870.566162622039
 20
969.5572998916431
 10
-3870.566162622039
 20
103.5684427060064
  0
LWPOLYLINE
  5
3AF
330
1F
100
AcDbEntity
  8
0
  6
Continuous
370
    13
100
AcDbPolyline
 90
        2
 70
   128
 43
0.0
 10
-3879.428334505594
 20
103.9970022371299
 10
-2324.769063086796
 20
103.9970022371302
  0
LWPOLYLINE
  5
3B0
330
1F
100
AcDbEntity
  8
0
  6
Continuous
370
    13
100
AcDbPolyline
 90
        4
 70
   129
 43
0.0
 10
-5719.464625407823
 20
2885.126084277376
 10
20.53537459221388
 20
2885.126084277376
 10
20.53537459221388
 20
-715.4285024521467
 10
-5719.464625407823
 20
-715.4285024521467
  0
LWPOLYLINE
  5
3B1
330
1F
100
AcDbEntity
  8
@__WIDOCZNE
  6
Continuous
370
    13
100
AcDbPolyline
 90
        4
 70
   129
 43
0.0
 10
-5820.364288324569
 20
-815.4439076390769
 10
-5820.364288324569
 20
3385.20311021276
 10
120.5507797791512
 20
3385.203110212758
 10
120.5507797791512
 20
-815.4439076390787
  0
ARC
  5
3B2
330
1F
100
AcDbEntity
  8
0
  6
Continuous
370
    35
100
AcDbCircle
 10
-4508.45663806331
 20
2185.879208202557
 30
0.0
 40
15.13890959668078
100
AcDbArc
 50
90.0
 51
172.232359881076
  0
ARC
  5
3B3
330
1F
100
AcDbEntity
  8
0
  6
Continuous
370
    35
100
AcDbCircle
 10
-4503.456638063309
 20
2185.879208202557
 30
0.0
 40
15.13890959668078
100
AcDbArc
 50
55.16707525237471
 51
90.0
  0
ARC
  5
3B4
330
1F
100
AcDbEntity
  8
0
  6
Continuous
370
    35
100
AcDbCircle
 10
-4466.709433627404
 20
2202.045562257005
 30
0.0
 40
19.12023974277036
100
AcDbArc
 50
235.1670752523774
 51
270.0
  0
ARC
  5
3B5
330
1F
100
AcDbEntity
  8
0
  6
Continuous
370
    35
100
AcDbCircle
 10
-3985.456638063306
 20
2185.879208202557
 30
0.0
 40
15.13890959668078
100
AcDbArc
 50
7.767640118924051
 51
90.0
  0
ARC
  5
3B6
330
1F
100
AcDbEntity
  8
0
  6
Continuous
370
    35
100
AcDbCircle
 10
-3990.456638063307
 20
2185.879208202557
 30
0.0
 40
15.13890959668078
100
AcDbArc
 50
90.0
 51
124.8329247476253
  0
ARC
  5
3B7
330
1F
100
AcDbEntity
  8
0
  6
Continuous
370
    35
100
AcDbCircle
 10
-4027.203842499212
 20
2202.045562257005
 30
0.0
 40
19.12023974277036
100
AcDbArc
 50
270.0
 51
304.8329247476226
  0
ARC
  5
3B8
330
1F
100
AcDbEntity
  8
0
  6
Continuous
370
    35
100
AcDbCircle
 10
-2137.883362090925
 20
-25.42850245214878
 30
0.0
 40
10.00000000000001
100
AcDbArc
 50
270.0
 51
0.0
  0
ARC
  5
3B9
330
1F
100
AcDbEntity
  8
0
  6
Continuous
370
    35
100
AcDbCircle
 10
-2137.883362090925
 20
-25.42850245214878
 30
0.0
 40
19.99999999999957
100
AcDbArc
 50
270.0
 51
0.0
  0
ARC
  5
3BA
330
1F
100
AcDbEntity
  8
0
  6
Continuous
370
    35
100
AcDbCircle
 10
-2227.883362090924
 20
-25.42850245214878
 30
0.0
 40
10.00000000000001
100
AcDbArc
 50
180.0
 51
270.0
  0
ARC
  5
3BB
330
1F
100
AcDbEntity
  8
0
  6
Continuous
370
    13
100
AcDbCircle
 10
-2157.883362090924
 20
-25.42850245214878
 30
0.0
 40
10.00000000000001
100
AcDbArc
 50
270.0
 51
0.0
  0
ARC
  5
3BC
330
1F
100
AcDbEntity
  8
0
  6
Continuous
370
    35
100
AcDbCircle
 10
-2227.883362090924
 20
-25.42850245214878
 30
0.0
 40
19.99999999999957
100
AcDbArc
 50
180.0
 51
270.0
  0
ARC
  5
3BD
330
1F
100
AcDbEntity
  8
0
  6
Continuous
370
    13
100
AcDbCircle
 10
-2207.883362090925
 20
-25.42850245214878
 30
0.0
 40
10.00000000000001
100
AcDbArc
 50
180.0
 51
270.0
  0
CIRCLE
  5
3BF
330
1F
100
AcDbEntity
  8
@__WIDOCZNE
  6
Przerywana gęsta
370
    50
100
AcDbCircle
 10
-3935.456638063309
 20
961.9253225142339
 30
0.0
 40
190.7125741169437
  0
CIRCLE
  5
3C0
330
1F
100
AcDbEntity
  8
0
  6
Continuous
370
    13
100
AcDbCircle
 10
-4921.572472383476
 20
2133.925322514235
 30
0.0
 40
4.906903872802337
  0
CIRCLE
  5
3C1
330
1F
100
AcDbEntity
  8
@__WIDOCZNE
  6
Przerywana gęsta
370
    50
100
AcDbCircle
 10
-3879.456638063308
 20
95.571497547851
 30
0.0
 40
190.7125741169437
  0
ELLIPSE
  5
3C2
330
1F
100
AcDbEntity
  8
0
  6
Continuous
370
    13
100
AcDbEllipse
 10
-4089.456638063309
 20
95.571497547851
 30
0.0
 11
27.83954610845285
 21
0.0
 31
0.0
210
0.0
220
0.0
230
1.0
 40
0.432377710238472
 41
0.0
 42
6.283185307179586
  0
CIRCLE
  5
3C3
330
1F
100
AcDbEntity
  8
0
  6
Continuous
370
    35
100
AcDbCircle
 10
-4533.571199395732
 20
2160.937571048918
 30
0.0
 40
7.999999999999119
  0
CIRCLE
  5
3C4
330
1F
100
AcDbEntity
  8
0
  6
Continuous
370
    35
100
AcDbCircle
 10
-4175.956638063308
 20
2169.425322514235
 30
0.0
 40
8.000000000000007
  0
CIRCLE
  5
3C5
330
1F
100
AcDbEntity
  8
0
  6
Continuous
370
    35
100
AcDbCircle
 10
-4317.956638063308
 20
2169.425322514235
 30
0.0
 40
8.000000000000007
  0
CIRCLE
  5
3C6
330
1F
100
AcDbEntity
  8
0
  6
Continuous
370
    13
100
AcDbCircle
 10
-4671.572472383472
 20
2133.925322514235
 30
0.0
 40
4.906903872802337
  0
CIRCLE
  5
3C7
330
1F
100
AcDbEntity
  8
0
  6
Continuous
370
    13
100
AcDbCircle
 10
-4621.572472383472
 20
2133.925322514235
 30
0.0
 40
4.906903872802337
  0
CIRCLE
  5
3C8
330
1F
100
AcDbEntity
  8
0
  6
Continuous
370
    13
100
AcDbCircle
 10
-4571.572472383471
 20
2133.925322514235
 30
0.0
 40
4.906903872802337
  0
CIRCLE
  5
3C9
330
1F
100
AcDbEntity
  8
0
  6
Continuous
370
    13
100
AcDbCircle
 10
-4721.572472383473
 20
2133.925322514235
 30
0.0
 40
4.906903872802337
  0
CIRCLE
  5
3CA
330
1F
100
AcDbEntity
  8
0
  6
Continuous
370
    13
100
AcDbCircle
 10
-4771.572472383474
 20
2133.925322514235
 30
0.0
 40
4.906903872802337
  0
CIRCLE
  5
3CB
330
1F
100
AcDbEntity
  8
0
  6
Continuous
370
    13
100
AcDbCircle
 10
-4821.572472383475
 20
2133.925322514235
 30
0.0
 40
4.906903872802337
  0
CIRCLE
  5
3CC
330
1F
100
AcDbEntity
  8
0
  6
Continuous
370
    13
100
AcDbCircle
 10
-4871.572472383475
 20
2133.925322514235
 30
0.0
 40
4.906903872802337
  0
CIRCLE
  5
3CD
330
1F
100
AcDbEntity
  8
0
  6
Continuous
370
    13
100
AcDbCircle
 10
-4971.572472383476
 20
2133.925322514235
 30
0.0
 40
4.906903872802337
  0
CIRCLE
  5
3CE
330
1F
100
AcDbEntity
  8
0
  6
Continuous
370
    13
100
AcDbCircle
 10
-5021.572472383477
 20
2133.925322514235
 30
0.0
 40
4.906903872802337
  0
CIRCLE
  5
3CF
330
1F
100
AcDbEntity
  8
0
  6
Continuous
370
    13
100
AcDbCircle
 10
-5071.572472383478
 20
2133.925322514235
 30
0.0
 40
4.906903872802337
  0
CIRCLE
  5
3D0
330
1F
100
AcDbEntity
  8
0
  6
Continuous
370
    13
100
AcDbCircle
 10
-5121.572472383478
 20
2133.925322514235
 30
0.0
 40
4.906903872802337
  0
CIRCLE
  5
3D1
330
1F
100
AcDbEntity
  8
0
  6
Continuous
370
    13
100
AcDbCircle
 10
-5171.572472383479
 20
2133.925322514235
 30
0.0
 40
4.906903872802337
  0
CIRCLE
  5
3D2
330
1F
100
AcDbEntity
  8
0
  6
Continuous
370
    13
100
AcDbCircle
 10
-5221.57247238348
 20
2133.925322514235
 30
0.0
 40
4.906903872802337
  0
CIRCLE
  5
3D3
330
1F
100
AcDbEntity
  8
0
  6
Continuous
370
    13
100
AcDbCircle
 10
-5271.572472383481
 20
2133.925322514235
 30
0.0
 40
4.906903872802337
  0
CIRCLE
  5
3D4
330
1F
100
AcDbEntity
  8
0
  6
Continuous
370
    13
100
AcDbCircle
 10
-5321.572472383481
 20
2133.925322514235
 30
0.0
 40
4.906903872802337
  0
CIRCLE
  5
3D5
330
1F
100
AcDbEntity
  8
0
  6
Continuous
370
    13
100
AcDbCircle
 10
-5371.572472383482
 20
2133.925322514235
 30
0.0
 40
4.906903872802337
  0
CIRCLE
  5
3D6
330
1F
100
AcDbEntity
  8
0
  6
Continuous
370
    13
100
AcDbCircle
 10
-5421.572472383483
 20
2133.925322514235
 30
0.0
 40
4.906903872802337
  0
CIRCLE
  5
3D7
330
1F
100
AcDbEntity
  8
0
  6
Continuous
370
    13
100
AcDbCircle
 10
-5471.572472383484
 20
2133.925322514235
 30
0.0
 40
4.906903872802337
  0
CIRCLE
  5
3D8
330
1F
100
AcDbEntity
  8
0
  6
Continuous
370
    13
100
AcDbCircle
 10
-5521.572472383485
 20
2133.925322514235
 30
0.0
 40
4.906903872802337
  0
CIRCLE
  5
3D9
330
1F
100
AcDbEntity
  8
0
  6
Continuous
370
    13
100
AcDbCircle
 10
-5571.572472383485
 20
2133.925322514235
 30
0.0
 40
4.906903872802337
  0
CIRCLE
  5
3DA
330
1F
100
AcDbEntity
  8
@__WIDOCZNE
  6
Przerywana gęsta
370
    50
100
AcDbCircle
 10
-2182.883362090924
 20
114.5714975478511
 30
0.0
 40
250.8602075252341
  0
CIRCLE
  5
3DB
330
1F
100
AcDbEntity
  8
@__WIDOCZNE
  6
Przerywana gęsta
370
    50
100
AcDbCircle
 10
-4236.084864891859
 20
1824.921146150423
 30
0.0
 40
536.5372393306463
  0
SPLINE
  5
3DC
330
1F
100
AcDbEntity
  8
0
  6
Continuous
370
    13
100
AcDbSpline
210
0.0
220
0.0
230
1.0
 70
     8
 71
     3
 72
    77
 73
    73
 74
     0
 42
0.00001
 43
0.00001
 40
0.0
 40
0.0
 40
0.0
 40
0.0
 40
1.0
 40
1.0
 40
1.0
 40
2.0
 40
2.0
 40
2.0
 40
3.0
 40
3.0
 40
3.0
 40
4.0
 40
4.0
 40
4.0
 40
5.0
 40
5.0
 40
5.0
 40
6.0
 40
6.0
 40
6.0
 40
7.0
 40
7.0
 40
7.0
 40
8.0
 40
8.0
 40
8.0
 40
9.0
 40
9.0
 40
9.0
 40
10.0
 40
10.0
 40
10.0
 40
11.0
 40
11.0
 40
11.0
 40
12.0
 40
12.0
 40
12.0
 40
13.0
 40
13.0
 40
13.0
 40
14.0
 40
14.0
 40
14.0
 40
15.0
 40
15.0
 40
15.0
 40
16.0
 40
16.0
 40
16.0
 40
17.0
 40
17.0
 40
17.0
 40
18.0
 40
18.0
 40
18.0
 40
19.0
 40
19.0
 40
19.0
 40
20.0
 40
20.0
 40
20.0
 40
21.0
 40
21.0
 40
21.0
 40
22.0
 40
22.0
 40
22.0
 40
23.0
 40
23.0
 40
23.0
 40
24.0
 40
24.0
 40
24.0
 40
24.0
 10
-3985.456638063306
 20
2201.018117799237
 30
0.0
 10
-3977.111262660914
 20
2201.701747091798
 30
0.0
 10
-3974.34904617889
 20
2202.439117323458
 30
0.0
 10
-3968.763259457363
 20
2202.352736885056
 30
0.0
 10
-3962.076447066467
 20
2202.249329824488
 30
0.0
 10
-3955.466478546228
 20
2201.071682622741
 30
0.0
 10
-3948.895688515636
 20
2199.799464673967
 30
0.0
 10
-3916.524950702714
 20
2193.531933149
 30
0.0
 10
-3883.902227805775
 20
2185.207324847701
 30
0.0
 10
-3851.980563393562
 20
2192.4430141952
 30
0.0
 10
-3845.507673616145
 20
2193.910225271827
 30
0.0
 10
-3839.20398863549
 20
2196.147139546749
 30
0.0
 10
-3832.639078402822
 20
2197.105306334403
 30
0.0
 10
-3809.989490378015
 20
2200.41107628864
 30
0.0
 10
-3787.887572762951
 20
2189.448810244372
 30
0.0
 10
-3764.943880935244
 20
2190.658144670823
 30
0.0
 10
-3741.493634477338
 20
2191.894178983142
 30
0.0
 10
-3719.265397919655
 20
2206.31600820018
 30
0.0
 10
-3697.248683467658
 20
2199.254360222264
 30
0.0
 10
-3683.076810898035
 20
2194.708869318398
 30
0.0
 10
-3672.189259017232
 20
2182.338281320763
 30
0.0
 10
-3657.491186542254
 20
2180.987402175455
 30
0.0
 10
-3638.826981571961
 20
2179.272001377082
 30
0.0
 10
-3624.505556890379
 20
2196.255574051557
 30
0.0
 10
-3605.913893233621
 20
2200.328887166193
 30
0.0
 10
-3588.885624543424
 20
2204.059670567608
 30
0.0
 10
-3571.865893156719
 20
2196.232332489544
 30
0.0
 10
-3554.336599924989
 20
2194.956252446544
 30
0.0
 10
-3538.471082664463
 20
2193.801290310856
 30
0.0
 10
-3522.830355126981
 20
2197.961366040845
 30
0.0
 10
-3507.057414392074
 20
2200.328887166193
 30
0.0
 10
-3458.559200013337
 20
2207.608477511016
 30
0.0
 10
-3409.335925458553
 20
2198.881874495768
 30
0.0
 10
-3360.227962018019
 20
2200.20148277381
 30
0.0
 10
-3323.837851148283
 20
2201.17934233422
 30
0.0
 10
-3287.66882164116
 20
2207.784750460144
 30
0.0
 10
-3251.350763542636
 20
2205.784928849471
 30
0.0
 10
-3200.462858921801
 20
2202.982831581314
 30
0.0
 10
-3151.254309910119
 20
2184.098087787272
 30
0.0
 10
-3100.562347482407
 20
2187.744014006817
 30
0.0
 10
-3075.250437321818
 20
2189.564526618709
 30
0.0
 10
-3050.576079444747
 20
2197.105442237602
 30
0.0
 10
-3025.221197478379
 20
2197.40975973598
 30
0.0
 10
-2992.239047455069
 20
2197.805622173815
 30
0.0
 10
-2960.435668610334
 20
2186.226886869727
 30
0.0
 10
-2927.490062147777
 20
2183.749276533073
 30
0.0
 10
-2881.740796680821
 20
2180.308791892303
 30
0.0
 10
-2836.65333791623
 20
2194.925835227735
 30
0.0
 10
-2790.71646230063
 20
2194.61803669815
 30
0.0
 10
-2748.503635832441
 20
2194.335191037829
 30
0.0
 10
-2707.283808002504
 20
2181.613421134241
 30
0.0
 10
-2665.074526716726
 20
2181.575191760634
 30
0.0
 10
-2623.819352001016
 20
2181.537826531012
 30
0.0
 10
-2583.510940622101
 20
2193.584325145041
 30
0.0
 10
-2542.253111933729
 20
2194.61803669815
 30
0.0
 10
-2495.466512541263
 20
2195.790271153045
 30
0.0
 10
-2449.484366942055
 20
2182.714046310773
 30
0.0
 10
-2402.662440022118
 20
2182.617283165878
 30
0.0
 10
-2354.908916785334
 20
2182.518594765118
 30
0.0
 10
-2308.009678797172
 20
2195.822680197609
 30
0.0
 10
-2260.289085112865
 20
2194.61803669815
 30
0.0
 10
-2224.72689231647
 20
2193.72031600628
 30
0.0
 10
-2189.721849799555
 20
2184.638486355237
 30
0.0
 10
-2154.18999372479
 20
2185.685058951824
 30
0.0
 10
-2113.739793321933
 20
2186.876498858004
 30
0.0
 10
-2074.579834877083
 20
2201.050738789338
 30
0.0
 10
-2034.159519048608
 20
2200.20148277381
 30
0.0
 10
-2005.041175511682
 20
2199.589688236729
 30
0.0
 10
-1976.695201616654
 20
2191.109641672815
 30
0.0
 10
-1947.617621060825
 20
2189.154242402201
 30
0.0
 10
-1918.253234002702
 20
2187.179556065241
 30
0.0
 10
-1865.792891205071
 20
2190.328883958702
 30
0.0
 10
-1864.721079655093
 20
2189.583617726893
 30
0.0
  0
MTEXT
  5
3DD
330
1F
100
AcDbEntity
  8
0
  6
Continuous
370
    13
100
AcDbMText
 10
-1523.828164484494
 20
2229.209189012974
 30
0.0
 40
40.0
 41
0.0
 71
     1
 72
     1
  1
{- TAŚMA DYLATACYJNA NA PRZERWIE \P   TECHNOLOGICZNEJ}
  7
GENERATED_STYLE_1
 73
     1
 44
0.920728100621631
  0
MTEXT
  5
3DE
330
1F
100
AcDbEntity
  8
0
  6
Continuous
370
    13
100
AcDbMText
 10
-1653.02895310535
 20
2787.444437407689
 30
0.0
 40
60.0
 41
0.0
 71
     1
 72
     1
  1
{\LLEGENDA:}
  7
GENERATED_STYLE_1
 73
     1
 44
1.0
  0
MTEXT
  5
3DF
330
1F
100
AcDbEntity
  8
0
  6
Continuous
370
    13
100
AcDbMText
 10
-1523.828164484494
 20
2593.488667857849
 30
0.0
 40
40.0
 41
0.0
 71
     4
 72
     1
  1
{- SZCZEGÓŁ GŁOWICY BASENU\P  (według rysunku  8.01.01)}
  7
GENERATED_STYLE_1
 73
     1
 44
0.9186980100444315
  0
MTEXT
  5
3E0
330
1F
100
AcDbEntity
  8
0
  6
Continuous
370
    13
100
AcDbMText
 10
-1523.828164484494
 20
2455.064748865827
 30
0.0
 40
40.0
 41
0.0
 71
     4
 72
     1
  1
{- SZCZEGÓŁ SPOCZNIKA I NAROŻNIKA\P  (według rysunku  8.01.02)}
  7
GENERATED_STYLE_1
 73
     1
 44
0.9186980100444315
  0
MTEXT
  5
3E1
330
1F
100
AcDbEntity
  8
0
  6
Continuous
370
    13
100
AcDbMText
 10
-1523.828164484494
 20
2315.064748865826
 30
0.0
 40
40.0
 41
0.0
 71
     4
 72
     1
  1
{- SZCZEGÓŁ PRZEJŚCIA INSTALACYJNEGO\P  (według rysunku  8.01.03)}
  7
GENERATED_STYLE_1
 73
     1
 44
0.9186980100444315
  0
MTEXT
  5
3E3
330
1F
100
AcDbEntity
  8
0
  6
Continuous
370
    13
100
AcDbMText
 10
-1523.828164484494
 20
2089.209189012973
 30
0.0
 40
40.00000000000001
 41
0.0
 71
     1
 72
     1
  3
\A1;{\fArial|b0|i0|c238|p38;- PROFILACJA, KOREKTA WYMIARÓW ORAZ\P  UZUPEŁNIENIE UBYTKÓW - SYSTEM \fArial|b1|i0|c238|p38;BOTAMENT\fArial|b0|i0|c238|p38; \P - MOSTEK SZCZEPNY - \fArial|b1|i0|c238|p38;BOTAMENT HB1\P\fArial|b0|i0|c238|p38; - GRUBOZIARNI
  1
STA MASA NAPRAWCZA:\P   \fArial|b1|i0|c238|p38;BOTAMENT M03\fArial|b0|i0|c238|p38; (gr. warstwy 6 ÷ 50 mm)\P - DROBNOZIARNISTA MASA SZPACHLOWA:\P   \fArial|b1|i0|c238|p38;BOTAMENT M06\fArial|b0|i0|c238|p38; (gr. warstwy 2 ÷ 6 mm)}
  7
GENERATED_STYLE_1
 73
     1
 44
0.9098453538609149
  0
MTEXT
  5
3E4
330
1F
100
AcDbEntity
  8
0
  6
Continuous
370
    13
100
AcDbMText
 10
-1641.489846348028
 20
1419.212960085802
 30
0.0
 40
39.99999999999998
 41
0.0
 71
     1
 72
     1
  3
\A1;{\fArial|b1|i0|c238|p38;PODŁOGA NIECKI BASENU\P\fArial|b0|i0|c238|p38;• PŁYTKI CERAMICZNE BASENOWE\P• WYPEŁNIENIE SPOIN - ZAPRAWA CHEMOODPORNA\P  - \fArial|b1|i0|c238|p38;BOTAMENT CF200\fArial|b0|i0|c238|p38; lub\P  - \fArial|b1|i0|c238|p38;MULT
  3
IFUGE Diamond MAX\P\fArial|b0|i0|c238|p38;• ZAPRAWA KLEJOWA\P  - \fArial|b1|i0|c238|p38;MULTILIGHT \fArial|b0|i0|c238|p38;lub\P  - \fArial|b1|i0|c238|p38;BOTAMENT M21HP\fArial|b0|i0|c238|p38; \P  - \fArial|b1|i0|c238|p38;MULTISTONE\fArial|b0|i0|c238
  1
|p38; (do mozaiki szklanej)\P• IZOLACJA PRZECIWWODNA - \fArial|b1|i0|c238|p38;BOTAMENT MD28 \P\fArial|b0|i0|c238|p38;• PROFILACJA, KOREKTA WYMIARÓW ORAZ\P  UZUPEŁNIENIE UBYTKÓW - SYSTEM BOTAMENT \P• ŻELBETOWA NIECKA BASENU - PŁYTA DENNA}
  7
GENERATED_STYLE_2
 73
     1
 44
0.9030098961675437
  0
MTEXT
  5
3E5
330
1F
100
AcDbEntity
  8
0
  6
Continuous
370
    13
100
AcDbMText
 10
-3371.744254447725
 20
1430.092960085802
 30
0.0
 40
39.99999999999999
 41
0.0
 71
     1
 72
     1
  3
\A1;{\fArial|b1|i0|c238|p38;ŚCIANA NIECKI BASENU\P\fArial|b0|i0|c238|p38;• PŁYTKI CERAMICZNE BASENOWE\P• WYPEŁNIENIE SPOIN - ZAPRAWA CHEMOODPORNA\P  - \fArial|b1|i0|c238|p38;BOTAMENT CF200\fArial|b0|i0|c238|p38; lub\P  - \fArial|b1|i0|c238|p38;MULTI
  3
FUGE Diamond MAX\P\fArial|b0|i0|c238|p38;• ZAPRAWA KLEJOWA\P  - \fArial|b1|i0|c238|p38;MULTILIGHT\P\fArial|b0|i0|c238|p38;  - \fArial|b1|i0|c238|p38;BOTAMENT M21HP\fArial|b0|i0|c238|p38; lub\P  - \fArial|b1|i0|c238|p38;MULTISTONE\fArial|b0|i0|c238|p
  1
38; (do mozaiki szklanej)\P• IZOLACJA PRZECIWWODNA - \fArial|b1|i0|c238|p38;BOTAMENT MD28\P\fArial|b0|i0|c238|p38;• PROFILACJA, KOREKTA WYMIARÓW ORAZ\P  UZUPEŁNIENIE UBYTKÓW - SYSTEM BOTAMENT \P• ŻELBETOWA NIECKA BASENU - ŚCIANA BOCZNA}
  7
GENERATED_STYLE_2
 73
     1
 44
0.9010681753642502
  0
MTEXT
  5
3E6
330
1F
100
AcDbEntity
  8
0
  6
Continuous
370
    13
100
AcDbMText
 10
-5495.264582400499
 20
-163.0305529445643
 30
0.0
 40
40.0
 41
0.0
 71
     7
 72
     1
  3
\A1;{\fArial|b1|i0|c238|p38;PODŁOGA PRZY BASENIE\P\fArial|b0|i0|c238|p38;• PŁYTKI CERAMICZNE,\P  BASENOWE ANTYPOŚLIZGOWE\P  WYPEŁNIENIE SPOIN - ZAPRAWA\P  CHEMOODPORNA:\P  - \fArial|b1|i0|c238|p38;BOTAMENT CF200\fArial|b0|i0|c238|p38; lub\P  - \fAri
  3
al|b1|i0|c238|p38;MULTIFUGE Diamond MAX\P\fArial|b0|i0|c238|p38;• ZAPRAWA KLEJOWA:\P  - \fArial|b1|i0|c238|p38;BOTAMENT M29/M29HP\fArial|b0|i0|c238|p38; lub\P  - \fArial|b1|i0|c238|p38;MULTISTONE \fArial|b0|i0|c238|p38;(do mozaiki szklanej)\P• IZOLA
  3
CJA PRZECIWWODNA\P  - \fArial|b1|i0|c238|p38;BOTAMENT MD28\fArial|b0|i0|c238|p38; lub\P  - \fArial|b1|i0|c238|p38;BOTAMENT AE\fArial|b0|i0|c238|p38; (mata hydroizolacyjna) \P  KLEJONA  NA ZAPRAWIE \P  \fArial|b1|i0|c238|p38;BOTAMENT M21/M21 HP Speed
  3
\P\fArial|b0|i0|c238|p38;• WARSTWA GRUNTUJĄCA \P• JASTRYCH CEMENTOWY \P  Z OGRZEWANIEM PODŁOGOWYM\P• WARSTWA ROZDZIELAJĄCA - FOLIA\P• IZOLACJA TERMICZNA - XPS\P  (polistyren ekstrudowany)\P• IZOLACJA REAKTYWNA\P  - \fArial|b1|i0|c238|p38;BOTAMENT RD
  1
1/RD Flow/RD2\P\fArial|b0|i0|c238|p38;• STROPOWA PŁYTA ŻELBETOWA}
  7
GENERATED_STYLE_2
 73
     1
 44
0.922862103002111
  0
MTEXT
  5
3E7
330
1F
100
AcDbEntity
  8
@__WIDOCZNE
  6
Continuous
370
    13
100
AcDbMText
 10
-1470.098999879061
 20
-443.341160956567
 30
0.0
 40
55.99999999999999
 41
0.0
 71
     5
 72
     1
  1
{IZOLACJA BASENU\P(widok ogólny)}
  7
GENERATED_STYLE_2
 73
     1
 44
0.9189743132755591
  0
MTEXT
  5
3E8
330
1F
100
AcDbEntity
  8
@__WIDOCZNE
  6
Continuous
370
    13
100
AcDbMText
 10
-596.0201824173116
 20
-570.4258750468543
 30
0.0
 40
80.0
 41
0.0
 71
     7
 72
     1
  1
{ 08.01.00.}
  7
GENERATED_STYLE_2
 73
     1
 44
1.0
  0
MTEXT
  5
3E9
330
1F
100
AcDbEntity
  8
@__WIDOCZNE
  6
Continuous
370
    13
100
AcDbMText
 10
-2454.143190100112
 20
-657.6256384219001
 30
0.0
 40
30.0
 41
0.0
 71
     4
 72
     1
  1
{Rysunek nie wyczerpuje wszystkich aspektów technicznych zagadnienia, a jego integralną częścią są karty techniczne \Pposzczególnych produktów. Szczegółowych informacji udzielają technicy zastosowań i doradcy handlowo-techniczni Botament. }
  7
GENERATED_STYLE_1
 73
     1
 44
0.9278263558916975
  0
MTEXT
  5
3EA
330
1F
100
AcDbEntity
  8
@__WIDOCZNE
  6
Continuous
370
    13
100
AcDbMText
 10
-3020.683270288165
 20
-653.9155107321476
 30
0.0
 40
30.0
 41
0.0
 71
     5
 72
     1
  1
{ ul. Prądzyńskiego 20, 63-000 Środa Wlkp., botament.pl\P +48 606-318-643, 61-286-45-17, technik@botament.pl  }
  7
GENERATED_STYLE_1
 73
     1
 44
0.9181612291118321
  0
MTEXT
  5
3EB
330
1F
100
AcDbEntity
  8
@__WIDOCZNE
  6
Continuous
370
    13
100
AcDbMText
 10
-596.0201809631691
 20
-384.1745341982129
 30
0.0
 40
30.0
 41
0.0
 71
     1
 72
     1
  1
{ nr rys:}
  7
GENERATED_STYLE_1
 73
     1
 44
1.0
  0
MTEXT
  5
3EC
330
1F
100
AcDbEntity
  8
@__WIDOCZNE
  6
Continuous
370
    13
100
AcDbMText
 10
-544.5887087409469
 20
-284.7300897537796
 30
0.0
 40
30.0
 41
0.0
 71
     2
 72
     1
  1
{ data:}
  7
GENERATED_STYLE_1
 73
     1
 44
1.0
  0
MTEXT
  5
3ED
330
1F
100
AcDbEntity
  8
@__WIDOCZNE
  6
Continuous
370
    13
100
AcDbMText
 10
-198.5259865186146
 20
-284.7300897537796
 30
0.0
 40
30.0
 41
0.0
 71
     2
 72
     1
  1
{ skala:}
  7
GENERATED_STYLE_1
 73
     1
 44
1.0
  0
MTEXT
  5
3EE
330
1F
100
AcDbEntity
  8
@__WIDOCZNE
  6
Continuous
370
    13
100
AcDbMText
 10
-101.2481319297677
 20
-364.4430839389154
 30
0.0
 40
40.0
 41
0.0
 71
     7
 72
     1
  1
{1:20 }
  7
GENERATED_STYLE_1
 73
     1
 44
1.0
  0
MTEXT
  5
3EF
330
1F
100
AcDbEntity
  8
@__WIDOCZNE
  6
Continuous
370
    13
100
AcDbMText
 10
-486.1154525080455
 20
-363.3142561221351
 30
0.0
 40
40.0
 41
0.0
 71
     7
 72
     1
  1
{2023.01. }
  7
GENERATED_STYLE_1
 73
     1
 44
1.0
  0
MTEXT
  5
3F0
330
1F
100
AcDbEntity
  8
@__WIDOCZNE
  6
Continuous
370
    50
100
AcDbMText
 10
-5400.195540611086
 20
2898.000371156916
 30
0.0
 40
40.0
 41
0.0
 71
     9
 72
     1
  1
{druk: 230131}
  7
GENERATED_STYLE_1
 73
     1
 44
1.0
  0
WIPEOUT
  5
3F1
330
1F
100
AcDbEntity
  8
@__WIDOCZNE
  6
Wipeout_Contour
 62
   254
 48
1168.015028902773
370
     0
 92
      140
310
8C000000010000008400000006000000050000003E108858B1BE66C03465DB2C2A927040000000000000000040108858B1BE66C093D7666702016AC000000000000000006454CC9CF5C263C093D7666702016AC000000000000000006254CC9CF5C263C03465DB2C2A92704000000000000000003E108858B1BE66C03465DB
310
2C2A9270400000000000000000
100
AcDbWipeout
 90
        0
 10
-181.9591486604204
 20
-208.0315434464106
 30
0.0
 11
23.86666666666764
 21
0.0
 31
0.0
 12
0.0
 22
473.1668401316418
 32
0.0
 13
1.0
 23
1.0
340
0
 70
    15
280
     1
281
    50
282
    50
283
     0
360
0
 71
     2
 91
        5
 14
-0.4999999999999976
 24
-0.5
 14
-0.5
 24
0.5
 14
0.4999999999999976
 24
0.5
 14
0.5
 24
-0.5
 14
-0.4999999999999976
 24
-0.5
  0
WIPEOUT
  5
3F3
330
1F
100
AcDbEntity
  8
@__WIDOCZNE
  6
Wipeout_Contour
 62
   254
 48
16536.60099300716
370
     0
 92
      140
310
8C00000001000000840000000600000005000000CC41B452C69AADC08DDAC54A38AB864000000000000000006EFF0428F906B1C08DDAC54A38AB864000000000000000006EFF0428F906B1C013634ED3C00B85400000000000000000CC41B452C69AADC009634ED3C00B85400000000000000000CC41B452C69AADC08DDAC5
310
4A38AB86400000000000000000
100
AcDbWipeout
 90
        0
 10
-4358.973266899453
 20
673.4691530345891
 30
0.0
 11
569.5859171670236
 21
0.0
 31
0.0
 12
0.0
 22
51.93333333333476
 32
0.0
 13
1.0
 23
1.0
340
0
 70
    15
280
     1
281
    50
282
    50
283
     0
360
0
 71
     2
 91
        5
 14
0.5
 24
-0.5
 14
-0.5
 24
-0.5
 14
-0.5
 24
0.4999999999999781
 14
0.5
 24
0.5
 14
0.5
 24
-0.5
  0
WIPEOUT
  5
3F4
330
1F
100
AcDbEntity
  8
@__WIDOCZNE
  6
Wipeout_Contour
 62
   254
 48
16519.01236490739
370
     0
 92
      140
310
8C00000001000000840000000600000005000000CC41B452C69AADC08ADAC54A386B854000000000000000006EFF0428F906B1C08ADAC54A386B854000000000000000006EFF0428F906B1C09BEBD65B49AC84400000000000000000CC41B452C69AADC091EBD65B49AC84400000000000000000CC41B452C69AADC08ADAC5
310
4A386B85400000000000000000
100
AcDbWipeout
 90
        0
 10
-4358.973266899453
 20
661.5358197012557
 30
0.0
 11
569.5859171670236
 21
0.0
 31
0.0
 12
0.0
 22
23.86666666666781
 32
0.0
 13
1.0
 23
1.0
340
0
 70
    15
280
     1
281
    50
282
    50
283
     0
360
0
 71
     2
 91
        5
 14
0.5
 24
-0.4999999999999976
 14
-0.5
 24
-0.4999999999999976
 14
-0.5
 24
0.4999999999999548
 14
0.5
 24
0.5000000000000023
 14
0.5
 24
-0.4999999999999976
  0
LINE
  5
3F5
330
1F
100
AcDbEntity
  8
@__WIDOCZNE
  6
Przerywana gęsta
370
    50
100
AcDbLine
 10
-170.0258153270866
 20
-208.0315434464106
 30
0.0
 11
-170.0258153270866
 21
262.952769406272
 31
0.0
  0
LINE
  5
3F6
330
1F
100
AcDbEntity
  8
@__WIDOCZNE
  6
Przerywana gęsta
370
    50
100
AcDbLine
 10
-4358.973266899453
 20
713.4691530345905
 30
0.0
 11
-3779.01924424454
 21
713.4691530345905
 31
0.0
  0
LINE
  5
3F7
330
1F
100
AcDbEntity
  8
@__WIDOCZNE
  6
Przerywana gęsta
370
    50
100
AcDbLine
 10
-4358.973266899453
 20
673.4691530345902
 30
0.0
 11
-3779.01924424454
 21
673.4691530345902
 31
0.0
  0
VIEWPORT
  5
5D
330
1B
100
AcDbEntity
 67
     1
  8
0
  6
Continuous
370
     0
100
AcDbViewport
 10
146.7714373174358
 20
110.6906103509484
 30
0.0
 40
370.5382364532998
 41
276.9616309761105
 68
     1
 69
     1
 12
146.7714373174358
 22
110.6906103509484
 13
0.0
 23
0.0
 14
0.5
 24
0.5
 15
0.0
 25
0.0
 16
0.0
 26
0.0
 36
1.0
 17
0.0
 27
0.0
 37
0.0
 42
50.0
 43
0.0
 44
0.0
 45
276.9616309761105
 50
0.0
 51
0.0
 72
   100
 90
   557152
  1

281
     0
 71
     1
 74
     0
110
0.0
120
0.0
130
0.0
111
1.0
121
0.0
131
0.0
112
0.0
122
1.0
132
0.0
 79
     0
146
0.0
170
     0
  0
INSERT
  5
3FE
102
{ACAD_XDICTIONARY
360
3FF
102
}
330
1B
100
AcDbEntity
 67
     1
  8
0
370
    13
100
AcDbBlockReference
  2
Rysunek_1
 10
0.0
 20
0.0
 30
0.0
  0
VIEWPORT
  5
402
330
1B
100
AcDbEntity
 67
     1
  8
NonPlottable_0
  6
Continuous
 62
    65
370
    20
100
AcDbViewport
 10
146.7714373174357
 20
110.6906103509484
 30
0.0
 40
308.7818637110832
 41
230.8013591467588
 68
     2
 69
     2
 12
0.0
 22
0.0
 13
0.0
 23
0.0
 14
0.5
 24
0.5
 15
0.0
 25
0.0
 16
0.0
 26
0.0
 36
1.0
 17
-2884.020473872133
 27
1398.368299379889
 37
0.0
 42
50.0
 43
0.0
 44
0.0
 45
4616.027182935175
 50
0.0
 51
0.0
 72
   100
 90
   622688
340
404
  1

281
     0
 71
     1
 74
     0
110
0.0
120
0.0
130
0.0
111
1.0
121
0.0
131
0.0
112
0.0
122
1.0
132
0.0
 79
     0
146
0.0
170
     0
  0
LWPOLYLINE
  5
404
102
{ACAD_REACTORS
330
402
102
}
330
1B
100
AcDbEntity
 67
     1
  8
NonPlottable_0
  6
Continuous
 62
    65
370
    20
100
AcDbPolyline
 90
        4
 70
   129
 43
0.0
 10
-7.61949453810587
 20
-4.710069222431009
 10
301.1623691729773
 20
-4.710069222431009
 10
301.1623691729773
 20
226.0912899243278
 10
-7.61949453810587
 20
226.0912899243278
  0
ENDSEC
  0
SECTION
  2
OBJECTS
  0
DICTIONARY
  5
C
330
0
100
AcDbDictionary
281
     1
  3
ACAD_GROUP
350
D
  3
ACAD_LAYOUT
350
1A
  3
ACAD_MLEADERSTYLE
350
40B
  3
ACAD_MLINESTYLE
350
17
  3
ACAD_PLOTSETTINGS
350
19
  3
ACAD_PLOTSTYLENAME
350
E
  3
ACAD_SCALELIST
350
3B
  3
ACAD_TABLESTYLE
350
40A
  3
ACAD_VISUALSTYLE
350
2A
  3
WATERMARKS
350
408
  0
DICTIONARY
  5
3FF
330
3FE
100
AcDbDictionary
280
     1
281
     1
  3
ACAD_FILTER
360
400
  0
DICTIONARY
  5
D
102
{ACAD_REACTORS
330
C
102
}
330
C
100
AcDbDictionary
281
     1
  0
DICTIONARY
  5
1A
102
{ACAD_REACTORS
330
C
102
}
330
C
100
AcDbDictionary
281
     1
  3
02.04.2-20 ŚCIANA+PIWICA 08.01.
350
1E
  3
Layout2
350
26
  3
Model
350
22
  0
DICTIONARY
  5
40B
102
{ACAD_REACTORS
330
C
102
}
330
C
100
AcDbDictionary
281
     1
  0
DICTIONARY
  5
17
102
{ACAD_REACTORS
330
C
102
}
330
C
100
AcDbDictionary
281
     1
  3
Standard
350
18
  0
DICTIONARY
  5
19
102
{ACAD_REACTORS
330
C
102
}
330
C
100
AcDbDictionary
281
     1
  0
ACDBDICTIONARYWDFLT
  5
E
102
{ACAD_REACTORS
330
C
102
}
330
C
100
AcDbDictionary
281
     1
  3
Normal
350
F
100
AcDbDictionaryWithDefault
340
F
  0
DICTIONARY
  5
3B
102
{ACAD_REACTORS
330
C
102
}
330
C
100
AcDbDictionary
281
     1
  3
A0
350
3C
  3
A1
350
3D
  3
A2
350
3E
  3
A3
350
3F
  3
A4
350
40
  3
A5
350
41
  3
A6
350
42
  3
A7
350
43
  3
A8
350
44
  3
A9
350
45
  3
B0
350
46
  3
B1
350
47
  3
B2
350
48
  3
B3
350
49
  3
B4
350
4A
  3
B5
350
4B
  3
B6
350
4C
  3
B7
350
4D
  3
B8
350
4E
  3
B9
350
4F
  3
C0
350
50
  3
C1
350
51
  3
C2
350
52
  3
C3
350
53
  3
C4
350
54
  3
C5
350
55
  3
C6
350
56
  3
C7
350
57
  3
C8
350
58
  3
C9
350
59
  3
D0
350
5A
  3
D1
350
5B
  3
D2
350
5C
  0
DICTIONARY
  5
40A
102
{ACAD_REACTORS
330
C
102
}
330
C
100
AcDbDictionary
281
     1
  0
DICTIONARY
  5
2A
102
{ACAD_REACTORS
330
C
102
}
330
C
100
AcDbDictionary
281
     1
  3
2dWireframe
350
2F
  3
3D Hidden
350
31
  3
3dWireframe
350
30
  3
Basic
350
32
  3
Brighten
350
36
  3
ColorChange
350
3A
  3
Conceptual
350
34
  3
Dim
350
35
  3
Facepattern
350
39
  3
Flat
350
2B
  3
FlatWithEdges
350
2C
  3
Gouraud
350
2D
  3
GouraudWithEdges
350
2E
  3
Linepattern
350
38
  3
Realistic
350
33
  3
Thicken
350
37
  0
DICTIONARY
  5
408
102
{ACAD_REACTORS
330
C
102
}
330
C
100
AcDbDictionary
281
     1
  3
AC_WATERMARK
350
409
  0
DICTIONARY
  5
400
102
{ACAD_REACTORS
330
3FF
102
}
330
3FF
100
AcDbDictionary
280
     1
281
     1
  3
SPATIAL
360
401
  0
LAYOUT
  5
1E
102
{ACAD_REACTORS
330
1A
102
}
330
1A
100
AcDbPlotSettings
  1

  2
none_device
  4

  6

 40
0.0
 41
0.0
 42
0.0
 43
0.0
 44
297.0
 45
210.0
 46
0.0
 47
0.0
 48
0.0
 49
0.0
140
0.0
141
0.0
142
1.0
143
1.0
 70
   688
 72
     1
 73
     0
 74
     5
  7

 75
    16
 76
     0
 77
     2
 78
   300
147
1.0
148
0.0
149
0.0
100
AcDbLayout
  1
02.04.2-20 ŚCIANA+PIWICA 08.01.
 70
     0
 71
     1
 10
-7.61949453810587
 20
-4.710069222431009
 11
301.1623691729773
 21
226.0912899243278
 12
0.0
 22
0.0
 32
0.0
 14
-7.61949453810587
 24
-4.710069222431009
 34
0.0
 15
301.1623691729773
 25
226.0912899243278
 35
0.0
146
0.0
 13
0.0
 23
0.0
 33
0.0
 16
1.0
 26
0.0
 36
0.0
 17
0.0
 27
1.0
 37
0.0
 76
     0
330
1B
331
5D
  0
LAYOUT
  5
26
102
{ACAD_REACTORS
330
1A
102
}
330
1A
100
AcDbPlotSettings
  1

  2
none_device
  4

  6

 40
0.0
 41
0.0
 42
0.0
 43
0.0
 44
0.0
 45
0.0
 46
0.0
 47
0.0
 48
0.0
 49
0.0
140
0.0
141
0.0
142
1.0
143
1.0
 70
   688
 72
     0
 73
     0
 74
     5
  7

 75
    16
 76
     0
 77
     2
 78
   300
147
1.0
148
0.0
149
0.0
100
AcDbLayout
  1
Layout2
 70
     1
 71
     2
 10
0.0
 20
0.0
 11
0.0
 21
0.0
 12
0.0
 22
0.0
 32
0.0
 14
0.0
 24
0.0
 34
0.0
 15
0.0
 25
0.0
 35
0.0
146
0.0
 13
0.0
 23
0.0
 33
0.0
 16
1.0
 26
0.0
 36
0.0
 17
0.0
 27
1.0
 37
0.0
 76
     0
330
23
  0
LAYOUT
  5
22
102
{ACAD_REACTORS
330
1A
102
}
330
1A
100
AcDbPlotSettings
  1

  2
none_device
  4

  6

 40
0.0
 41
0.0
 42
0.0
 43
0.0
 44
0.0
 45
0.0
 46
0.0
 47
0.0
 48
0.0
 49
0.0
140
0.0
141
0.0
142
1.0
143
1.0
 70
  1712
 72
     0
 73
     0
 74
     0
  7

 75
     0
 76
     0
 77
     2
 78
   300
147
1.0
148
0.0
149
0.0
100
AcDbLayout
  1
Model
 70
     1
 71
     0
 10
0.0
 20
0.0
 11
12.0
 21
9.0
 12
0.0
 22
0.0
 32
0.0
 14
1.000000000000000E+20
 24
1.000000000000000E+20
 34
1.000000000000000E+20
 15
-1.000000000000000E+20
 25
-1.000000000000000E+20
 35
-1.000000000000000E+20
146
0.0
 13
0.0
 23
0.0
 33
0.0
 16
1.0
 26
0.0
 36
0.0
 17
0.0
 27
1.0
 37
0.0
 76
     0
330
1F
331
29
  0
MLINESTYLE
  5
18
102
{ACAD_REACTORS
330
17
102
}
330
17
100
AcDbMlineStyle
  2
Standard
 70
     0
  3

 62
   256
 51
90.0
 52
90.0
 71
     2
 49
0.5
 62
   256
  6
BYLAYER
 49
-0.5
 62
   256
  6
BYLAYER
  0
ACDBPLACEHOLDER
  5
F
102
{ACAD_REACTORS
330
E
102
}
330
E
  0
SCALE
  5
3C
102
{ACAD_REACTORS
330
3B
102
}
330
3B
100
AcDbScale
 70
     0
300
1:1
140
1.0
141
1.0
290
     1
  0
SCALE
  5
3D
102
{ACAD_REACTORS
330
3B
102
}
330
3B
100
AcDbScale
 70
     0
300
1:2
140
1.0
141
2.0
290
     0
  0
SCALE
  5
3E
102
{ACAD_REACTORS
330
3B
102
}
330
3B
100
AcDbScale
 70
     0
300
1:4
140
1.0
141
4.0
290
     0
  0
SCALE
  5
3F
102
{ACAD_REACTORS
330
3B
102
}
330
3B
100
AcDbScale
 70
     0
300
1:5
140
1.0
141
5.0
290
     0
  0
SCALE
  5
40
102
{ACAD_REACTORS
330
3B
102
}
330
3B
100
AcDbScale
 70
     0
300
1:8
140
1.0
141
8.0
290
     0
  0
SCALE
  5
41
102
{ACAD_REACTORS
330
3B
102
}
330
3B
100
AcDbScale
 70
     0
300
1:10
140
1.0
141
10.0
290
     0
  0
SCALE
  5
42
102
{ACAD_REACTORS
330
3B
102
}
330
3B
100
AcDbScale
 70
     0
300
1:16
140
1.0
141
16.0
290
     0
  0
SCALE
  5
43
102
{ACAD_REACTORS
330
3B
102
}
330
3B
100
AcDbScale
 70
     0
300
1:20
140
1.0
141
20.0
290
     0
  0
SCALE
  5
44
102
{ACAD_REACTORS
330
3B
102
}
330
3B
100
AcDbScale
 70
     0
300
1:30
140
1.0
141
30.0
290
     0
  0
SCALE
  5
45
102
{ACAD_REACTORS
330
3B
102
}
330
3B
100
AcDbScale
 70
     0
300
1:40
140
1.0
141
40.0
290
     0
  0
SCALE
  5
46
102
{ACAD_REACTORS
330
3B
102
}
330
3B
100
AcDbScale
 70
     0
300
1:50
140
1.0
141
50.0
290
     0
  0
SCALE
  5
47
102
{ACAD_REACTORS
330
3B
102
}
330
3B
100
AcDbScale
 70
     0
300
1:100
140
1.0
141
100.0
290
     0
  0
SCALE
  5
48
102
{ACAD_REACTORS
330
3B
102
}
330
3B
100
AcDbScale
 70
     0
300
2:1
140
2.0
141
1.0
290
     0
  0
SCALE
  5
49
102
{ACAD_REACTORS
330
3B
102
}
330
3B
100
AcDbScale
 70
     0
300
4:1
140
4.0
141
1.0
290
     0
  0
SCALE
  5
4A
102
{ACAD_REACTORS
330
3B
102
}
330
3B
100
AcDbScale
 70
     0
300
8:1
140
8.0
141
1.0
290
     0
  0
SCALE
  5
4B
102
{ACAD_REACTORS
330
3B
102
}
330
3B
100
AcDbScale
 70
     0
300
10:1
140
10.0
141
1.0
290
     0
  0
SCALE
  5
4C
102
{ACAD_REACTORS
330
3B
102
}
330
3B
100
AcDbScale
 70
     0
300
100:1
140
100.0
141
1.0
290
     0
  0
SCALE
  5
4D
102
{ACAD_REACTORS
330
3B
102
}
330
3B
100
AcDbScale
 70
     0
300
1/128" = 1'-0"
140
0.0078125
141
12.0
290
     0
  0
SCALE
  5
4E
102
{ACAD_REACTORS
330
3B
102
}
330
3B
100
AcDbScale
 70
     0
300
1/64" = 1'-0"
140
0.015625
141
12.0
290
     0
  0
SCALE
  5
4F
102
{ACAD_REACTORS
330
3B
102
}
330
3B
100
AcDbScale
 70
     0
300
1/32" = 1'-0"
140
0.03125
141
12.0
290
     0
  0
SCALE
  5
50
102
{ACAD_REACTORS
330
3B
102
}
330
3B
100
AcDbScale
 70
     0
300
1/16" = 1'-0"
140
0.0625
141
12.0
290
     0
  0
SCALE
  5
51
102
{ACAD_REACTORS
330
3B
102
}
330
3B
100
AcDbScale
 70
     0
300
3/32" = 1'-0"
140
0.09375
141
12.0
290
     0
  0
SCALE
  5
52
102
{ACAD_REACTORS
330
3B
102
}
330
3B
100
AcDbScale
 70
     0
300
1/8" = 1'-0"
140
0.125
141
12.0
290
     0
  0
SCALE
  5
53
102
{ACAD_REACTORS
330
3B
102
}
330
3B
100
AcDbScale
 70
     0
300
3/16" = 1'-0"
140
0.1875
141
12.0
290
     0
  0
SCALE
  5
54
102
{ACAD_REACTORS
330
3B
102
}
330
3B
100
AcDbScale
 70
     0
300
1/4" = 1'-0"
140
0.25
141
12.0
290
     0
  0
SCALE
  5
55
102
{ACAD_REACTORS
330
3B
102
}
330
3B
100
AcDbScale
 70
     0
300
3/8" = 1'-0"
140
0.375
141
12.0
290
     0
  0
SCALE
  5
56
102
{ACAD_REACTORS
330
3B
102
}
330
3B
100
AcDbScale
 70
     0
300
1/2" = 1'-0"
140
0.5
141
12.0
290
     0
  0
SCALE
  5
57
102
{ACAD_REACTORS
330
3B
102
}
330
3B
100
AcDbScale
 70
     0
300
3/4" = 1'-0"
140
0.75
141
12.0
290
     0
  0
SCALE
  5
58
102
{ACAD_REACTORS
330
3B
102
}
330
3B
100
AcDbScale
 70
     0
300
1" = 1'-0"
140
1.0
141
12.0
290
     0
  0
SCALE
  5
59
102
{ACAD_REACTORS
330
3B
102
}
330
3B
100
AcDbScale
 70
     0
300
1-1/2" = 1'-0"
140
1.5
141
12.0
290
     0
  0
SCALE
  5
5A
102
{ACAD_REACTORS
330
3B
102
}
330
3B
100
AcDbScale
 70
     0
300
3" = 1'-0"
140
3.0
141
12.0
290
     0
  0
SCALE
  5
5B
102
{ACAD_REACTORS
330
3B
102
}
330
3B
100
AcDbScale
 70
     0
300
6" = 1'-0"
140
6.0
141
12.0
290
     0
  0
SCALE
  5
5C
102
{ACAD_REACTORS
330
3B
102
}
330
3B
100
AcDbScale
 70
     0
300
1'-0" = 1'-0"
140
12.0
141
12.0
290
     0
  0
VISUALSTYLE
  5
2F
102
{ACAD_REACTORS
330
2A
102
}
330
2A
100
AcDbVisualStyle
  2
2dWireframe
 70
     4
 71
     0
 72
     2
 73
     0
 90
        0
 40
-0.6
 41
-30.0
 62
     5
 63
     7
421
 16777215
 74
     1
 91
        4
 64
     7
 65
   257
 75
     1
175
     1
 42
1.0
 92
        0
 66
   257
 43
1.0
 76
     1
 77
     6
 78
     2
 67
     7
 79
     5
170
     0
171
     0
290
     0
174
     0
 93
        1
 44
0.0
173
     0
291
     0
 45
0.0
1001
ACAD
1000
AcDbSavedByObjectVersion
1070
     0
  0
VISUALSTYLE
  5
31
102
{ACAD_REACTORS
330
2A
102
}
330
2A
100
AcDbVisualStyle
  2
3D Hidden
 70
     6
 71
     1
 72
     2
 73
     2
 90
        0
 40
-0.6
 41
-30.0
 62
     5
 63
     7
421
 16777215
 74
     2
 91
        2
 64
     7
 65
   257
 75
     2
175
     1
 42
40.0
 92
        0
 66
   257
 43
1.0
 76
     1
 77
     6
 78
     2
 67
     7
 79
     3
170
     0
171
     0
290
     0
174
     0
 93
        1
 44
0.0
173
     0
291
     0
 45
0.0
1001
ACAD
1000
AcDbSavedByObjectVersion
1070
     0
  0
VISUALSTYLE
  5
30
102
{ACAD_REACTORS
330
2A
102
}
330
2A
100
AcDbVisualStyle
  2
3dWireframe
 70
     5
 71
     0
 72
     2
 73
     0
 90
        0
 40
-0.6
 41
-30.0
 62
     5
 63
     7
421
 16777215
 74
     1
 91
        4
 64
     7
 65
   257
 75
     1
175
     1
 42
1.0
 92
        0
 66
   257
 43
1.0
 76
     1
 77
     6
 78
     2
 67
     7
 79
     5
170
     0
171
     0
290
     0
174
     0
 93
        1
 44
0.0
173
     0
291
     0
 45
0.0
1001
ACAD
1000
AcDbSavedByObjectVersion
1070
     0
  0
VISUALSTYLE
  5
32
102
{ACAD_REACTORS
330
2A
102
}
330
2A
100
AcDbVisualStyle
  2
Basic
 70
     7
 71
     1
 72
     0
 73
     1
 90
        0
 40
-0.6
 41
-30.0
 62
     5
 63
     7
421
 16777215
 74
     0
 91
        4
 64
     7
 65
   257
 75
     1
175
     1
 42
1.0
 92
        8
 66
     7
 43
1.0
 76
     1
 77
     6
 78
     2
 67
     7
 79
     5
170
     0
171
     0
290
     0
174
     0
 93
        1
 44
0.0
173
     0
291
     1
 45
0.0
1001
ACAD
1000
AcDbSavedByObjectVersion
1070
     0
  0
VISUALSTYLE
  5
36
102
{ACAD_REACTORS
330
2A
102
}
330
2A
100
AcDbVisualStyle
  2
Brighten
 70
    12
 71
     2
 72
     2
 73
     0
 90
        0
 40
-0.6
 41
-30.0
 62
     5
 63
     7
421
 16777215
 74
     1
 91
        4
 64
     7
 65
   257
 75
     1
175
     1
 42
1.0
 92
        8
 66
     7
 43
1.0
 76
     1
 77
     6
 78
     2
 67
     7
 79
     5
170
     0
171
     0
290
     0
174
     0
 93
        1
 44
50.0
173
     0
291
     1
 45
0.0
1001
ACAD
1000
AcDbSavedByObjectVersion
1070
     0
  0
VISUALSTYLE
  5
3A
102
{ACAD_REACTORS
330
2A
102
}
330
2A
100
AcDbVisualStyle
  2
ColorChange
 70
    16
 71
     2
 72
     2
 73
     3
 90
        0
 40
-0.6
 41
-30.0
 62
     5
 63
     8
421
  8421504
 74
     1
 91
        4
 64
     7
 65
   257
 75
     1
175
     1
 42
1.0
 92
        8
 66
     8
424
  8421504
 43
1.0
 76
     1
 77
     6
 78
     2
 67
     7
 79
     5
170
     0
171
     0
290
     0
174
     0
 93
        1
 44
0.0
173
     0
291
     1
 45
0.0
1001
ACAD
1000
AcDbSavedByObjectVersion
1070
     0
  0
VISUALSTYLE
  5
34
102
{ACAD_REACTORS
330
2A
102
}
330
2A
100
AcDbVisualStyle
  2
Conceptual
 70
     9
 71
     3
 72
     2
 73
     0
 90
        0
 40
-0.6
 41
-30.0
 62
     5
 63
     7
421
 16777215
 74
     2
 91
        2
 64
     7
 65
   257
 75
     1
175
     1
 42
40.0
 92
        8
 66
     7
 43
1.0
 76
     1
 77
     6
 78
     2
 67
     7
 79
     3
170
     0
171
     0
290
     0
174
     0
 93
        1
 44
0.0
173
     0
291
     0
 45
0.0
1001
ACAD
1000
AcDbSavedByObjectVersion
1070
     0
  0
VISUALSTYLE
  5
35
102
{ACAD_REACTORS
330
2A
102
}
330
2A
100
AcDbVisualStyle
  2
Dim
 70
    11
 71
     2
 72
     2
 73
     0
 90
        0
 40
-0.6
 41
-30.0
 62
     5
 63
     7
421
 16777215
 74
     1
 91
        4
 64
     7
 65
   257
 75
     1
175
     1
 42
1.0
 92
        8
 66
     7
 43
1.0
 76
     1
 77
     6
 78
     2
 67
     7
 79
     5
170
     0
171
     0
290
     0
174
     0
 93
        1
 44
-50.0
173
     0
291
     1
 45
0.0
1001
ACAD
1000
AcDbSavedByObjectVersion
1070
     0
  0
VISUALSTYLE
  5
39
102
{ACAD_REACTORS
330
2A
102
}
330
2A
100
AcDbVisualStyle
  2
Facepattern
 70
    15
 71
     2
 72
     2
 73
     0
 90
        0
 40
-0.6
 41
-30.0
 62
     5
 63
     7
421
 16777215
 74
     1
 91
        4
 64
     7
 65
   257
 75
     1
175
     1
 42
1.0
 92
        8
 66
     7
 43
1.0
 76
     1
 77
     6
 78
     2
 67
     7
 79
     5
170
     0
171
     0
290
     0
174
     0
 93
        1
 44
0.0
173
     0
291
     1
 45
0.0
1001
ACAD
1000
AcDbSavedByObjectVersion
1070
     0
  0
VISUALSTYLE
  5
2B
102
{ACAD_REACTORS
330
2A
102
}
330
2A
100
AcDbVisualStyle
  2
Flat
 70
     0
 71
     2
 72
     1
 73
     1
 90
        2
 40
-0.6
 41
30.0
 62
     5
 63
     7
421
 16777215
 74
     0
 91
        4
 64
     7
 65
   257
 75
     1
175
     1
 42
1.0
 92
        8
 66
     7
 43
1.0
 76
     1
 77
     6
 78
     2
 67
     7
 79
     5
170
     0
171
     0
290
     0
174
     0
 93
       13
 44
0.0
173
     0
291
     1
 45
0.0
1001
ACAD
1000
AcDbSavedByObjectVersion
1070
     0
  0
VISUALSTYLE
  5
2C
102
{ACAD_REACTORS
330
2A
102
}
330
2A
100
AcDbVisualStyle
  2
FlatWithEdges
 70
     1
 71
     2
 72
     1
 73
     1
 90
        2
 40
-0.6
 41
30.0
 62
     5
 63
     7
421
 16777215
 74
     1
 91
        4
 64
     7
 65
   257
 75
     1
175
     1
 42
1.0
 92
        0
 66
   257
 43
1.0
 76
     1
 77
     6
 78
     2
 67
     7
 79
     5
170
     0
171
     0
290
     0
174
     0
 93
       13
 44
0.0
173
     0
291
     1
 45
0.0
1001
ACAD
1000
AcDbSavedByObjectVersion
1070
     0
  0
VISUALSTYLE
  5
2D
102
{ACAD_REACTORS
330
2A
102
}
330
2A
100
AcDbVisualStyle
  2
Gouraud
 70
     2
 71
     2
 72
     2
 73
     1
 90
        2
 40
-0.6
 41
30.0
 62
     5
 63
     7
421
 16777215
 74
     0
 91
        4
 64
     7
 65
   257
 75
     1
175
     1
 42
1.0
 92
        0
 66
     7
 43
1.0
 76
     1
 77
     6
 78
     2
 67
     7
 79
     5
170
     0
171
     0
290
     0
174
     0
 93
       13
 44
0.0
173
     0
291
     1
 45
0.0
1001
ACAD
1000
AcDbSavedByObjectVersion
1070
     0
  0
VISUALSTYLE
  5
2E
102
{ACAD_REACTORS
330
2A
102
}
330
2A
100
AcDbVisualStyle
  2
GouraudWithEdges
 70
     3
 71
     2
 72
     2
 73
     1
 90
        2
 40
-0.6
 41
30.0
 62
     5
 63
     7
421
 16777215
 74
     1
 91
        4
 64
     7
 65
   257
 75
     1
175
     1
 42
1.0
 92
        0
 66
   257
 43
1.0
 76
     1
 77
     6
 78
     2
 67
     7
 79
     5
170
     0
171
     0
290
     0
174
     0
 93
       13
 44
0.0
173
     0
291
     1
 45
0.0
1001
ACAD
1000
AcDbSavedByObjectVersion
1070
     0
  0
VISUALSTYLE
  5
38
102
{ACAD_REACTORS
330
2A
102
}
330
2A
100
AcDbVisualStyle
  2
Linepattern
 70
    14
 71
     2
 72
     2
 73
     0
 90
        0
 40
-0.6
 41
-30.0
 62
     5
 63
     7
421
 16777215
 74
     1
 91
        4
 64
     7
 65
   257
 75
     7
175
     7
 42
1.0
 92
        8
 66
     7
 43
1.0
 76
     1
 77
     6
 78
     2
 67
     7
 79
     5
170
     0
171
     0
290
     0
174
     0
 93
        1
 44
0.0
173
     0
291
     1
 45
0.0
1001
ACAD
1000
AcDbSavedByObjectVersion
1070
     0
  0
VISUALSTYLE
  5
33
102
{ACAD_REACTORS
330
2A
102
}
330
2A
100
AcDbVisualStyle
  2
Realistic
 70
     8
 71
     2
 72
     2
 73
     0
 90
        0
 40
-0.6
 41
-30.0
 62
     5
 63
     7
421
 16777215
 74
     1
 91
        0
 64
     7
 65
   257
 75
     1
175
     1
 42
1.0
 92
        8
 66
     8
424
  7895160
 43
1.0
 76
     1
 77
     6
 78
     2
 67
     7
 79
     5
170
     0
171
     0
290
     0
174
     0
 93
       13
 44
0.0
173
     0
291
     0
 45
0.0
1001
ACAD
1000
AcDbSavedByObjectVersion
1070
     0
  0
VISUALSTYLE
  5
37
102
{ACAD_REACTORS
330
2A
102
}
330
2A
100
AcDbVisualStyle
  2
Thicken
 70
    13
 71
     2
 72
     2
 73
     0
 90
        0
 40
-0.6
 41
-30.0
 62
     5
 63
     7
421
 16777215
 74
     1
 91
        4
 64
     7
 65
   257
 75
     1
175
     1
 42
1.0
 92
       12
 66
     7
 43
1.0
 76
     1
 77
     6
 78
     2
 67
     7
 79
     5
170
     0
171
     0
290
     0
174
     0
 93
        1
 44
0.0
173
     0
291
     1
 45
0.0
1001
ACAD
1000
AcDbSavedByObjectVersion
1070
     0
  0
XRECORD
  5
409
102
{ACAD_REACTORS
330
408
102
}
330
408
100
AcDbXrecord
280
     1
1000
Ten plik DWG został utworzony w programie ArchiCAD(TM)®
  0
SPATIAL_FILTER
  5
401
102
{ACAD_REACTORS
330
400
102
}
330
400
100
AcDbFilter
100
AcDbSpatialFilter
 70
     4
 10
0.0
 20
0.0
 10
297.0
 20
0.0
 10
297.0
 20
210.0
 10
0.0
 20
210.0
210
0.0
220
0.0
230
1.0
 11
0.0
 21
0.0
 31
0.0
 71
     1
 72
     0
 73
     0
 40
1.0
 40
0.0
 40
0.0
 40
0.0
 40
0.0
 40
1.0
 40
0.0
 40
0.0
 40
0.0
 40
0.0
 40
1.0
 40
0.0
 40
1.0
 40
0.0
 40
0.0
 40
0.0
 40
0.0
 40
1.0
 40
0.0
 40
0.0
 40
0.0
 40
0.0
 40
1.0
 40
0.0
  0
ENDSEC
  0
EOF
