  0
SECTION
  2
HEADER
  9
$ACADVER
  1
AC1018
  9
$ACADMAINTVER
 70
     0
  9
$DWGCODEPAGE
  3
ANSI_1250
  9
$INSBASE
 10
0.0
 20
0.0
 30
0.0
  9
$EXTMIN
 10
1.000000000000000E+20
 20
1.000000000000000E+20
 30
1.000000000000000E+20
  9
$EXTMAX
 10
-1.000000000000000E+20
 20
-1.000000000000000E+20
 30
-1.000000000000000E+20
  9
$LIMMIN
 10
0.0
 20
0.0
  9
$LIMMAX
 10
12.0
 20
9.0
  9
$ORTHOMODE
 70
     0
  9
$REGENMODE
 70
     1
  9
$FILLMODE
 70
     1
  9
$QTEXTMODE
 70
     0
  9
$MIRRTEXT
 70
     1
  9
$LTSCALE
 40
1.0
  9
$ATTMODE
 70
     1
  9
$TEXTSIZE
 40
0.2
  9
$TRACEWID
 40
0.05
  9
$TEXTSTYLE
  7
Standard
  9
$CLAYER
  8
0
  9
$CELTYPE
  6
ByLayer
  9
$CECOLOR
 62
   256
  9
$CELTSCALE
 40
1.0
  9
$DISPSILH
 70
     0
  9
$DIMSCALE
 40
1.0
  9
$DIMASZ
 40
0.18
  9
$DIMEXO
 40
0.0625
  9
$DIMDLI
 40
0.38
  9
$DIMRND
 40
0.0
  9
$DIMDLE
 40
0.0
  9
$DIMEXE
 40
0.18
  9
$DIMTP
 40
0.0
  9
$DIMTM
 40
0.0
  9
$DIMTXT
 40
0.18
  9
$DIMCEN
 40
0.09
  9
$DIMTSZ
 40
0.0
  9
$DIMTOL
 70
     0
  9
$DIMLIM
 70
     0
  9
$DIMTIH
 70
     1
  9
$DIMTOH
 70
     1
  9
$DIMSE1
 70
     0
  9
$DIMSE2
 70
     0
  9
$DIMTAD
 70
     0
  9
$DIMZIN
 70
     0
  9
$DIMBLK
  1

  9
$DIMASO
 70
     1
  9
$DIMSHO
 70
     1
  9
$DIMPOST
  1

  9
$DIMAPOST
  1

  9
$DIMALT
 70
     0
  9
$DIMALTD
 70
     2
  9
$DIMALTF
 40
25.4
  9
$DIMLFAC
 40
1.0
  9
$DIMTOFL
 70
     0
  9
$DIMTVP
 40
0.0
  9
$DIMTIX
 70
     0
  9
$DIMSOXD
 70
     0
  9
$DIMSAH
 70
     0
  9
$DIMBLK1
  1

  9
$DIMBLK2
  1

  9
$DIMSTYLE
  2
Standard
  9
$DIMCLRD
 70
     0
  9
$DIMCLRE
 70
     0
  9
$DIMCLRT
 70
     0
  9
$DIMTFAC
 40
1.0
  9
$DIMGAP
 40
0.09
  9
$DIMJUST
 70
     0
  9
$DIMSD1
 70
     0
  9
$DIMSD2
 70
     0
  9
$DIMTOLJ
 70
     1
  9
$DIMTZIN
 70
     0
  9
$DIMALTZ
 70
     0
  9
$DIMALTTZ
 70
     0
  9
$DIMUPT
 70
     0
  9
$DIMDEC
 70
     4
  9
$DIMTDEC
 70
     4
  9
$DIMALTU
 70
     2
  9
$DIMALTTD
 70
     2
  9
$DIMTXSTY
  7
Standard
  9
$DIMAUNIT
 70
     0
  9
$DIMADEC
 70
     0
  9
$DIMALTRND
 40
0.0
  9
$DIMAZIN
 70
     0
  9
$DIMDSEP
 70
    46
  9
$DIMATFIT
 70
     3
  9
$DIMFRAC
 70
     0
  9
$DIMLDRBLK
  1

  9
$DIMLUNIT
 70
     2
  9
$DIMLWD
 70
    -2
  9
$DIMLWE
 70
    -2
  9
$DIMTMOVE
 70
     0
  9
$LUNITS
 70
     2
  9
$LUPREC
 70
     4
  9
$SKETCHINC
 40
0.1
  9
$FILLETRAD
 40
0.5
  9
$AUNITS
 70
     0
  9
$AUPREC
 70
     0
  9
$MENU
  1
.
  9
$ELEVATION
 40
0.0
  9
$PELEVATION
 40
0.0
  9
$THICKNESS
 40
0.0
  9
$LIMCHECK
 70
     0
  9
$CHAMFERA
 40
0.5
  9
$CHAMFERB
 40
0.5
  9
$CHAMFERC
 40
1.0
  9
$CHAMFERD
 40
0.0
  9
$SKPOLY
 70
     0
  9
$TDCREATE
 40
2459976.596770984
  9
$TDUCREATE
 40
2459976.555104317
  9
$TDUPDATE
 40
2459976.596770995
  9
$TDUUPDATE
 40
2459976.555104329
  9
$TDINDWG
 40
0.0000000116
  9
$TDUSRTIMER
 40
0.0000000116
  9
$USRTIMER
 70
     1
  9
$ANGBASE
 50
0.0
  9
$ANGDIR
 70
     0
  9
$PDMODE
 70
     0
  9
$PDSIZE
 40
0.0
  9
$PLINEWID
 40
0.0
  9
$SPLFRAME
 70
     0
  9
$SPLINETYPE
 70
     6
  9
$SPLINESEGS
 70
     8
  9
$HANDSEED
  5
352
  9
$SURFTAB1
 70
     6
  9
$SURFTAB2
 70
     6
  9
$SURFTYPE
 70
     6
  9
$SURFU
 70
     6
  9
$SURFV
 70
     6
  9
$UCSBASE
  2

  9
$UCSNAME
  2

  9
$UCSORG
 10
0.0
 20
0.0
 30
0.0
  9
$UCSXDIR
 10
1.0
 20
0.0
 30
0.0
  9
$UCSYDIR
 10
0.0
 20
1.0
 30
0.0
  9
$UCSORTHOREF
  2

  9
$UCSORTHOVIEW
 70
     0
  9
$UCSORGTOP
 10
0.0
 20
0.0
 30
0.0
  9
$UCSORGBOTTOM
 10
0.0
 20
0.0
 30
0.0
  9
$UCSORGLEFT
 10
0.0
 20
0.0
 30
0.0
  9
$UCSORGRIGHT
 10
0.0
 20
0.0
 30
0.0
  9
$UCSORGFRONT
 10
0.0
 20
0.0
 30
0.0
  9
$UCSORGBACK
 10
0.0
 20
0.0
 30
0.0
  9
$PUCSBASE
  2

  9
$PUCSNAME
  2

  9
$PUCSORG
 10
0.0
 20
0.0
 30
0.0
  9
$PUCSXDIR
 10
1.0
 20
0.0
 30
0.0
  9
$PUCSYDIR
 10
0.0
 20
1.0
 30
0.0
  9
$PUCSORTHOREF
  2

  9
$PUCSORTHOVIEW
 70
     0
  9
$PUCSORGTOP
 10
0.0
 20
0.0
 30
0.0
  9
$PUCSORGBOTTOM
 10
0.0
 20
0.0
 30
0.0
  9
$PUCSORGLEFT
 10
0.0
 20
0.0
 30
0.0
  9
$PUCSORGRIGHT
 10
0.0
 20
0.0
 30
0.0
  9
$PUCSORGFRONT
 10
0.0
 20
0.0
 30
0.0
  9
$PUCSORGBACK
 10
0.0
 20
0.0
 30
0.0
  9
$USERI1
 70
     0
  9
$USERI2
 70
     0
  9
$USERI3
 70
     0
  9
$USERI4
 70
     0
  9
$USERI5
 70
     0
  9
$USERR1
 40
0.0
  9
$USERR2
 40
0.0
  9
$USERR3
 40
0.0
  9
$USERR4
 40
0.0
  9
$USERR5
 40
0.0
  9
$WORLDVIEW
 70
     1
  9
$SHADEDGE
 70
     3
  9
$SHADEDIF
 70
    70
  9
$TILEMODE
 70
     0
  9
$MAXACTVP
 70
    64
  9
$PINSBASE
 10
0.0
 20
0.0
 30
0.0
  9
$PLIMCHECK
 70
     0
  9
$PEXTMIN
 10
0.0
 20
0.0
 30
0.0
  9
$PEXTMAX
 10
297.033229811224
 20
210.0691657137658
 30
0.0
  9
$PLIMMIN
 10
0.0
 20
0.0
  9
$PLIMMAX
 10
297.033229811224
 20
210.0691657137658
  9
$UNITMODE
 70
     0
  9
$VISRETAIN
 70
     1
  9
$PLINEGEN
 70
     0
  9
$PSLTSCALE
 70
     0
  9
$TREEDEPTH
 70
  3020
  9
$CMLSTYLE
  2
Standard
  9
$CMLJUST
 70
     0
  9
$CMLSCALE
 40
1.0
  9
$PROXYGRAPHICS
 70
     1
  9
$MEASUREMENT
 70
     0
  9
$CELWEIGHT
370
    -1
  9
$ENDCAPS
280
     0
  9
$JOINSTYLE
280
     0
  9
$LWDISPLAY
290
     1
  9
$INSUNITS
 70
     0
  9
$HYPERLINKBASE
  1

  9
$STYLESHEET
  1

  9
$XEDIT
290
     1
  9
$CEPSNTYPE
380
     0
  9
$PSTYLEMODE
290
     1
  9
$FINGERPRINTGUID
  2
{82042A9A-C98C-459F-94AB-0C5D3F839CF4}
  9
$VERSIONGUID
  2
{FAEB1C32-E019-11D5-929B-00C0DF256EC4}
  9
$EXTNAMES
290
     1
  9
$PSVPSCALE
 40
0.0
  9
$OLESTARTUP
290
     0
  9
$SORTENTS
280
   127
  9
$INDEXCTL
280
     0
  9
$HIDETEXT
280
     1
  9
$XCLIPFRAME
290
     0
  9
$HALOGAP
280
     0
  9
$OBSCOLOR
 70
   257
  9
$OBSLTYPE
280
     0
  9
$INTERSECTIONDISPLAY
280
     0
  9
$INTERSECTIONCOLOR
 70
   257
  9
$DIMASSOC
280
     2
  9
$PROJECTNAME
  1

  0
ENDSEC
  0
SECTION
  2
CLASSES
  0
CLASS
  1
ACDBDICTIONARYWDFLT
  2
AcDbDictionaryWithDefault
  3
ObjectDBX Classes
 90
        0
 91
        3
280
     0
281
     0
  0
CLASS
  1
VISUALSTYLE
  2
AcDbVisualStyle
  3
ObjectDBX Classes
 90
     4095
 91
        3
280
     0
281
     0
  0
CLASS
  1
SCALE
  2
AcDbScale
  3
ObjectDBX Classes
 90
     1153
 91
        3
280
     0
281
     0
  0
CLASS
  1
WIPEOUT
  2
AcDbWipeout
  3
WipeOut|AutoCAD Express Tool|expresstools@autodesk.com
 90
      127
 91
        3
280
     0
281
     1
  0
CLASS
  1
SPATIAL_FILTER
  2
AcDbSpatialFilter
  3
ObjectDBX Classes
 90
        0
 91
        3
280
     0
281
     0
  0
ENDSEC
  0
SECTION
  2
TABLES
  0
TABLE
  2
VPORT
  5
8
330
0
100
AcDbSymbolTable
 70
     1
  0
VPORT
  5
29
330
8
100
AcDbSymbolTableRecord
100
AcDbViewportTableRecord
  2
*Active
 70
     0
 10
0.0
 20
0.0
 11
1.0
 21
1.0
 12
10.42990654205607
 22
4.5
 13
0.0
 23
0.0
 14
0.5
 24
0.5
 15
0.5
 25
0.5
 16
0.0
 26
0.0
 36
1.0
 17
0.0
 27
0.0
 37
0.0
 40
9.0
 41
1.972972972850329
 42
50.0
 43
0.0
 44
0.0
 50
0.0
 51
0.0
 71
     0
 72
   100
 73
     1
 74
     3
 75
     0
 76
     0
 77
     0
 78
     0
281
     0
 65
     1
110
0.0
120
0.0
130
0.0
111
1.0
121
0.0
131
0.0
112
0.0
122
1.0
132
0.0
 79
     0
146
0.0
  0
ENDTAB
  0
TABLE
  2
LTYPE
  5
5
330
0
100
AcDbSymbolTable
 70
     9
  0
LTYPE
  5
14
330
5
100
AcDbSymbolTableRecord
100
AcDbLinetypeTableRecord
  2
ByBlock
 70
     0
  3

 72
    65
 73
     0
 40
0.0
  0
LTYPE
  5
15
330
5
100
AcDbSymbolTableRecord
100
AcDbLinetypeTableRecord
  2
ByLayer
 70
     0
  3

 72
    65
 73
     0
 40
0.0
  0
LTYPE
  5
16
330
5
100
AcDbSymbolTableRecord
100
AcDbLinetypeTableRecord
  2
Continuous
 70
     0
  3
Solid line
 72
    65
 73
     0
 40
0.0
  0
LTYPE
  5
67
330
5
100
AcDbSymbolTableRecord
100
AcDbLinetypeTableRecord
  2
@ --- gęsto_burzenie
 70
     0
  3
- - - - - 
 72
    65
 73
     2
 40
10.0
 49
5.0
 74
     0
 49
-5.0
 74
     0
  0
LTYPE
  5
6B
330
5
100
AcDbSymbolTableRecord
100
AcDbLinetypeTableRecord
  2
Wipeout_Contour
 70
     0
  3
- - - - - 
 72
    65
 73
     2
 40
1000.0
 49
0.0
 74
     0
 49
-1000.0
 74
     0
  0
LTYPE
  5
1CD
330
5
100
AcDbSymbolTableRecord
100
AcDbLinetypeTableRecord
  2
IZOLACJA GRUBA
 70
     0
  3
??????????
 72
    65
 73
     3
 40
100.0
 49
0.0
 74
     4
 75
     1
340
1CE
 46
0.7936507936507936
 50
0.0
 44
0.0
 45
0.0
 49
-100.0
 74
     0
 49
0.0
 74
     0
  0
LTYPE
  5
1D6
330
5
100
AcDbSymbolTableRecord
100
AcDbLinetypeTableRecord
  2
IZOLACJA CIENKA
 70
     0
  3
??????????
 72
    65
 73
     3
 40
40.0
 49
0.0
 74
     4
 75
     2
340
1CE
 46
0.3174603174603174
 50
0.0
 44
0.0
 45
0.0
 49
-40.0
 74
     0
 49
0.0
 74
     0
  0
LTYPE
  5
220
330
5
100
AcDbSymbolTableRecord
100
AcDbLinetypeTableRecord
  2
Kreski i kropki
 70
     0
  3
- - - - - 
 72
    65
 73
     4
 40
67.02777624130249
 49
35.27777671813965
 74
     0
 49
-17.63888835906982
 74
     0
 49
0.0
 74
     0
 49
-14.11111116409302
 74
     0
  0
LTYPE
  5
29A
330
5
100
AcDbSymbolTableRecord
100
AcDbLinetypeTableRecord
  2
Przerywana
 70
     0
  3
- - - - - 
 72
    65
 73
     2
 40
56.44444465637207
 49
28.22222232818604
 74
     0
 49
-28.22222232818603
 74
     0
  0
LTYPE
  5
30F
330
5
100
AcDbSymbolTableRecord
100
AcDbLinetypeTableRecord
  2
Przerywana gęsta
 70
     0
  3
- - - - - 
 72
    65
 73
     2
 40
30.0
 49
20.0
 74
     0
 49
-10.0
 74
     0
  0
LTYPE
  5
33A
330
5
100
AcDbSymbolTableRecord
100
AcDbLinetypeTableRecord
  2
Kropki i Kreski
 70
     0
  3
- - - - - 
 72
    65
 73
     4
 40
67.02777624130249
 49
35.27777671813965
 74
     0
 49
-17.63888835906982
 74
     0
 49
0.0
 74
     0
 49
-14.11111116409302
 74
     0
  0
ENDTAB
  0
TABLE
  2
LAYER
  5
2
330
0
100
AcDbSymbolTable
 70
     4
  0
LAYER
  5
10
330
2
100
AcDbSymbolTableRecord
100
AcDbLayerTableRecord
  2
0
 70
     0
 62
     7
  6
Continuous
370
    -3
390
F
  0
LAYER
  5
64
330
2
100
AcDbSymbolTableRecord
100
AcDbLayerTableRecord
  2
@__WIDOCZNE
 70
     0
 62
     7
  6
Continuous
370
    -3
390
F
  0
LAYER
  5
1D0
330
2
100
AcDbSymbolTableRecord
100
AcDbLayerTableRecord
  2
Linia Izolacji - ARCHICAD
 70
     0
 62
     7
  6
Continuous
370
    -3
390
F
  0
LAYER
  5
349
330
2
100
AcDbSymbolTableRecord
100
AcDbLayerTableRecord
  2
NonPlottable_0
 70
     0
 62
     7
  6
Continuous
290
     0
370
    -3
390
F
  0
ENDTAB
  0
TABLE
  2
STYLE
  5
3
330
0
100
AcDbSymbolTable
 70
     4
  0
STYLE
  5
11
330
3
100
AcDbSymbolTableRecord
100
AcDbTextStyleTableRecord
  2
Standard
 70
     0
 40
0.0
 41
1.0
 50
0.0
 71
     0
 42
0.2
  3
txt
  4
BIGFONT.SHX
  0
STYLE
  5
16F
330
3
100
AcDbSymbolTableRecord
100
AcDbTextStyleTableRecord
  2
GENERATED_STYLE_1
 70
     0
 40
0.0
 41
1.0
 50
0.0
 71
     0
 42
0.2
  3

  4

1001
ACAD
1000
Arial
1071
    60966
  0
STYLE
  5
1CE
330
3
100
AcDbSymbolTableRecord
100
AcDbTextStyleTableRecord
  2

 70
     1
 40
0.2
 41
1.0
 50
0.0
 71
     0
 42
0.2
  3
10.03.00_IZOLACJE CHEM_myjnie_2301311.Shx
  4

  0
STYLE
  5
2FD
330
3
100
AcDbSymbolTableRecord
100
AcDbTextStyleTableRecord
  2
GENERATED_STYLE_2
 70
     0
 40
0.0
 41
1.0
 50
0.0
 71
     0
 42
0.2
  3

  4

1001
ACAD
1000
Arial
1071
 33615398
  0
ENDTAB
  0
TABLE
  2
VIEW
  5
6
330
0
100
AcDbSymbolTable
 70
     0
  0
ENDTAB
  0
TABLE
  2
UCS
  5
7
330
0
100
AcDbSymbolTable
 70
     0
  0
ENDTAB
  0
TABLE
  2
APPID
  5
9
330
0
100
AcDbSymbolTable
 70
     1
  0
APPID
  5
12
330
9
100
AcDbSymbolTableRecord
100
AcDbRegAppTableRecord
  2
ACAD
 70
     0
  0
ENDTAB
  0
TABLE
  2
DIMSTYLE
  5
A
330
0
100
AcDbSymbolTable
 70
     1
100
AcDbDimStyleTable
  0
DIMSTYLE
105
27
330
A
100
AcDbSymbolTableRecord
100
AcDbDimStyleTableRecord
  2
Standard
 70
     0
340
11
  0
ENDTAB
  0
TABLE
  2
BLOCK_RECORD
  5
1
330
0
100
AcDbSymbolTable
 70
    11
  0
BLOCK_RECORD
  5
1F
330
1
100
AcDbSymbolTableRecord
100
AcDbBlockTableRecord
  2
*Model_Space
340
22
  0
BLOCK_RECORD
  5
1B
330
1
100
AcDbSymbolTableRecord
100
AcDbBlockTableRecord
  2
*Paper_Space
340
1E
  0
BLOCK_RECORD
  5
23
330
1
100
AcDbSymbolTableRecord
100
AcDbBlockTableRecord
  2
*Paper_Space0
340
26
  0
BLOCK_RECORD
  5
A1
330
1
100
AcDbSymbolTableRecord
100
AcDbBlockTableRecord
  2
*X1
340
0
102
{BLKREFS
331
110
102
}
  0
BLOCK_RECORD
  5
111
330
1
100
AcDbSymbolTableRecord
100
AcDbBlockTableRecord
  2
Izolacja cieplna 12_17_2
340
0
102
{BLKREFS
331
131
102
}
  0
BLOCK_RECORD
  5
132
330
1
100
AcDbSymbolTableRecord
100
AcDbBlockTableRecord
  2
Izolacja cieplna 12_16_2
340
0
102
{BLKREFS
331
16A
102
}
  0
BLOCK_RECORD
  5
16B
330
1
100
AcDbSymbolTableRecord
100
AcDbBlockTableRecord
  2
Sygnał termostatu 12
340
0
102
{BLKREFS
331
171
331
18C
331
198
331
19E
102
}
  0
BLOCK_RECORD
  5
174
330
1
100
AcDbSymbolTableRecord
100
AcDbBlockTableRecord
  2
Sygnał termostatu 12_2
340
0
102
{BLKREFS
331
179
331
192
331
195
331
1A4
331
1A7
102
}
  0
BLOCK_RECORD
  5
17C
330
1
100
AcDbSymbolTableRecord
100
AcDbBlockTableRecord
  2
Sygnał termostatu 12_3
340
0
102
{BLKREFS
331
181
331
18F
331
19B
331
1A1
102
}
  0
BLOCK_RECORD
  5
184
330
1
100
AcDbSymbolTableRecord
100
AcDbBlockTableRecord
  2
Sygnał termostatu 12_4
340
0
102
{BLKREFS
331
189
331
1AA
102
}
  0
BLOCK_RECORD
  5
33E
330
1
100
AcDbSymbolTableRecord
100
AcDbBlockTableRecord
  2
Bez nazwy_STORY_MARKER
340
0
  0
BLOCK_RECORD
  5
341
330
1
100
AcDbSymbolTableRecord
100
AcDbBlockTableRecord
  2
Rysunek_1
340
0
102
{BLKREFS
331
344
102
}
  0
BLOCK_RECORD
  5
34B
330
1
100
AcDbSymbolTableRecord
100
AcDbBlockTableRecord
  2
02.04.2-20 \U+FF8CCIANA+PIWICA 10.03._STORY_MARKER
340
0
  0
ENDTAB
  0
ENDSEC
  0
SECTION
  2
BLOCKS
  0
BLOCK
  5
20
330
1F
100
AcDbEntity
  8
0
100
AcDbBlockBegin
  2
*Model_Space
 70
     0
 10
0.0
 20
0.0
 30
0.0
  3
*Model_Space
  1

  0
ENDBLK
  5
21
330
1F
100
AcDbEntity
  8
0
100
AcDbBlockEnd
  0
BLOCK
  5
1C
330
1B
100
AcDbEntity
 67
     1
  8
0
100
AcDbBlockBegin
  2
*Paper_Space
 70
     0
 10
0.0
 20
0.0
 30
0.0
  3
*Paper_Space
  1

  0
ENDBLK
  5
1D
330
1B
100
AcDbEntity
 67
     1
  8
0
100
AcDbBlockEnd
  0
BLOCK
  5
24
330
23
100
AcDbEntity
  8
0
100
AcDbBlockBegin
  2
*Paper_Space0
 70
     0
 10
0.0
 20
0.0
 30
0.0
  3
*Paper_Space0
  1

  0
ENDBLK
  5
25
330
23
100
AcDbEntity
  8
0
100
AcDbBlockEnd
  0
BLOCK
  5
A2
330
A1
100
AcDbEntity
  8
0
100
AcDbBlockBegin
  2
*X1
 70
     1
 10
0.0
 20
0.0
 30
0.0
  3
*X1
  1

  0
CIRCLE
  5
A4
330
A1
100
AcDbEntity
  8
@__WIDOCZNE
  6
Continuous
370
    13
100
AcDbCircle
 10
-2797.310166055414
 20
812.4410998656595
 30
0.0
 40
10.61818181818808
  0
CIRCLE
  5
A5
330
A1
100
AcDbEntity
  8
@__WIDOCZNE
  6
Continuous
370
    13
100
AcDbCircle
 10
-2781.601075146372
 20
827.4956453202051
 30
0.0
 40
4.218181818174571
  0
CIRCLE
  5
A6
330
A1
100
AcDbEntity
  8
@__WIDOCZNE
  6
Continuous
370
    13
100
AcDbCircle
 10
-2769.019256963876
 20
818.2592816838413
 30
0.0
 40
1.381818181812378
  0
ARC
  5
A7
330
A1
100
AcDbEntity
  8
@__WIDOCZNE
  6
Continuous
370
    13
100
AcDbCircle
 10
-2900.146529691486
 20
820.295645320205
 30
0.0
 40
5.381818181831477
100
AcDbArc
 50
286.2660945331544
 51
73.73390546684556
  0
CIRCLE
  5
A8
330
A1
100
AcDbEntity
  8
@__WIDOCZNE
  6
Continuous
370
    13
100
AcDbCircle
 10
-2754.691984236561
 20
820.295645320205
 30
0.0
 40
5.381818181831477
  0
CIRCLE
  5
A9
330
A1
100
AcDbEntity
  8
@__WIDOCZNE
  6
Continuous
370
    13
100
AcDbCircle
 10
-2779.710166055341
 20
804.0047362292959
 30
0.0
 40
2.109090909101496
  0
ARC
  5
AA
330
A1
100
AcDbEntity
  8
@__WIDOCZNE
  6
Continuous
370
    13
100
AcDbCircle
 10
-2898.182893328172
 20
837.5320089565685
 30
0.0
 40
10.61818181818808
100
AcDbArc
 50
267.5376044660984
 51
92.46239553390163
  0
ARC
  5
AB
330
A1
100
AcDbEntity
  8
@__WIDOCZNE
  6
Continuous
370
    13
100
AcDbCircle
 10
-2752.728347873247
 20
837.5320089565685
 30
0.0
 40
10.61818181818808
100
AcDbArc
 50
34.45151329673979
 51
325.5484867032602
  0
CIRCLE
  5
AC
330
A1
100
AcDbEntity
  8
@__WIDOCZNE
  6
Continuous
370
    13
100
AcDbCircle
 10
-2798.764711509424
 20
862.0410998656594
 30
0.0
 40
10.61818181818808
  0
CIRCLE
  5
AD
330
A1
100
AcDbEntity
  8
@__WIDOCZNE
  6
Continuous
370
    13
100
AcDbCircle
 10
-2877.16471150998
 20
827.5683725929322
 30
0.0
 40
4.218181818174571
  0
CIRCLE
  5
AE
330
A1
100
AcDbEntity
  8
@__WIDOCZNE
  6
Continuous
370
    13
100
AcDbCircle
 10
-2889.67380241937
 20
823.495645320205
 30
0.0
 40
4.218181818174571
  0
ARC
  5
AF
330
A1
100
AcDbEntity
  8
@__WIDOCZNE
  6
Continuous
370
    13
100
AcDbCircle
 10
-2744.219256964445
 20
823.495645320205
 30
0.0
 40
4.218181818174571
100
AcDbArc
 50
86.64691392042701
 51
273.353086079573
  0
ARC
  5
B0
330
A1
100
AcDbEntity
  8
@__WIDOCZNE
  6
Continuous
370
    13
100
AcDbCircle
 10
-2767.855620600702
 20
868.6592816838412
 30
0.0
 40
4.218181818174571
100
AcDbArc
 50
105.3353507994727
 51
74.66464920052732
  0
CIRCLE
  5
B1
330
A1
100
AcDbEntity
  8
@__WIDOCZNE
  6
Continuous
370
    13
100
AcDbCircle
 10
-2888.58289332845
 20
868.004736229296
 30
0.0
 40
4.218181818174571
  0
ARC
  5
B2
330
A1
100
AcDbEntity
  8
@__WIDOCZNE
  6
Continuous
370
    13
100
AcDbCircle
 10
-2743.128347873525
 20
868.004736229296
 30
0.0
 40
4.218181818174571
100
AcDbArc
 50
101.5446604190778
 51
258.4553395809223
  0
CIRCLE
  5
B3
330
A1
100
AcDbEntity
  8
@__WIDOCZNE
  6
Continuous
370
    13
100
AcDbCircle
 10
-2794.619256964271
 20
849.2410998656595
 30
0.0
 40
2.109090909101496
  0
CIRCLE
  5
B4
330
A1
100
AcDbEntity
  8
@__WIDOCZNE
  6
Continuous
370
    13
100
AcDbCircle
 10
-2784.728347873741
 20
864.295645320205
 30
0.0
 40
2.109090909101496
  0
CIRCLE
  5
B5
330
A1
100
AcDbEntity
  8
@__WIDOCZNE
  6
Continuous
370
    13
100
AcDbCircle
 10
-2886.691984237419
 20
830.4774635020233
 30
0.0
 40
2.109090909101496
  0
CIRCLE
  5
B6
330
A1
100
AcDbEntity
  8
@__WIDOCZNE
  6
Continuous
370
    13
100
AcDbCircle
 10
-2785.891984236915
 20
833.3138271383868
 30
0.0
 40
1.381818181812378
  0
CIRCLE
  5
B7
330
A1
100
AcDbEntity
  8
@__WIDOCZNE
  6
Continuous
370
    13
100
AcDbCircle
 10
-2807.273802419022
 20
850.6229180474776
 30
0.0
 40
1.381818181812378
  0
CIRCLE
  5
B8
330
A1
100
AcDbEntity
  8
@__WIDOCZNE
  6
Continuous
370
    13
100
AcDbCircle
 10
-2880.001075146512
 20
850.6229180474776
 30
0.0
 40
1.381818181812378
  0
CIRCLE
  5
B9
330
A1
100
AcDbEntity
  8
@__WIDOCZNE
  6
Continuous
370
    13
100
AcDbCircle
 10
-2777.891984236621
 20
870.6229180474776
 30
0.0
 40
1.381818181812378
  0
CIRCLE
  5
BA
330
A1
100
AcDbEntity
  8
@__WIDOCZNE
  6
Continuous
370
    13
100
AcDbCircle
 10
-2786.037438782333
 20
869.4592816838413
 30
0.0
 40
1.381818181812378
  0
CIRCLE
  5
BB
330
A1
100
AcDbEntity
  8
@__WIDOCZNE
  6
Continuous
370
    13
100
AcDbCircle
 10
-2886.328347873504
 20
846.6956453202049
 30
0.0
 40
1.381818181812378
  0
CIRCLE
  5
BC
330
A1
100
AcDbEntity
  8
@__WIDOCZNE
  6
Continuous
370
    13
100
AcDbCircle
 10
-2893.964711509912
 20
857.604736229296
 30
0.0
 40
1.381818181812378
  0
CIRCLE
  5
BD
330
A1
100
AcDbEntity
  8
@__WIDOCZNE
  6
Continuous
370
    13
100
AcDbCircle
 10
-2748.510166054988
 20
857.604736229296
 30
0.0
 40
1.381818181812378
  0
CIRCLE
  5
BE
330
A1
100
AcDbEntity
  8
@__WIDOCZNE
  6
Continuous
370
    13
100
AcDbCircle
 10
-2886.255620601222
 20
803.7138271383869
 30
0.0
 40
1.381818181812378
  0
CIRCLE
  5
BF
330
A1
100
AcDbEntity
  8
@__WIDOCZNE
  6
Continuous
370
    13
100
AcDbCircle
 10
-2807.201075145943
 20
803.5683725929322
 30
0.0
 40
1.381818181812378
  0
CIRCLE
  5
C0
330
A1
100
AcDbEntity
  8
@__WIDOCZNE
  6
Continuous
370
    13
100
AcDbCircle
 10
-2879.928347873406
 20
803.5683725929322
 30
0.0
 40
1.381818181812378
  0
CIRCLE
  5
C1
330
A1
100
AcDbEntity
  8
@__WIDOCZNE
  6
Continuous
370
    13
100
AcDbCircle
 10
-2881.019256964325
 20
821.3865544111139
 30
0.0
 40
1.381818181812378
  0
CIRCLE
  5
C2
330
A1
100
AcDbEntity
  8
@__WIDOCZNE
  6
Continuous
370
    13
100
AcDbCircle
 10
-2765.964711509642
 20
837.095645320205
 30
0.0
 40
1.381818181812378
  0
CIRCLE
  5
C3
330
A1
100
AcDbEntity
  8
@__WIDOCZNE
  6
Continuous
370
    13
100
AcDbCircle
 10
-2761.09198423666
 20
848.0774635020232
 30
0.0
 40
1.381818181812378
  0
ARC
  5
C4
330
A1
100
AcDbEntity
  8
@__WIDOCZNE
  6
Continuous
370
    13
100
AcDbCircle
 10
-2898.182893328172
 20
807.8592816838411
 30
0.0
 40
5.381818181831477
100
AcDbArc
 50
265.1374204792547
 51
94.86257952074529
  0
CIRCLE
  5
C5
330
A1
100
AcDbEntity
  8
@__WIDOCZNE
  6
Continuous
370
    13
100
AcDbCircle
 10
-2752.728347873247
 20
807.8592816838411
 30
0.0
 40
5.381818181831477
  0
ARC
  5
C6
330
A1
100
AcDbEntity
  8
@__WIDOCZNE
  6
Continuous
370
    13
100
AcDbCircle
 10
-2903.201075146544
 20
860.8047362292958
 30
0.0
 40
5.381818181831477
100
AcDbArc
 50
327.9587380360004
 51
32.04126196399961
  0
CIRCLE
  5
C7
330
A1
100
AcDbEntity
  8
@__WIDOCZNE
  6
Continuous
370
    13
100
AcDbCircle
 10
-2757.746529691619
 20
860.8047362292958
 30
0.0
 40
5.381818181831477
  0
CIRCLE
  5
C8
330
A1
100
AcDbEntity
  8
@__WIDOCZNE
  6
Continuous
370
    13
100
AcDbCircle
 10
-2801.310166055177
 20
840.5865544111141
 30
0.0
 40
5.381818181831477
  0
CIRCLE
  5
C9
330
A1
100
AcDbEntity
  8
@__WIDOCZNE
  6
Continuous
370
    13
100
AcDbCircle
 10
-2766.255620600421
 20
826.5501907747505
 30
0.0
 40
5.381818181831477
  0
CIRCLE
  5
CA
330
A1
100
AcDbEntity
  8
@__WIDOCZNE
  6
Continuous
370
    13
100
AcDbCircle
 10
-2793.164711509408
 20
840.877463502023
 30
0.0
 40
2.109090909101496
  0
CIRCLE
  5
CB
330
A1
100
AcDbEntity
  8
@__WIDOCZNE
  6
Continuous
370
    13
100
AcDbCircle
 10
-2796.001075145998
 20
827.1320089565685
 30
0.0
 40
2.109090909101496
  0
CIRCLE
  5
CC
330
A1
100
AcDbEntity
  8
@__WIDOCZNE
  6
Continuous
370
    13
100
AcDbCircle
 10
-2787.710166054839
 20
823.2047362292959
 30
0.0
 40
2.109090909101496
  0
CIRCLE
  5
CD
330
A1
100
AcDbEntity
  8
@__WIDOCZNE
  6
Continuous
370
    13
100
AcDbCircle
 10
-2775.782893327889
 20
831.2047362292957
 30
0.0
 40
2.109090909101496
  0
ARC
  5
CE
330
A1
100
AcDbEntity
  8
@__WIDOCZNE
  6
Continuous
370
    13
100
AcDbCircle
 10
-2898.473802418951
 20
869.7501907747503
 30
0.0
 40
2.109090909101496
100
AcDbArc
 50
265.5051851445625
 51
94.49481485543753
  0
CIRCLE
  5
CF
330
A1
100
AcDbEntity
  8
@__WIDOCZNE
  6
Continuous
370
    13
100
AcDbCircle
 10
-2753.019256964027
 20
869.7501907747503
 30
0.0
 40
2.109090909101496
  0
CIRCLE
  5
D0
330
A1
100
AcDbEntity
  8
@__WIDOCZNE
  6
Continuous
370
    13
100
AcDbCircle
 10
-2890.110166055567
 20
851.7138271383868
 30
0.0
 40
2.109090909101496
  0
ARC
  5
D1
330
A1
100
AcDbEntity
  8
@__WIDOCZNE
  6
Continuous
370
    13
100
AcDbCircle
 10
-2744.655620600642
 20
851.7138271383868
 30
0.0
 40
2.109090909101496
100
AcDbArc
 50
71.1025969079838
 51
288.8974030920162
  0
CIRCLE
  5
D2
330
A1
100
AcDbEntity
  8
@__WIDOCZNE
  6
Continuous
370
    13
100
AcDbCircle
 10
-2887.928347873728
 20
858.8410998656595
 30
0.0
 40
2.109090909101496
  0
ARC
  5
D3
330
A1
100
AcDbEntity
  8
@__WIDOCZNE
  6
Continuous
370
    13
100
AcDbCircle
 10
-2742.473802418803
 20
858.8410998656595
 30
0.0
 40
2.109090909101496
100
AcDbArc
 50
135.2844234855623
 51
224.7155765144377
  0
CIRCLE
  5
D4
330
A1
100
AcDbEntity
  8
@__WIDOCZNE
  6
Continuous
370
    13
100
AcDbCircle
 10
-2888.873802419229
 20
812.8774635020234
 30
0.0
 40
2.109090909101496
  0
ARC
  5
D5
330
A1
100
AcDbEntity
  8
@__WIDOCZNE
  6
Continuous
370
    13
100
AcDbCircle
 10
-2743.419256964305
 20
812.8774635020234
 30
0.0
 40
2.109090909101496
100
AcDbArc
 50
105.2085012333622
 51
254.7914987666378
  0
CIRCLE
  5
D6
330
A1
100
AcDbEntity
  8
@__WIDOCZNE
  6
Continuous
370
    13
100
AcDbCircle
 10
-2808.001075146027
 20
834.4774635020233
 30
0.0
 40
2.109090909101496
  0
CIRCLE
  5
D7
330
A1
100
AcDbEntity
  8
@__WIDOCZNE
  6
Continuous
370
    13
100
AcDbCircle
 10
-2880.728347873546
 20
834.4774635020233
 30
0.0
 40
2.109090909101496
  0
CIRCLE
  5
D8
330
A1
100
AcDbEntity
  8
@__WIDOCZNE
  6
Continuous
370
    13
100
AcDbCircle
 10
-2874.837438782751
 20
848.6592816838412
 30
0.0
 40
2.109090909101496
  0
CIRCLE
  5
D9
330
A1
100
AcDbEntity
  8
@__WIDOCZNE
  6
Continuous
370
    13
100
AcDbCircle
 10
-2807.78289332753
 20
845.9683725929324
 30
0.0
 40
2.109090909101496
  0
CIRCLE
  5
DA
330
A1
100
AcDbEntity
  8
@__WIDOCZNE
  6
Continuous
370
    13
100
AcDbCircle
 10
-2880.510166055845
 20
845.9683725929324
 30
0.0
 40
2.109090909101496
  0
CIRCLE
  5
DB
330
A1
100
AcDbEntity
  8
@__WIDOCZNE
  6
Continuous
370
    13
100
AcDbCircle
 10
-2841.746529692191
 20
818.2592816838413
 30
0.0
 40
1.381818181812378
  0
CIRCLE
  5
DC
330
A1
100
AcDbEntity
  8
@__WIDOCZNE
  6
Continuous
370
    13
100
AcDbCircle
 10
-2777.382893328112
 20
848.9501907747506
 30
0.0
 40
13.52727272725929
  0
CIRCLE
  5
DD
330
A1
100
AcDbEntity
  8
@__WIDOCZNE
  6
Continuous
370
    13
100
AcDbCircle
 10
-2827.419256964848
 20
820.295645320205
 30
0.0
 40
5.381818181831477
  0
CIRCLE
  5
DE
330
A1
100
AcDbEntity
  8
@__WIDOCZNE
  6
Continuous
370
    13
100
AcDbCircle
 10
-2852.437438782832
 20
804.0047362292959
 30
0.0
 40
2.109090909101496
  0
CIRCLE
  5
DF
330
A1
100
AcDbEntity
  8
@__WIDOCZNE
  6
Continuous
370
    13
100
AcDbCircle
 10
-2825.45562060071
 20
837.5320089565685
 30
0.0
 40
10.61818181818808
  0
CIRCLE
  5
E0
330
A1
100
AcDbEntity
  8
@__WIDOCZNE
  6
Continuous
370
    13
100
AcDbCircle
 10
-2804.437438782517
 20
827.5683725929322
 30
0.0
 40
4.218181818174571
  0
CIRCLE
  5
E1
330
A1
100
AcDbEntity
  8
@__WIDOCZNE
  6
Continuous
370
    13
100
AcDbCircle
 10
-2816.946529691907
 20
823.495645320205
 30
0.0
 40
4.218181818174571
  0
CIRCLE
  5
E2
330
A1
100
AcDbEntity
  8
@__WIDOCZNE
  6
Continuous
370
    13
100
AcDbCircle
 10
-2815.855620600959
 20
868.004736229296
 30
0.0
 40
4.218181818174571
  0
CIRCLE
  5
E3
330
A1
100
AcDbEntity
  8
@__WIDOCZNE
  6
Continuous
370
    13
100
AcDbCircle
 10
-2863.128347873445
 20
828.9501907747507
 30
0.0
 40
2.109090909101496
  0
CIRCLE
  5
E4
330
A1
100
AcDbEntity
  8
@__WIDOCZNE
  6
Continuous
370
    13
100
AcDbCircle
 10
-2790.401075146835
 20
828.9501907747507
 30
0.0
 40
2.109090909101496
  0
CIRCLE
  5
E5
330
A1
100
AcDbEntity
  8
@__WIDOCZNE
  6
Continuous
370
    13
100
AcDbCircle
 10
-2857.455620601203
 20
864.295645320205
 30
0.0
 40
2.109090909101496
  0
CIRCLE
  5
E6
330
A1
100
AcDbEntity
  8
@__WIDOCZNE
  6
Continuous
370
    13
100
AcDbCircle
 10
-2813.964711509956
 20
830.4774635020233
 30
0.0
 40
2.109090909101496
  0
CIRCLE
  5
E7
330
A1
100
AcDbEntity
  8
@__WIDOCZNE
  6
Continuous
370
    13
100
AcDbCircle
 10
-2858.619256964377
 20
833.3138271383868
 30
0.0
 40
1.381818181812378
  0
CIRCLE
  5
E8
330
A1
100
AcDbEntity
  8
@__WIDOCZNE
  6
Continuous
370
    13
100
AcDbCircle
 10
-2813.601075146042
 20
846.6956453202049
 30
0.0
 40
1.381818181812378
  0
CIRCLE
  5
E9
330
A1
100
AcDbEntity
  8
@__WIDOCZNE
  6
Continuous
370
    13
100
AcDbCircle
 10
-2821.23743878245
 20
857.604736229296
 30
0.0
 40
1.381818181812378
  0
CIRCLE
  5
EA
330
A1
100
AcDbEntity
  8
@__WIDOCZNE
  6
Continuous
370
    13
100
AcDbCircle
 10
-2813.528347873731
 20
803.7138271383869
 30
0.0
 40
1.381818181812378
  0
CIRCLE
  5
EB
330
A1
100
AcDbEntity
  8
@__WIDOCZNE
  6
Continuous
370
    13
100
AcDbCircle
 10
-2808.291984237687
 20
821.3865544111139
 30
0.0
 40
1.381818181812378
  0
CIRCLE
  5
EC
330
A1
100
AcDbEntity
  8
@__WIDOCZNE
  6
Continuous
370
    13
100
AcDbCircle
 10
-2843.273802419279
 20
833.4592816838414
 30
0.0
 40
1.381818181812378
  0
CIRCLE
  5
ED
330
A1
100
AcDbEntity
  8
@__WIDOCZNE
  6
Continuous
370
    13
100
AcDbCircle
 10
-2770.546529691845
 20
833.4592816838414
 30
0.0
 40
1.381818181812378
  0
CIRCLE
  5
EE
330
A1
100
AcDbEntity
  8
@__WIDOCZNE
  6
Continuous
370
    13
100
AcDbCircle
 10
-2838.691984237104
 20
837.095645320205
 30
0.0
 40
1.381818181812378
  0
CIRCLE
  5
EF
330
A1
100
AcDbEntity
  8
@__WIDOCZNE
  6
Continuous
370
    13
100
AcDbCircle
 10
-2833.819256964975
 20
848.0774635020232
 30
0.0
 40
1.381818181812378
  0
CIRCLE
  5
F0
330
A1
100
AcDbEntity
  8
@__WIDOCZNE
  6
Continuous
370
    13
100
AcDbCircle
 10
-2825.45562060071
 20
807.8592816838411
 30
0.0
 40
5.381818181831477
  0
CIRCLE
  5
F1
330
A1
100
AcDbEntity
  8
@__WIDOCZNE
  6
Continuous
370
    13
100
AcDbCircle
 10
-2770.32834787332
 20
808.8047362292958
 30
0.0
 40
5.381818181831477
  0
CIRCLE
  5
F2
330
A1
100
AcDbEntity
  8
@__WIDOCZNE
  6
Continuous
370
    13
100
AcDbCircle
 10
-2780.219256964674
 20
816.8047362292958
 30
0.0
 40
5.381818181831477
  0
CIRCLE
  5
F3
330
A1
100
AcDbEntity
  8
@__WIDOCZNE
  6
Continuous
370
    13
100
AcDbCircle
 10
-2830.473802419081
 20
860.8047362292958
 30
0.0
 40
5.381818181831477
  0
CIRCLE
  5
F4
330
A1
100
AcDbEntity
  8
@__WIDOCZNE
  6
Continuous
370
    13
100
AcDbCircle
 10
-2865.891984237695
 20
840.877463502023
 30
0.0
 40
2.109090909101496
  0
CIRCLE
  5
F5
330
A1
100
AcDbEntity
  8
@__WIDOCZNE
  6
Continuous
370
    13
100
AcDbCircle
 10
-2860.437438783126
 20
823.2047362292959
 30
0.0
 40
2.109090909101496
  0
CIRCLE
  5
F6
330
A1
100
AcDbEntity
  8
@__WIDOCZNE
  6
Continuous
370
    13
100
AcDbCircle
 10
-2868.873802418821
 20
833.4592816838414
 30
0.0
 40
2.109090909101496
  0
CIRCLE
  5
F7
330
A1
100
AcDbEntity
  8
@__WIDOCZNE
  6
Continuous
370
    13
100
AcDbCircle
 10
-2796.146529692212
 20
833.4592816838414
 30
0.0
 40
2.109090909101496
  0
CIRCLE
  5
F8
330
A1
100
AcDbEntity
  8
@__WIDOCZNE
  6
Continuous
370
    13
100
AcDbCircle
 10
-2848.510166055323
 20
831.2047362292957
 30
0.0
 40
2.109090909101496
  0
CIRCLE
  5
F9
330
A1
100
AcDbEntity
  8
@__WIDOCZNE
  6
Continuous
370
    13
100
AcDbCircle
 10
-2829.019256964276
 20
851.2047362292957
 30
0.0
 40
2.109090909101496
  0
CIRCLE
  5
FA
330
A1
100
AcDbEntity
  8
@__WIDOCZNE
  6
Continuous
370
    13
100
AcDbCircle
 10
-2756.291984237638
 20
851.2047362292957
 30
0.0
 40
2.109090909101496
  0
CIRCLE
  5
FB
330
A1
100
AcDbEntity
  8
@__WIDOCZNE
  6
Continuous
370
    13
100
AcDbCircle
 10
-2825.746529691517
 20
869.7501907747503
 30
0.0
 40
2.109090909101496
  0
CIRCLE
  5
FC
330
A1
100
AcDbEntity
  8
@__WIDOCZNE
  6
Continuous
370
    13
100
AcDbCircle
 10
-2817.382893328105
 20
851.7138271383868
 30
0.0
 40
2.109090909101496
  0
CIRCLE
  5
FD
330
A1
100
AcDbEntity
  8
@__WIDOCZNE
  6
Continuous
370
    13
100
AcDbCircle
 10
-2815.201075146266
 20
858.8410998656595
 30
0.0
 40
2.109090909101496
  0
CIRCLE
  5
FE
330
A1
100
AcDbEntity
  8
@__WIDOCZNE
  6
Continuous
370
    13
100
AcDbCircle
 10
-2816.146529691795
 20
812.8774635020234
 30
0.0
 40
2.109090909101496
  0
CIRCLE
  5
FF
330
A1
100
AcDbEntity
  8
@__WIDOCZNE
  6
Continuous
370
    13
100
AcDbCircle
 10
-2802.110166055289
 20
848.6592816838412
 30
0.0
 40
2.109090909101496
  0
ARC
  5
100
330
A1
100
AcDbEntity
  8
@__WIDOCZNE
  6
Continuous
370
    13
100
AcDbCircle
 10
-2870.037438782876
 20
812.4410998656595
 30
0.0
 40
10.61818181818179
100
AcDbArc
 50
262.1265062003271
 51
97.87349379967283
  0
CIRCLE
  5
101
330
A1
100
AcDbEntity
  8
@__WIDOCZNE
  6
Continuous
370
    13
100
AcDbCircle
 10
-2854.328347873863
 20
827.4956453202051
 30
0.0
 40
4.218181818174571
  0
CIRCLE
  5
102
330
A1
100
AcDbEntity
  8
@__WIDOCZNE
  6
Continuous
370
    13
100
AcDbCircle
 10
-2850.110166055575
 20
848.9501907747506
 30
0.0
 40
13.52727272725929
  0
ARC
  5
103
330
A1
100
AcDbEntity
  8
@__WIDOCZNE
  6
Continuous
370
    13
100
AcDbCircle
 10
-2871.49198423771
 20
862.0410998656594
 30
0.0
 40
10.61818181818179
100
AcDbArc
 50
270.0
 51
90.0
  0
ARC
  5
104
330
A1
100
AcDbEntity
  8
@__WIDOCZNE
  6
Continuous
370
    13
100
AcDbCircle
 10
-2840.582893328136
 20
868.6592816838412
 30
0.0
 40
4.218181818174571
100
AcDbArc
 50
105.3353507994727
 51
74.66464920052732
  0
CIRCLE
  5
105
330
A1
100
AcDbEntity
  8
@__WIDOCZNE
  6
Continuous
370
    13
100
AcDbCircle
 10
-2867.346529691733
 20
849.2410998656595
 30
0.0
 40
2.109090909101496
  0
CIRCLE
  5
106
330
A1
100
AcDbEntity
  8
@__WIDOCZNE
  6
Continuous
370
    13
100
AcDbCircle
 10
-2850.619256964879
 20
870.6229180474776
 30
0.0
 40
1.381818181812378
  0
CIRCLE
  5
107
330
A1
100
AcDbEntity
  8
@__WIDOCZNE
  6
Continuous
370
    13
100
AcDbCircle
 10
-2858.764711510648
 20
869.4592816838413
 30
0.0
 40
1.381818181812378
  0
CIRCLE
  5
108
330
A1
100
AcDbEntity
  8
@__WIDOCZNE
  6
Continuous
370
    13
100
AcDbCircle
 10
-2843.055620600782
 20
808.8047362292958
 30
0.0
 40
5.381818181831477
  0
CIRCLE
  5
109
330
A1
100
AcDbEntity
  8
@__WIDOCZNE
  6
Continuous
370
    13
100
AcDbCircle
 10
-2852.946529692136
 20
816.8047362292958
 30
0.0
 40
5.381818181831477
  0
ARC
  5
10A
330
A1
100
AcDbEntity
  8
@__WIDOCZNE
  6
Continuous
370
    13
100
AcDbCircle
 10
-2874.03743878264
 20
840.5865544111141
 30
0.0
 40
5.381818181818192
100
AcDbArc
 50
298.2274523443905
 51
61.77254765560951
  0
CIRCLE
  5
10B
330
A1
100
AcDbEntity
  8
@__WIDOCZNE
  6
Continuous
370
    13
100
AcDbCircle
 10
-2838.982893328765
 20
826.5501907747505
 30
0.0
 40
5.381818181831477
  0
CIRCLE
  5
10C
330
A1
100
AcDbEntity
  8
@__WIDOCZNE
  6
Continuous
370
    13
100
AcDbCircle
 10
-2868.728347874284
 20
827.1320089565685
 30
0.0
 40
2.109090909101496
  0
ARC
  5
10D
330
A1
100
AcDbEntity
  8
@__WIDOCZNE
  6
Continuous
370
    13
100
AcDbCircle
 10
-2870.037438782876
 20
812.4410998656595
 30
0.0
 40
10.61818181818179
100
AcDbArc
 50
97.87349379982767
 51
262.1265062001723
  0
ARC
  5
10E
330
A1
100
AcDbEntity
  8
@__WIDOCZNE
  6
Continuous
370
    13
100
AcDbCircle
 10
-2874.037438782668
 20
840.5865544111141
 30
0.0
 40
5.381818181818192
100
AcDbArc
 50
61.77254765560949
 51
298.2274523443905
  0
ARC
  5
10F
330
A1
100
AcDbEntity
  8
@__WIDOCZNE
  6
Continuous
370
    13
100
AcDbCircle
 10
-2871.49198423771
 20
862.0410998656594
 30
0.0
 40
10.61818181818179
100
AcDbArc
 50
90.0
 51
270.0
  0
ENDBLK
  5
A3
330
A1
100
AcDbEntity
  8
0
100
AcDbBlockEnd
  0
BLOCK
  5
112
330
111
100
AcDbEntity
  8
0
100
AcDbBlockBegin
  2
Izolacja cieplna 12_17_2
 70
     0
 10
-2567.971433522582
 20
1150.000000000048
 30
0.0
  3
Izolacja cieplna 12_17_2
  1

  0
LINE
  5
114
330
111
100
AcDbEntity
  8
0
  6
Continuous
370
    13
100
AcDbLine
 10
-2627.569739498905
 20
1193.641152096583
 30
0.0
 11
-2708.374956296978
 21
1227.137375088942
 31
0.0
  0
LINE
  5
115
330
111
100
AcDbEntity
  8
0
  6
Continuous
370
    13
100
AcDbLine
 10
-2708.374956296978
 20
1153.381648065958
 30
0.0
 11
-2627.569739498905
 21
1186.877840871085
 31
0.0
  0
LINE
  5
116
330
111
100
AcDbEntity
  8
0
  6
Continuous
370
    13
100
AcDbLine
 10
-2627.569739498905
 20
1274.161930006329
 30
0.0
 11
-2708.374956296978
 21
1307.658152998689
 31
0.0
  0
LINE
  5
117
330
111
100
AcDbEntity
  8
0
  6
Continuous
370
    13
100
AcDbLine
 10
-2708.374956296978
 20
1233.902425975704
 30
0.0
 11
-2627.569739498905
 21
1267.398618780831
 31
0.0
  0
LINE
  5
118
330
111
100
AcDbEntity
  8
0
  6
Continuous
370
    13
100
AcDbLine
 10
-2627.569739498905
 20
1354.682707916076
 30
0.0
 11
-2708.374956296978
 21
1388.178930908436
 31
0.0
  0
LINE
  5
119
330
111
100
AcDbEntity
  8
0
  6
Continuous
370
    13
100
AcDbLine
 10
-2708.374956296978
 20
1314.423203885451
 30
0.0
 11
-2627.569739498905
 21
1347.919396690578
 31
0.0
  0
LINE
  5
11A
330
111
100
AcDbEntity
  8
0
  6
Continuous
370
    13
100
AcDbLine
 10
-2627.569739498905
 20
1435.203485825823
 30
0.0
 11
-2708.374956296978
 21
1468.699708818182
 31
0.0
  0
LINE
  5
11B
330
111
100
AcDbEntity
  8
0
  6
Continuous
370
    13
100
AcDbLine
 10
-2708.374956296978
 20
1394.943981795198
 30
0.0
 11
-2627.569739498905
 21
1428.440174600325
 31
0.0
  0
LINE
  5
11C
330
111
100
AcDbEntity
  8
0
  6
Continuous
370
    13
100
AcDbLine
 10
-2627.569739498905
 20
1515.724263735569
 30
0.0
 11
-2708.374956296978
 21
1549.220486727929
 31
0.0
  0
LINE
  5
11D
330
111
100
AcDbEntity
  8
0
  6
Continuous
370
    13
100
AcDbLine
 10
-2708.374956296978
 20
1475.464759704944
 30
0.0
 11
-2627.569739498905
 21
1508.960952510071
 31
0.0
  0
LINE
  5
11E
330
111
100
AcDbEntity
  8
0
  6
Continuous
370
    13
100
AcDbLine
 10
-2627.569739498904
 20
1596.245041645316
 30
0.0
 11
-2708.374956296978
 21
1629.741264637676
 31
0.0
  0
LINE
  5
11F
330
111
100
AcDbEntity
  8
0
  6
Continuous
370
    13
100
AcDbLine
 10
-2708.374956296978
 20
1555.985537614691
 30
0.0
 11
-2627.569739498904
 21
1589.481730419818
 31
0.0
  0
LINE
  5
120
330
111
100
AcDbEntity
  8
0
  6
Continuous
370
    13
100
AcDbLine
 10
-2627.569739498904
 20
1676.765819555063
 30
0.0
 11
-2708.374956296978
 21
1710.262042547422
 31
0.0
  0
LINE
  5
121
330
111
100
AcDbEntity
  8
0
  6
Continuous
370
    13
100
AcDbLine
 10
-2708.374956296978
 20
1636.506315524437
 30
0.0
 11
-2627.569739498904
 21
1670.002508329565
 31
0.0
  0
ELLIPSE
  5
122
330
111
100
AcDbEntity
  8
0
  6
Continuous
370
    13
100
AcDbEllipse
 10
-2610.506122908844
 20
1150.000000000048
 30
0.0
 11
-42.53469337295165
 21
5.208997609189939E-15
 31
0.0
210
0.0
220
0.0
230
1.0
 40
0.9465100640998677
 41
3.141592653589793
 42
5.125182398198085
  0
ELLIPSE
  5
123
330
111
100
AcDbEntity
  8
0
  6
Continuous
370
    13
100
AcDbEllipse
 10
-2725.438588833932
 20
1190.259534218033
 30
0.0
 11
-42.53469337295165
 21
5.208997609189939E-15
 31
0.0
210
0.0
220
0.0
230
1.0
 40
0.9465100640998677
 41
4.299595219146317
 42
8.26677494400434
  0
ELLIPSE
  5
124
330
111
100
AcDbEntity
  8
0
  6
Continuous
370
    13
100
AcDbEllipse
 10
-2610.506138855536
 20
1230.519023155092
 30
0.0
 11
-42.53469337295165
 21
5.208997609189939E-15
 31
0.0
210
0.0
220
0.0
230
1.0
 40
0.9465100640998677
 41
1.158003553206693
 42
5.125182741616046
  0
ELLIPSE
  5
125
330
111
100
AcDbEntity
  8
0
  6
Continuous
370
    13
100
AcDbEllipse
 10
-2725.438588833932
 20
1270.780312127779
 30
0.0
 11
-42.53469337295165
 21
5.208997609189939E-15
 31
0.0
210
0.0
220
0.0
230
1.0
 40
0.9465100640998677
 41
4.299595219146317
 42
8.266774944004343
  0
ELLIPSE
  5
126
330
111
100
AcDbEntity
  8
0
  6
Continuous
370
    13
100
AcDbEllipse
 10
-2610.506138855536
 20
1311.039801064839
 30
0.0
 11
-42.53469337295165
 21
5.208997609189939E-15
 31
0.0
210
0.0
220
0.0
230
1.0
 40
0.9465100640998677
 41
1.158003553206688
 42
5.125182741616046
  0
ELLIPSE
  5
127
330
111
100
AcDbEntity
  8
0
  6
Continuous
370
    13
100
AcDbEllipse
 10
-2725.438588833932
 20
1351.301090037526
 30
0.0
 11
-42.53469337295165
 21
5.208997609189939E-15
 31
0.0
210
0.0
220
0.0
230
1.0
 40
0.9465100640998677
 41
4.299595219146313
 42
8.26677494400434
  0
ELLIPSE
  5
128
330
111
100
AcDbEntity
  8
0
  6
Continuous
370
    13
100
AcDbEllipse
 10
-2610.506138855536
 20
1391.560578974585
 30
0.0
 11
-42.53469337295165
 21
5.208997609189939E-15
 31
0.0
210
0.0
220
0.0
230
1.0
 40
0.9465100640998677
 41
1.158003553206693
 42
5.125182741616046
  0
ELLIPSE
  5
129
330
111
100
AcDbEntity
  8
0
  6
Continuous
370
    13
100
AcDbEllipse
 10
-2725.438588833932
 20
1431.821867947273
 30
0.0
 11
-42.53469337295165
 21
5.208997609189939E-15
 31
0.0
210
0.0
220
0.0
230
1.0
 40
0.9465100640998677
 41
4.299595219146317
 42
8.266774944004343
  0
ELLIPSE
  5
12A
330
111
100
AcDbEntity
  8
0
  6
Continuous
370
    13
100
AcDbEllipse
 10
-2610.506138855536
 20
1472.081356884332
 30
0.0
 11
-42.53469337295165
 21
5.208997609189939E-15
 31
0.0
210
0.0
220
0.0
230
1.0
 40
0.9465100640998677
 41
1.158003553206688
 42
5.125182741616037
  0
ELLIPSE
  5
12B
330
111
100
AcDbEntity
  8
0
  6
Continuous
370
    13
100
AcDbEllipse
 10
-2725.438588833932
 20
1512.342645857019
 30
0.0
 11
-42.53469337295165
 21
5.208997609189939E-15
 31
0.0
210
0.0
220
0.0
230
1.0
 40
0.9465100640998677
 41
4.299595219146317
 42
8.266774944004343
  0
ELLIPSE
  5
12C
330
111
100
AcDbEntity
  8
0
  6
Continuous
370
    13
100
AcDbEllipse
 10
-2610.506138855536
 20
1552.602134794079
 30
0.0
 11
-42.53469337295165
 21
5.208997609189939E-15
 31
0.0
210
0.0
220
0.0
230
1.0
 40
0.9465100640998677
 41
1.158003553206693
 42
5.125182741616037
  0
ELLIPSE
  5
12D
330
111
100
AcDbEntity
  8
0
  6
Continuous
370
    13
100
AcDbEllipse
 10
-2725.438588833932
 20
1592.863423766766
 30
0.0
 11
-42.53469337295165
 21
5.208997609189939E-15
 31
0.0
210
0.0
220
0.0
230
1.0
 40
0.9465100640998677
 41
4.299595219146317
 42
8.26677494400434
  0
ELLIPSE
  5
12E
330
111
100
AcDbEntity
  8
0
  6
Continuous
370
    13
100
AcDbEllipse
 10
-2610.506138855536
 20
1633.122912703825
 30
0.0
 11
-42.53469337295165
 21
5.208997609189939E-15
 31
0.0
210
0.0
220
0.0
230
1.0
 40
0.9465100640998677
 41
1.158003553206699
 42
5.125182741616037
  0
ELLIPSE
  5
12F
330
111
100
AcDbEntity
  8
0
  6
Continuous
370
    13
100
AcDbEllipse
 10
-2725.438588833932
 20
1673.384201676512
 30
0.0
 11
-42.53469337295165
 21
5.208997609189939E-15
 31
0.0
210
0.0
220
0.0
230
1.0
 40
0.9465100640998677
 41
4.299595219146317
 42
8.266774944004343
  0
ELLIPSE
  5
130
330
111
100
AcDbEntity
  8
0
  6
Continuous
370
    13
100
AcDbEllipse
 10
-2610.506138855536
 20
1713.643690613572
 30
0.0
 11
-42.53469337295165
 21
5.208997609189939E-15
 31
0.0
210
0.0
220
0.0
230
1.0
 40
0.9465100640998677
 41
1.158003553206699
 42
3.141592653589793
  0
ENDBLK
  5
113
330
111
100
AcDbEntity
  8
0
100
AcDbBlockEnd
  0
BLOCK
  5
133
330
132
100
AcDbEntity
  8
0
100
AcDbBlockBegin
  2
Izolacja cieplna 12_16_2
 70
     0
 10
-2281.972273844694
 20
641.0000000000484
 30
0.0
  3
Izolacja cieplna 12_16_2
  1

  0
LINE
  5
135
330
132
100
AcDbEntity
  8
0
  6
Continuous
370
    13
100
AcDbLine
 10
-2290.531516964485
 20
647.837364628758
 30
0.0
 11
-2302.136402113348
 21
653.0852987295058
 31
0.0
  0
LINE
  5
136
330
132
100
AcDbEntity
  8
0
  6
Continuous
370
    13
100
AcDbLine
 10
-2302.136402113348
 20
641.5298109642835
 30
0.0
 11
-2290.531516964485
 21
646.7777403355248
 31
0.0
  0
LINE
  5
137
330
132
100
AcDbEntity
  8
0
  6
Continuous
370
    13
100
AcDbLine
 10
-2290.531516964485
 20
660.4527492441425
 30
0.0
 11
-2302.136402113348
 21
665.7006833448905
 31
0.0
  0
LINE
  5
138
330
132
100
AcDbEntity
  8
0
  6
Continuous
370
    13
100
AcDbLine
 10
-2302.136402113348
 20
654.1451955796681
 30
0.0
 11
-2290.531516964485
 21
659.3931249509093
 31
0.0
  0
LINE
  5
139
330
132
100
AcDbEntity
  8
0
  6
Continuous
370
    13
100
AcDbLine
 10
-2290.531516964485
 20
673.0681338595273
 30
0.0
 11
-2302.136402113348
 21
678.3160679602751
 31
0.0
  0
LINE
  5
13A
330
132
100
AcDbEntity
  8
0
  6
Continuous
370
    13
100
AcDbLine
 10
-2302.136402113348
 20
666.7605801950527
 30
0.0
 11
-2290.531516964485
 21
672.008509566294
 31
0.0
  0
LINE
  5
13B
330
132
100
AcDbEntity
  8
0
  6
Continuous
370
    13
100
AcDbLine
 10
-2290.531516964485
 20
685.6835184749118
 30
0.0
 11
-2302.136402113348
 21
690.9314525756597
 31
0.0
  0
LINE
  5
13C
330
132
100
AcDbEntity
  8
0
  6
Continuous
370
    13
100
AcDbLine
 10
-2302.136402113348
 20
679.3759648104373
 30
0.0
 11
-2290.531516964485
 21
684.6238941816786
 31
0.0
  0
LINE
  5
13D
330
132
100
AcDbEntity
  8
0
  6
Continuous
370
    13
100
AcDbLine
 10
-2290.531516964485
 20
698.2989030902964
 30
0.0
 11
-2302.136402113348
 21
703.5468371910442
 31
0.0
  0
LINE
  5
13E
330
132
100
AcDbEntity
  8
0
  6
Continuous
370
    13
100
AcDbLine
 10
-2302.136402113348
 20
691.9913494258219
 30
0.0
 11
-2290.531516964485
 21
697.2392787970632
 31
0.0
  0
LINE
  5
13F
330
132
100
AcDbEntity
  8
0
  6
Continuous
370
    13
100
AcDbLine
 10
-2290.531516964485
 20
710.914287705681
 30
0.0
 11
-2302.136402113348
 21
716.1622218064289
 31
0.0
  0
LINE
  5
140
330
132
100
AcDbEntity
  8
0
  6
Continuous
370
    13
100
AcDbLine
 10
-2302.136402113348
 20
704.6067340412064
 30
0.0
 11
-2290.531516964485
 21
709.8546634124477
 31
0.0
  0
LINE
  5
141
330
132
100
AcDbEntity
  8
0
  6
Continuous
370
    13
100
AcDbLine
 10
-2290.531516964485
 20
723.5296723210656
 30
0.0
 11
-2302.136402113348
 21
728.7776064218135
 31
0.0
  0
LINE
  5
142
330
132
100
AcDbEntity
  8
0
  6
Continuous
370
    13
100
AcDbLine
 10
-2302.136402113348
 20
717.2221186565911
 30
0.0
 11
-2290.531516964485
 21
722.4700480278324
 31
0.0
  0
LINE
  5
143
330
132
100
AcDbEntity
  8
0
  6
Continuous
370
    13
100
AcDbLine
 10
-2290.531516964485
 20
736.1450569364503
 30
0.0
 11
-2302.136402113348
 21
741.3929910371982
 31
0.0
  0
LINE
  5
144
330
132
100
AcDbEntity
  8
0
  6
Continuous
370
    13
100
AcDbLine
 10
-2302.136402113348
 20
729.8375032719757
 30
0.0
 11
-2290.531516964485
 21
735.085432643217
 31
0.0
  0
LINE
  5
145
330
132
100
AcDbEntity
  8
0
  6
Continuous
370
    13
100
AcDbLine
 10
-2290.531516964485
 20
748.7604415518349
 30
0.0
 11
-2302.136402113348
 21
754.0083756525827
 31
0.0
  0
LINE
  5
146
330
132
100
AcDbEntity
  8
0
  6
Continuous
370
    13
100
AcDbLine
 10
-2302.136402113348
 20
742.4528878873602
 30
0.0
 11
-2290.531516964485
 21
747.7008172586015
 31
0.0
  0
LINE
  5
147
330
132
100
AcDbEntity
  8
0
  6
Continuous
370
    13
100
AcDbLine
 10
-2290.531516964485
 20
761.3758261672194
 30
0.0
 11
-2302.136402113348
 21
766.6237602679673
 31
0.0
  0
LINE
  5
148
330
132
100
AcDbEntity
  8
0
  6
Continuous
370
    13
100
AcDbLine
 10
-2302.136402113348
 20
755.0682725027449
 30
0.0
 11
-2290.531516964485
 21
760.3162018739862
 31
0.0
  0
LINE
  5
149
330
132
100
AcDbEntity
  8
0
  6
Continuous
370
    13
100
AcDbLine
 10
-2290.531516964485
 20
773.9912107826042
 30
0.0
 11
-2302.136402113348
 21
779.239144883352
 31
0.0
  0
LINE
  5
14A
330
132
100
AcDbEntity
  8
0
  6
Continuous
370
    13
100
AcDbLine
 10
-2302.136402113348
 20
767.6836571181295
 30
0.0
 11
-2290.531516964485
 21
772.9315864893707
 31
0.0
  0
LINE
  5
14B
330
132
100
AcDbEntity
  8
0
  6
Continuous
370
    13
100
AcDbLine
 10
-2290.531516964485
 20
786.6065953979887
 30
0.0
 11
-2302.136402113348
 21
791.8545294987366
 31
0.0
  0
LINE
  5
14C
330
132
100
AcDbEntity
  8
0
  6
Continuous
370
    13
100
AcDbLine
 10
-2302.136402113348
 20
780.2990417335142
 30
0.0
 11
-2290.531516964485
 21
785.5469711047554
 31
0.0
  0
LINE
  5
14D
330
132
100
AcDbEntity
  8
0
  6
Continuous
370
    13
100
AcDbLine
 10
-2290.531516964485
 20
799.2219800133734
 30
0.0
 11
-2302.136402113348
 21
804.4699141141211
 31
0.0
  0
LINE
  5
14E
330
132
100
AcDbEntity
  8
0
  6
Continuous
370
    13
100
AcDbLine
 10
-2302.136402113348
 20
792.9144263488987
 30
0.0
 11
-2290.531516964485
 21
798.16235572014
 31
0.0
  0
ELLIPSE
  5
14F
330
132
100
AcDbEntity
  8
0
  6
Continuous
370
    13
100
AcDbEllipse
 10
-2288.080916389441
 20
641.0000000000484
 30
0.0
 11
3.862263788825860E-16
 21
6.307555438049433
 31
0.0
210
0.0
220
0.0
230
1.0
 40
0.9684644355953261
 41
4.71238898038469
 42
6.695978724992976
  0
ELLIPSE
  5
150
330
132
100
AcDbEntity
  8
0
  6
Continuous
370
    13
100
AcDbEllipse
 10
-2304.587004978614
 20
647.3075583940495
 30
0.0
 11
3.862263788825860E-16
 21
6.307555438049433
 31
0.0
210
0.0
220
0.0
230
1.0
 40
0.9684644355953261
 41
5.870391545941162
 42
9.837571270799252
  0
ELLIPSE
  5
151
330
132
100
AcDbEntity
  8
0
  6
Continuous
370
    13
100
AcDbEllipse
 10
-2288.080918679634
 20
653.6151096937785
 30
0.0
 11
3.862263788825860E-16
 21
6.307555438049433
 31
0.0
210
0.0
220
0.0
230
1.0
 40
0.9684644355953261
 41
2.72879988000158
 42
6.695979068410935
  0
ELLIPSE
  5
152
330
132
100
AcDbEntity
  8
0
  6
Continuous
370
    13
100
AcDbEllipse
 10
-2304.587004978614
 20
659.922943009434
 30
0.0
 11
3.862263788825860E-16
 21
6.307555438049433
 31
0.0
210
0.0
220
0.0
230
1.0
 40
0.9684644355953261
 41
5.870391545941191
 42
9.83757127079928
  0
ELLIPSE
  5
153
330
132
100
AcDbEntity
  8
0
  6
Continuous
370
    13
100
AcDbEllipse
 10
-2288.080918679634
 20
666.2304943091632
 30
0.0
 11
3.862263788825860E-16
 21
6.307555438049433
 31
0.0
210
0.0
220
0.0
230
1.0
 40
0.9684644355953261
 41
2.72879988000158
 42
6.695979068410935
  0
ELLIPSE
  5
154
330
132
100
AcDbEntity
  8
0
  6
Continuous
370
    13
100
AcDbEllipse
 10
-2304.587004978614
 20
672.5383276248185
 30
0.0
 11
3.862263788825860E-16
 21
6.307555438049433
 31
0.0
210
0.0
220
0.0
230
1.0
 40
0.9684644355953261
 41
5.870391545941191
 42
9.83757127079928
  0
ELLIPSE
  5
155
330
132
100
AcDbEntity
  8
0
  6
Continuous
370
    13
100
AcDbEllipse
 10
-2288.080918679634
 20
678.8458789245477
 30
0.0
 11
3.862263788825860E-16
 21
6.307555438049433
 31
0.0
210
0.0
220
0.0
230
1.0
 40
0.9684644355953261
 41
2.72879988000158
 42
6.695979068410907
  0
ELLIPSE
  5
156
330
132
100
AcDbEntity
  8
0
  6
Continuous
370
    13
100
AcDbEllipse
 10
-2304.587004978614
 20
685.1537122402033
 30
0.0
 11
3.862263788825860E-16
 21
6.307555438049433
 31
0.0
210
0.0
220
0.0
230
1.0
 40
0.9684644355953261
 41
5.870391545941162
 42
9.837571270799252
  0
ELLIPSE
  5
157
330
132
100
AcDbEntity
  8
0
  6
Continuous
370
    13
100
AcDbEllipse
 10
-2288.080918679634
 20
691.4612635399325
 30
0.0
 11
3.862263788825860E-16
 21
6.307555438049433
 31
0.0
210
0.0
220
0.0
230
1.0
 40
0.9684644355953261
 41
2.72879988000158
 42
6.695979068410935
  0
ELLIPSE
  5
158
330
132
100
AcDbEntity
  8
0
  6
Continuous
370
    13
100
AcDbEllipse
 10
-2304.587004978614
 20
697.7690968555878
 30
0.0
 11
3.862263788825860E-16
 21
6.307555438049433
 31
0.0
210
0.0
220
0.0
230
1.0
 40
0.9684644355953261
 41
5.870391545941162
 42
9.837571270799252
  0
ELLIPSE
  5
159
330
132
100
AcDbEntity
  8
0
  6
Continuous
370
    13
100
AcDbEllipse
 10
-2288.080918679634
 20
704.076648155317
 30
0.0
 11
3.862263788825860E-16
 21
6.307555438049433
 31
0.0
210
0.0
220
0.0
230
1.0
 40
0.9684644355953261
 41
2.72879988000158
 42
6.695979068410935
  0
ELLIPSE
  5
15A
330
132
100
AcDbEntity
  8
0
  6
Continuous
370
    13
100
AcDbEllipse
 10
-2304.587004978614
 20
710.3844814709724
 30
0.0
 11
3.862263788825860E-16
 21
6.307555438049433
 31
0.0
210
0.0
220
0.0
230
1.0
 40
0.9684644355953261
 41
5.870391545941162
 42
9.837571270799252
  0
ELLIPSE
  5
15B
330
132
100
AcDbEntity
  8
0
  6
Continuous
370
    13
100
AcDbEllipse
 10
-2288.080918679634
 20
716.6920327707016
 30
0.0
 11
3.862263788825860E-16
 21
6.307555438049433
 31
0.0
210
0.0
220
0.0
230
1.0
 40
0.9684644355953261
 41
2.72879988000158
 42
6.695979068410935
  0
ELLIPSE
  5
15C
330
132
100
AcDbEntity
  8
0
  6
Continuous
370
    13
100
AcDbEllipse
 10
-2304.587004978614
 20
722.999866086357
 30
0.0
 11
3.862263788825860E-16
 21
6.307555438049433
 31
0.0
210
0.0
220
0.0
230
1.0
 40
0.9684644355953261
 41
5.870391545941191
 42
9.83757127079928
  0
ELLIPSE
  5
15D
330
132
100
AcDbEntity
  8
0
  6
Continuous
370
    13
100
AcDbEllipse
 10
-2288.080918679634
 20
729.3074173860863
 30
0.0
 11
3.862263788825860E-16
 21
6.307555438049433
 31
0.0
210
0.0
220
0.0
230
1.0
 40
0.9684644355953261
 41
2.72879988000158
 42
6.695979068410935
  0
ELLIPSE
  5
15E
330
132
100
AcDbEntity
  8
0
  6
Continuous
370
    13
100
AcDbEllipse
 10
-2304.587004978614
 20
735.6152507017417
 30
0.0
 11
3.862263788825860E-16
 21
6.307555438049433
 31
0.0
210
0.0
220
0.0
230
1.0
 40
0.9684644355953261
 41
5.870391545941162
 42
9.837571270799252
  0
ELLIPSE
  5
15F
330
132
100
AcDbEntity
  8
0
  6
Continuous
370
    13
100
AcDbEllipse
 10
-2288.080918679634
 20
741.9228020014709
 30
0.0
 11
3.862263788825860E-16
 21
6.307555438049433
 31
0.0
210
0.0
220
0.0
230
1.0
 40
0.9684644355953261
 41
2.72879988000158
 42
6.695979068410935
  0
ELLIPSE
  5
160
330
132
100
AcDbEntity
  8
0
  6
Continuous
370
    13
100
AcDbEllipse
 10
-2304.587004978614
 20
748.2306353171263
 30
0.0
 11
3.862263788825860E-16
 21
6.307555438049433
 31
0.0
210
0.0
220
0.0
230
1.0
 40
0.9684644355953261
 41
5.870391545941162
 42
9.837571270799252
  0
ELLIPSE
  5
161
330
132
100
AcDbEntity
  8
0
  6
Continuous
370
    13
100
AcDbEllipse
 10
-2288.080918679634
 20
754.5381866168555
 30
0.0
 11
3.862263788825860E-16
 21
6.307555438049433
 31
0.0
210
0.0
220
0.0
230
1.0
 40
0.9684644355953261
 41
2.72879988000158
 42
6.695979068410935
  0
ELLIPSE
  5
162
330
132
100
AcDbEntity
  8
0
  6
Continuous
370
    13
100
AcDbEllipse
 10
-2304.587004978614
 20
760.8460199325109
 30
0.0
 11
3.862263788825860E-16
 21
6.307555438049433
 31
0.0
210
0.0
220
0.0
230
1.0
 40
0.9684644355953261
 41
5.870391545941162
 42
9.837571270799252
  0
ELLIPSE
  5
163
330
132
100
AcDbEntity
  8
0
  6
Continuous
370
    13
100
AcDbEllipse
 10
-2288.080918679634
 20
767.15357123224
 30
0.0
 11
3.862263788825860E-16
 21
6.307555438049433
 31
0.0
210
0.0
220
0.0
230
1.0
 40
0.9684644355953261
 41
2.72879988000158
 42
6.695979068410935
  0
ELLIPSE
  5
164
330
132
100
AcDbEntity
  8
0
  6
Continuous
370
    13
100
AcDbEllipse
 10
-2304.587004978614
 20
773.4614045478954
 30
0.0
 11
3.862263788825860E-16
 21
6.307555438049433
 31
0.0
210
0.0
220
0.0
230
1.0
 40
0.9684644355953261
 41
5.870391545941191
 42
9.83757127079928
  0
ELLIPSE
  5
165
330
132
100
AcDbEntity
  8
0
  6
Continuous
370
    13
100
AcDbEllipse
 10
-2288.080918679634
 20
779.7689558476246
 30
0.0
 11
3.862263788825860E-16
 21
6.307555438049433
 31
0.0
210
0.0
220
0.0
230
1.0
 40
0.9684644355953261
 41
2.72879988000158
 42
6.695979068410907
  0
ELLIPSE
  5
166
330
132
100
AcDbEntity
  8
0
  6
Continuous
370
    13
100
AcDbEllipse
 10
-2304.587004978613
 20
786.0767891632801
 30
0.0
 11
3.862263788825860E-16
 21
6.307555438049433
 31
0.0
210
0.0
220
0.0
230
1.0
 40
0.9684644355953261
 41
5.870391545941255
 42
9.837571270799216
  0
ELLIPSE
  5
167
330
132
100
AcDbEntity
  8
0
  6
Continuous
370
    13
100
AcDbEllipse
 10
-2288.080918679634
 20
792.3843404630093
 30
0.0
 11
3.862263788825860E-16
 21
6.307555438049433
 31
0.0
210
0.0
220
0.0
230
1.0
 40
0.9684644355953261
 41
2.72879988000158
 42
6.695979068410935
  0
ELLIPSE
  5
168
330
132
100
AcDbEntity
  8
0
  6
Continuous
370
    13
100
AcDbEllipse
 10
-2304.587004978613
 20
798.6921737786647
 30
0.0
 11
3.862263788825860E-16
 21
6.307555438049433
 31
0.0
210
0.0
220
0.0
230
1.0
 40
0.9684644355953261
 41
5.870391545941255
 42
9.837571270799216
  0
ELLIPSE
  5
169
330
132
100
AcDbEntity
  8
0
  6
Continuous
370
    13
100
AcDbEllipse
 10
-2288.080918679634
 20
804.9997250783939
 30
0.0
 11
3.862263788825860E-16
 21
6.307555438049433
 31
0.0
210
0.0
220
0.0
230
1.0
 40
0.9684644355953261
 41
2.72879988000158
 42
4.71238898038469
  0
ENDBLK
  5
134
330
132
100
AcDbEntity
  8
0
100
AcDbBlockEnd
  0
BLOCK
  5
16C
330
16B
100
AcDbEntity
  8
0
100
AcDbBlockBegin
  2
Sygnał termostatu 12
 70
     2
 10
0.0
 20
0.0
 30
0.0
  3
Sygnał termostatu 12
  1

  0
CIRCLE
  5
16E
330
16B
100
AcDbEntity
  8
@__WIDOCZNE
  6
Continuous
370
    13
100
AcDbCircle
 10
0.0
 20
0.0
 30
0.0
 40
30.0
  0
ATTDEF
  5
170
330
16B
100
AcDbEntity
  8
@__WIDOCZNE
370
    13
100
AcDbText
 10
-22.76574999999958
 20
-13.28569285714298
 30
0.0
 40
30.0
  1
01
  7
GENERATED_STYLE_1
 11
-22.76574999999958
 21
-22.15209910714298
 31
0.0
100
AcDbAttributeDefinition
  3
Tekst
  2
txt
 70
     0
 74
     1
  0
ENDBLK
  5
16D
330
16B
100
AcDbEntity
  8
0
100
AcDbBlockEnd
  0
BLOCK
  5
175
330
174
100
AcDbEntity
  8
0
100
AcDbBlockBegin
  2
Sygnał termostatu 12_2
 70
     2
 10
0.0
 20
0.0
 30
0.0
  3
Sygnał termostatu 12_2
  1

  0
CIRCLE
  5
177
330
174
100
AcDbEntity
  8
@__WIDOCZNE
  6
Continuous
370
    13
100
AcDbCircle
 10
0.0
 20
0.0
 30
0.0
 40
30.0
  0
ATTDEF
  5
178
330
174
100
AcDbEntity
  8
@__WIDOCZNE
370
    13
100
AcDbText
 10
-22.76574999999958
 20
-13.28569285714298
 30
0.0
 40
30.0
  1
02
  7
GENERATED_STYLE_1
 11
-22.76574999999958
 21
-22.15209910714298
 31
0.0
100
AcDbAttributeDefinition
  3
Tekst
  2
txt
 70
     0
 74
     1
  0
ENDBLK
  5
176
330
174
100
AcDbEntity
  8
0
100
AcDbBlockEnd
  0
BLOCK
  5
17D
330
17C
100
AcDbEntity
  8
0
100
AcDbBlockBegin
  2
Sygnał termostatu 12_3
 70
     2
 10
0.0
 20
0.0
 30
0.0
  3
Sygnał termostatu 12_3
  1

  0
CIRCLE
  5
17F
330
17C
100
AcDbEntity
  8
@__WIDOCZNE
  6
Continuous
370
    13
100
AcDbCircle
 10
0.0
 20
0.0
 30
0.0
 40
30.0
  0
ATTDEF
  5
180
330
17C
100
AcDbEntity
  8
@__WIDOCZNE
370
    13
100
AcDbText
 10
-22.76574999999958
 20
-13.28569285714298
 30
0.0
 40
30.0
  1
03
  7
GENERATED_STYLE_1
 11
-22.76574999999958
 21
-22.15209910714298
 31
0.0
100
AcDbAttributeDefinition
  3
Tekst
  2
txt
 70
     0
 74
     1
  0
ENDBLK
  5
17E
330
17C
100
AcDbEntity
  8
0
100
AcDbBlockEnd
  0
BLOCK
  5
185
330
184
100
AcDbEntity
  8
0
100
AcDbBlockBegin
  2
Sygnał termostatu 12_4
 70
     2
 10
0.0
 20
0.0
 30
0.0
  3
Sygnał termostatu 12_4
  1

  0
CIRCLE
  5
187
330
184
100
AcDbEntity
  8
@__WIDOCZNE
  6
Continuous
370
    13
100
AcDbCircle
 10
0.0
 20
0.0
 30
0.0
 40
30.0
  0
ATTDEF
  5
188
330
184
100
AcDbEntity
  8
@__WIDOCZNE
370
    13
100
AcDbText
 10
-22.76574999999958
 20
-13.28569285714298
 30
0.0
 40
30.0
  1
04
  7
GENERATED_STYLE_1
 11
-22.76574999999958
 21
-22.15209910714298
 31
0.0
100
AcDbAttributeDefinition
  3
Tekst
  2
txt
 70
     0
 74
     1
  0
ENDBLK
  5
186
330
184
100
AcDbEntity
  8
0
100
AcDbBlockEnd
  0
BLOCK
  5
33F
330
33E
100
AcDbEntity
  8
0
100
AcDbBlockBegin
  2
Bez nazwy_STORY_MARKER
 70
     0
 10
0.0
 20
0.0
 30
0.0
  3
Bez nazwy_STORY_MARKER
  1

  0
ENDBLK
  5
340
330
33E
100
AcDbEntity
  8
0
100
AcDbBlockEnd
  0
BLOCK
  5
342
330
341
100
AcDbEntity
  8
0
100
AcDbBlockBegin
  2
Rysunek_1
 70
     0
 10
0.0
 20
0.0
 30
0.0
  3
Rysunek_1
  1

  0
ENDBLK
  5
343
330
341
100
AcDbEntity
  8
0
100
AcDbBlockEnd
  0
BLOCK
  5
34C
330
34B
100
AcDbEntity
  8
0
100
AcDbBlockBegin
  2
02.04.2-20 \U+FF8CCIANA+PIWICA 10.03._STORY_MARKER
 70
     0
 10
0.0
 20
0.0
 30
0.0
  3
02.04.2-20 \U+FF8CCIANA+PIWICA 10.03._STORY_MARKER
  1

  0
ENDBLK
  5
34D
330
34B
100
AcDbEntity
  8
0
100
AcDbBlockEnd
  0
ENDSEC
  0
SECTION
  2
ENTITIES
  0
HATCH
  5
5E
330
1F
100
AcDbEntity
  8
0
  6
Continuous
370
    13
100
AcDbHatch
 10
0.0
 20
0.0
 30
0.0
210
0.0
220
0.0
230
1.0
  2
SOLID
 70
     1
 71
     0
 91
        1
 92
        2
 72
     1
 73
     1
 93
        2
 10
-2212.972539759117
 20
728.0000000000484
 42
0.9999999999999999
 10
-2202.972539759115
 20
728.0000000000484
 42
0.9999999999999999
 97
        0
 75
     0
 76
     1
 98
        0
  0
HATCH
  5
5F
330
1F
100
AcDbEntity
  8
0
  6
Continuous
370
    13
100
AcDbHatch
 10
0.0
 20
0.0
 30
0.0
210
0.0
220
0.0
230
1.0
  2
SOLID
 70
     1
 71
     0
 91
        1
 92
        2
 72
     1
 73
     1
 93
        2
 10
-2062.972539759116
 20
728.0000000000484
 42
0.9999999999999999
 10
-2052.972539759115
 20
728.0000000000484
 42
0.9999999999999999
 97
        0
 75
     0
 76
     1
 98
        0
  0
HATCH
  5
60
330
1F
100
AcDbEntity
  8
0
  6
Continuous
370
    13
100
AcDbHatch
 10
0.0
 20
0.0
 30
0.0
210
0.0
220
0.0
230
1.0
  2
SOLID
 70
     1
 71
     0
 91
        1
 92
        2
 72
     1
 73
     1
 93
        2
 10
-1912.972539759116
 20
728.0000000000484
 42
0.9999999999999999
 10
-1902.972539759114
 20
728.0000000000484
 42
0.9999999999999999
 97
        0
 75
     0
 76
     1
 98
        0
  0
HATCH
  5
61
330
1F
100
AcDbEntity
  8
0
  6
Continuous
370
    13
100
AcDbHatch
 10
0.0
 20
0.0
 30
0.0
210
0.0
220
0.0
230
1.0
  2
SOLID
 70
     1
 71
     0
 91
        1
 92
        2
 72
     1
 73
     1
 93
        2
 10
-1762.972539759116
 20
728.0000000000484
 42
0.9999999999999999
 10
-1752.972539759114
 20
728.0000000000484
 42
0.9999999999999999
 97
        0
 75
     0
 76
     1
 98
        0
  0
HATCH
  5
62
330
1F
100
AcDbEntity
  8
0
  6
Continuous
370
    13
100
AcDbHatch
 10
0.0
 20
0.0
 30
0.0
210
0.0
220
0.0
230
1.0
  2
Grunt_0002
 70
     0
 71
     0
 91
        1
 92
        2
 72
     0
 73
     1
 93
        6
 10
-2831.915293781508
 20
-19.99999999995128
 10
-2447.972539759116
 20
-19.99999999995128
 10
-2447.972539759116
 20
0.0000000000482947
 10
-2823.730029924415
 20
0.0000000000482947
 10
-2898.639089504011
 20
73.65137991486067
 10
-2898.639089504011
 20
45.60354189065963
 97
        0
 75
     0
 76
     2
 52
0.0
 41
1.0
 77
     0
 78
     4
 53
44.99999999999999
 43
0.0
 44
0.0
 45
-27.57716345475098
 46
27.57716345475099
 79
     0
 53
44.99999999999999
 43
-9.192387818250328
 44
9.19238781825033
 45
-55.15432690950197
 46
55.15432690950198
 79
     0
 53
44.99999999999999
 43
-18.38477563650066
 44
18.38477563650066
 45
-55.15432690950197
 46
55.15432690950198
 79
     0
 53
135.0
 43
-27.57716345475098
 44
27.57716345475099
 45
9.192387818250326
 46
9.192387818250332
 79
     2
 49
38.99999856948853
 49
-38.99999856948853
 98
        0
  0
HATCH
  5
63
330
1F
100
AcDbEntity
  8
@__WIDOCZNE
  6
Continuous
370
    13
100
AcDbHatch
 10
0.0
 20
0.0
 30
0.0
210
0.0
220
0.0
230
1.0
  2
__Bloczki_ceramiczne_0002
 70
     0
 71
     0
 91
        1
 92
        2
 72
     0
 73
     1
 93
        4
 10
-2327.972539759115
 20
1150.898184737992
 10
-2327.972539759115
 20
1714.735486812721
 10
-2567.972539759116
 20
1714.735486812721
 10
-2567.972539759116
 20
1150.898184737992
 97
        0
 75
     0
 76
     2
 52
0.0
 41
1.0
 77
     0
 78
     1
 53
45.0
 43
0.0
 44
0.0
 45
-12.72792172418307
 46
12.72792172418307
 79
     0
 98
        0
  0
HATCH
  5
65
330
1F
100
AcDbEntity
  8
@__WIDOCZNE
  6
Continuous
370
    13
100
AcDbHatch
 10
0.0
 20
0.0
 30
0.0
210
0.0
220
0.0
230
1.0
  2
__Beton_n_2_średnio_0002
 70
     0
 71
     1
 91
        1
 92
        2
 72
     0
 73
     1
 93
        4
 10
-2197.972539759116
 20
50.00000000004834
 10
-2147.972539759117
 20
0.0000000000482947
 10
-2747.972539759117
 20
0.0000000000482947
 10
-2697.972539759116
 20
50.00000000004834
 97
        1
330
66
 75
     0
 76
     2
 52
0.0
 41
1.0
 77
     0
 78
     2
 53
44.99999999999999
 43
0.0
 44
0.0
 45
-18.38477631085023
 46
18.38477631085023
 79
     2
 49
19.5
 49
-6.499999999999999
 53
44.99999999999999
 43
0.0000000000000018
 44
18.38477631085023
 45
-18.38477631085023
 46
18.38477631085023
 79
     2
 49
19.5
 49
-6.499999999999999
 98
        0
  0
LWPOLYLINE
  5
66
102
{ACAD_REACTORS
330
65
102
}
330
1F
100
AcDbEntity
  8
@__WIDOCZNE
  6
Continuous
370
    50
100
AcDbPolyline
 90
        4
 70
   129
 43
0.0
 10
-2197.972539759116
 20
50.00000000004834
 10
-2147.972539759117
 20
0.0000000000482947
 10
-2747.972539759117
 20
0.0000000000482947
 10
-2697.972539759116
 20
50.00000000004834
  0
HATCH
  5
68
330
1F
100
AcDbEntity
  8
@__WIDOCZNE
  6
Continuous
370
    13
100
AcDbHatch
 10
0.0
 20
0.0
 30
0.0
210
0.0
220
0.0
230
1.0
  2
__Kropki_luz_n2_burzenie_2C
 70
     0
 71
     0
 91
        1
 92
        2
 72
     0
 73
     1
 93
       14
 10
-2715.972539759115
 20
700.0000000000483
 10
-2723.972539759114
 20
700.0000000000483
 10
-2723.972539759114
 20
800.0000000000479
 10
-2898.639089504011
 20
800.0000000000484
 10
-2898.639089504011
 20
73.65137991485918
 10
-2823.730029924415
 20
0.0000000000482947
 10
-2747.972539759117
 20
0.0000000000482947
 10
-2697.972539759116
 20
50.00000000004889
 10
-2697.972539759116
 20
171.1175880502948
 10
-2708.409031218831
 20
171.1175880502948
 10
-2708.314044052949
 20
91.04793991842824
 10
-2848.409031218831
 20
90.88174428630391
 10
-2848.409031218831
 20
317.7440172498574
 10
-2715.969729936126
 20
451.3931577318164
 97
        0
 75
     0
 76
     2
 52
0.0
 41
1.0
 77
     0
 78
     2
 53
45.0
 43
0.0
 44
35.0
 45
-11.13693180368812
 46
11.13693180368812
 79
     4
 49
0.0
 49
-10.5
 49
0.0
 49
-15.75
 53
110.0
 43
35.0
 44
35.0
 45
14.80015877737805
 46
5.386817257379289
 79
     4
 49
0.0
 49
-7.699999999999999
 49
0.0
 49
-13.3
 98
        0
  0
HATCH
  5
69
330
1F
100
AcDbEntity
  8
@__WIDOCZNE
  6
Continuous
370
    13
100
AcDbHatch
 10
0.0
 20
0.0
 30
0.0
210
0.0
220
0.0
230
1.0
  2
__Bloczki_ceramiczne_0002
 70
     0
 71
     0
 91
        1
 92
        2
 72
     0
 73
     1
 93
        4
 10
-2327.972539759115
 20
316.0000000000483
 10
-2567.972539759116
 20
316.0000000000484
 10
-2567.972539759116
 20
1142.000000000048
 10
-2327.972539759115
 20
1142.000000000048
 97
        0
 75
     0
 76
     2
 52
0.0
 41
1.0
 77
     0
 78
     1
 53
45.0
 43
0.0
 44
0.0
 45
-12.72792172418307
 46
12.72792172418307
 79
     0
 98
        0
  0
WIPEOUT
  5
6A
330
1F
100
AcDbEntity
  8
@__WIDOCZNE
  6
Wipeout_Contour
 62
   254
 48
14753.54770046498
370
     0
 92
      188
310
BC00000001000000B40000000600000007000000ED36BBF0F12BA1C0941A0000000049400000000000000000ED36BBF0F12BA1C0F3748FD3583470400000000000000000BD4849D6667DA1C05203000000C07240000000000000000021252D0B7DC2A4C05203000000C072400000000000000000ED36BBF0F113A5C0F3748F
310
D3583470400000000000000000ED36BBF0F113A5C0941A0000000049400000000000000000ED36BBF0F12BA1C0941A0000000049400000000000000000
100
AcDbWipeout
 90
        0
 10
-2697.972539759116
 20
50.00000000004834
 30
0.0
 11
500.0
 21
0.0
 31
0.0
 12
0.0
 22
250.0
 32
0.0
 13
1.0
 23
1.0
340
0
 70
    15
280
     1
281
    50
282
    50
283
     0
360
0
 71
     2
 91
        7
 14
0.5
 24
0.4999999999999999
 14
0.5
 24
-0.3370867445386032
 14
0.4185433722692978
 24
-0.5000000000000001
 14
-0.4185433722693015
 24
-0.5000000000000001
 14
-0.5
 24
-0.3370867445386032
 14
-0.5
 24
0.4999999999999999
 14
0.5
 24
0.4999999999999999
  0
HATCH
  5
6C
330
1F
100
AcDbEntity
  8
@__WIDOCZNE
  6
Continuous
370
    13
100
AcDbHatch
 10
0.0
 20
0.0
 30
0.0
210
0.0
220
0.0
230
1.0
  2
Beton_zbrojony_0002
 70
     0
 71
     1
 91
        1
 92
        2
 72
     0
 73
     1
 93
        6
 10
-2197.972539759116
 20
50.00000000004834
 10
-2197.972539759116
 20
259.2716861346991
 10
-2238.700853624467
 20
300.0000000000483
 10
-2657.244225893767
 20
300.0000000000483
 10
-2697.972539759116
 20
259.2716861346991
 10
-2697.972539759116
 20
50.00000000004834
 97
        1
330
6D
 75
     0
 76
     2
 52
0.0
 41
1.0
 77
     0
 78
     2
 53
44.99999999999999
 43
0.0
 44
0.0
 45
-18.38477563650066
 46
18.38477563650066
 79
     0
 53
44.99999999999999
 43
-9.192387818250328
 44
9.19238781825033
 45
-18.38477563650066
 46
18.38477563650066
 79
     2
 49
19.49999928474426
 49
-6.49999976158142
 98
        0
  0
LWPOLYLINE
  5
6D
102
{ACAD_REACTORS
330
6C
102
}
330
1F
100
AcDbEntity
  8
@__WIDOCZNE
  6
Continuous
370
    13
100
AcDbPolyline
 90
        6
 70
   129
 43
0.0
 10
-2197.972539759116
 20
50.00000000004834
 10
-2197.972539759116
 20
259.2716861346991
 10
-2238.700853624467
 20
300.0000000000483
 10
-2657.244225893767
 20
300.0000000000483
 10
-2697.972539759116
 20
259.2716861346991
 10
-2697.972539759116
 20
50.00000000004834
  0
HATCH
  5
6E
330
1F
100
AcDbEntity
  8
0
  6
Continuous
370
    13
100
AcDbHatch
 10
0.0
 20
0.0
 30
0.0
210
0.0
220
0.0
230
1.0
  2
Płyty_kamienne_0002
 70
     0
 71
     0
 91
        1
 92
        2
 72
     0
 73
     1
 93
        3
 10
-2567.972539759116
 20
389.2716861346963
 10
-2649.261824590691
 20
307.9824013031246
 10
-2567.972539759116
 20
308.0000000000484
 97
        0
 75
     0
 76
     2
 52
0.0
 41
1.0
 77
     0
 78
     2
 53
45.0
 43
0.0
 44
35.0
 45
-11.13693180368812
 46
11.13693180368812
 79
     4
 49
0.0
 49
-10.5
 49
0.0
 49
-15.75
 53
110.0
 43
35.0
 44
35.0
 45
14.80015877737805
 46
5.386817257379289
 79
     4
 49
0.0
 49
-7.699999999999999
 49
0.0
 49
-13.3
 98
        0
  0
HATCH
  5
6F
330
1F
100
AcDbEntity
  8
0
  6
Continuous
370
    13
100
AcDbHatch
 10
0.0
 20
0.0
 30
0.0
210
0.0
220
0.0
230
1.0
  2
Cegła_licówka_0002
 70
     0
 71
     0
 91
        1
 92
        2
 72
     1
 73
     1
 93
       20
 10
-1118.657686419832
 20
730.0000000000481
 42
0.0
 10
-1103.657686419832
 20
710.0000000000477
 42
0.0
 10
-1103.657686419832
 20
690.0000000000483
 42
0.0
 10
-1118.657686419832
 20
690.0000000000483
 42
0.0
 10
-1118.657686419832
 20
670.0000000000483
 42
0.0
 10
-958.6576864198322
 20
670.0000000000483
 42
0.0
 10
-958.6576864198322
 20
690.0000000000482
 42
0.0
 10
-973.6204925881915
 20
690.0000000000482
 42
0.0
 10
-973.6204925881915
 20
710.0000000000477
 42
0.0
 10
-958.6576864198322
 20
729.9504082245268
 42
0.0
 10
-958.6576864198322
 20
849.5617547752408
 42
0.0
 10
-973.6390895040104
 20
849.5617547752408
 42
0.0
 10
-973.6390895040104
 20
834.5617547752407
 42
0.0
 10
-988.6390895040126
 20
834.5617547752407
 42
0.0
 10
-988.6390895040126
 20
750.0000000000472
 42
-0.9999999999999999
 10
-1088.639089504012
 20
750.0000000000472
 42
0.0
 10
-1088.639089504012
 20
834.5617547752407
 42
0.0
 10
-1103.639089504013
 20
834.5617547752407
 42
0.0
 10
-1103.639089504013
 20
849.5617547752408
 42
0.0
 10
-1118.657686419832
 20
849.5617547752408
 42
0.0
 97
        0
 75
     0
 76
     2
 52
0.0
 41
1.0
 77
     0
 78
     1
 53
45.0
 43
0.0
 44
0.0
 45
-6.363960862091533
 46
6.363960862091534
 79
     0
 98
        0
  0
HATCH
  5
70
330
1F
100
AcDbEntity
  8
0
  6
Continuous
370
    13
100
AcDbHatch
 10
0.0
 20
0.0
 30
0.0
210
0.0
220
0.0
230
1.0
  2
Beton_0002
 70
     0
 71
     0
 91
        1
 92
        2
 72
     0
 73
     1
 93
        8
 10
-2281.972539759116
 20
641.0000000000484
 10
-1378.639089504012
 20
641.0000000000484
 10
-1378.639089504012
 20
805.0000000000481
 10
-1663.63908950401
 20
805.0000000000479
 10
-1663.63908950401
 20
790.000000000048
 10
-1813.639089504012
 20
790.000000000048
 10
-1813.639089504012
 20
805.0000000000479
 10
-2281.972539759116
 20
805.0000000000483
 97
        0
 75
     0
 76
     2
 52
0.0
 41
1.0
 77
     0
 78
     2
 53
44.99999999999999
 43
0.0
 44
0.0
 45
-18.38477563650066
 46
18.38477563650066
 79
     2
 49
19.49999928474426
 49
-6.49999976158142
 53
44.99999999999999
 43
0.0000000000000018
 44
18.38477563650066
 45
-18.38477563650066
 46
18.38477563650066
 79
     2
 49
19.49999928474426
 49
-6.49999976158142
 98
        0
  0
HATCH
  5
71
330
1F
100
AcDbEntity
  8
0
  6
Continuous
370
    13
100
AcDbHatch
 10
0.0
 20
0.0
 30
0.0
210
0.0
220
0.0
230
1.0
  2
Beton_0002
 70
     0
 71
     0
 91
        1
 92
        2
 72
     0
 73
     1
 93
        4
 10
-2327.972539759115
 20
525.0000000000484
 10
-1378.639089504012
 20
525.0000000000484
 10
-1378.639089504012
 20
625.0000000000484
 10
-2327.972539759115
 20
625.0000000000484
 97
        0
 75
     0
 76
     2
 52
0.0
 41
1.0
 77
     0
 78
     2
 53
44.99999999999999
 43
0.0
 44
0.0
 45
-18.38477563650066
 46
18.38477563650066
 79
     2
 49
19.49999928474426
 49
-6.49999976158142
 53
44.99999999999999
 43
0.0000000000000018
 44
18.38477563650066
 45
-18.38477563650066
 46
18.38477563650066
 79
     2
 49
19.49999928474426
 49
-6.49999976158142
 98
        0
  0
HATCH
  5
72
330
1F
100
AcDbEntity
  8
0
  6
Continuous
370
    13
100
AcDbHatch
 10
0.0
 20
0.0
 30
0.0
210
0.0
220
0.0
230
1.0
  2
Płyty_kamienne_0002
 70
     0
 71
     0
 91
        1
 92
        2
 72
     0
 73
     1
 93
        4
 10
-1378.639089504012
 20
525.0000000000484
 10
-2327.972539759115
 20
525.0000000000484
 10
-2327.972539759115
 20
375.0000000000484
 10
-1378.639089504012
 20
375.0000000000484
 97
        0
 75
     0
 76
     2
 52
0.0
 41
1.0
 77
     0
 78
     2
 53
45.0
 43
0.0
 44
35.0
 45
-11.13693180368812
 46
11.13693180368812
 79
     4
 49
0.0
 49
-10.5
 49
0.0
 49
-15.75
 53
110.0
 43
35.0
 44
35.0
 45
14.80015877737805
 46
5.386817257379289
 79
     4
 49
0.0
 49
-7.699999999999999
 49
0.0
 49
-13.3
 98
        0
  0
HATCH
  5
73
330
1F
100
AcDbEntity
  8
0
  6
Continuous
370
    13
100
AcDbHatch
 10
0.0
 20
0.0
 30
0.0
210
0.0
220
0.0
230
1.0
  2
Grunt_0002
 70
     0
 71
     0
 91
        1
 92
        2
 72
     0
 73
     1
 93
       17
 10
-2189.972539759117
 20
262.5853946336829
 10
-2189.972539759117
 20
200.9515051020887
 10
-2197.972539759116
 20
200.9515051020887
 10
-2197.972539759116
 20
50.00000000004778
 10
-2147.972539759117
 20
0.0000000000482947
 10
-2447.972539759116
 20
0.0000000000482947
 10
-2447.972539759116
 20
-19.99999999995128
 10
-2099.688268511655
 20
-19.99999999995128
 10
-2177.972539759116
 20
58.28427124751012
 10
-2177.972539759116
 20
328.0000000000475
 10
-2299.972539759116
 20
328.0000000000475
 10
-2299.972539759116
 20
355.0000000000484
 10
-1378.639089504012
 20
355.0000000000484
 10
-1378.639089504012
 20
375.0000000000484
 10
-2319.972539759116
 20
375.0000000000484
 10
-2319.972539759116
 20
308.0000000000484
 10
-2235.387145125485
 20
308.0000000000475
 97
        0
 75
     0
 76
     2
 52
0.0
 41
1.0
 77
     0
 78
     4
 53
44.99999999999999
 43
0.0
 44
0.0
 45
-27.57716345475098
 46
27.57716345475099
 79
     0
 53
44.99999999999999
 43
-9.192387818250328
 44
9.19238781825033
 45
-55.15432690950197
 46
55.15432690950198
 79
     0
 53
44.99999999999999
 43
-18.38477563650066
 44
18.38477563650066
 45
-55.15432690950197
 46
55.15432690950198
 79
     0
 53
135.0
 43
-27.57716345475098
 44
27.57716345475099
 45
9.192387818250326
 46
9.192387818250332
 79
     2
 49
38.99999856948853
 49
-38.99999856948853
 98
        0
  0
HATCH
  5
74
330
1F
100
AcDbEntity
  8
0
  6
Continuous
370
    13
100
AcDbHatch
 10
0.0
 20
0.0
 30
0.0
210
0.0
220
0.0
230
1.0
  2
Beton_0002
 70
     0
 71
     0
 91
        1
 92
        2
 72
     0
 73
     1
 93
       12
 10
-1358.639089504012
 20
641.0000000000484
 10
-1212.030269421864
 20
641.0000000000484
 10
-1157.030269421862
 20
586.0000000000483
 10
-920.2851034178008
 20
586.0000000000482
 10
-865.2851034177993
 20
641.0000000000482
 10
-718.6390895040114
 20
641.0000000000482
 10
-718.6390895040114
 20
805.0000000000482
 10
-942.6204925881909
 20
805.0000000000483
 10
-942.6204925881909
 20
654.0000000000483
 10
-1134.657686419832
 20
654.0000000000483
 10
-1134.657686419832
 20
805.0000000000483
 10
-1358.639089504012
 20
805.0000000000482
 97
        0
 75
     0
 76
     2
 52
0.0
 41
1.0
 77
     0
 78
     2
 53
44.99999999999999
 43
0.0
 44
0.0
 45
-18.38477563650066
 46
18.38477563650066
 79
     2
 49
19.49999928474426
 49
-6.49999976158142
 53
44.99999999999999
 43
0.0000000000000018
 44
18.38477563650066
 45
-18.38477563650066
 46
18.38477563650066
 79
     2
 49
19.49999928474426
 49
-6.49999976158142
 98
        0
  0
HATCH
  5
75
330
1F
100
AcDbEntity
  8
0
  6
Continuous
370
    13
100
AcDbHatch
 10
0.0
 20
0.0
 30
0.0
210
0.0
220
0.0
230
1.0
  2
Beton_0002
 70
     0
 71
     0
 91
        1
 92
        2
 72
     0
 73
     1
 93
       12
 10
-1358.639089504012
 20
525.0000000000484
 10
-1268.657686419833
 20
525.0000000000484
 10
-1268.657686419833
 20
470.0000000000482
 10
-808.6576864198319
 20
470.0000000000482
 10
-808.6576864198319
 20
525.0000000000484
 10
-718.6390895040114
 20
525.0000000000484
 10
-718.6390895040114
 20
625.0000000000482
 10
-858.6576864198325
 20
625.0000000000482
 10
-913.6576864198322
 20
570.0000000000482
 10
-1163.65768641983
 20
570.0000000000483
 10
-1218.657686419832
 20
625.0000000000484
 10
-1358.639089504012
 20
625.0000000000484
 97
        0
 75
     0
 76
     2
 52
0.0
 41
1.0
 77
     0
 78
     2
 53
44.99999999999999
 43
0.0
 44
0.0
 45
-18.38477563650066
 46
18.38477563650066
 79
     2
 49
19.49999928474426
 49
-6.49999976158142
 53
44.99999999999999
 43
0.0000000000000018
 44
18.38477563650066
 45
-18.38477563650066
 46
18.38477563650066
 79
     2
 49
19.49999928474426
 49
-6.49999976158142
 98
        0
  0
HATCH
  5
76
330
1F
100
AcDbEntity
  8
0
  6
Continuous
370
    13
100
AcDbHatch
 10
0.0
 20
0.0
 30
0.0
210
0.0
220
0.0
230
1.0
  2
Płyty_kamienne_0002
 70
     0
 71
     0
 91
        1
 92
        2
 72
     0
 73
     1
 93
        8
 10
-808.6576864198319
 20
470.0000000000482
 10
-1268.657686419833
 20
470.0000000000482
 10
-1268.657686419833
 20
525.0000000000484
 10
-1358.639089504012
 20
525.0000000000484
 10
-1358.639089504012
 20
375.0000000000484
 10
-718.6390895040114
 20
375.0000000000484
 10
-718.6390895040114
 20
525.0000000000484
 10
-808.6576864198319
 20
525.0000000000484
 97
        0
 75
     0
 76
     2
 52
0.0
 41
1.0
 77
     0
 78
     2
 53
45.0
 43
0.0
 44
35.0
 45
-11.13693180368812
 46
11.13693180368812
 79
     4
 49
0.0
 49
-10.5
 49
0.0
 49
-15.75
 53
110.0
 43
35.0
 44
35.0
 45
14.80015877737805
 46
5.386817257379289
 79
     4
 49
0.0
 49
-7.699999999999999
 49
0.0
 49
-13.3
 98
        0
  0
HATCH
  5
77
330
1F
100
AcDbEntity
  8
0
  6
Continuous
370
    13
100
AcDbHatch
 10
0.0
 20
0.0
 30
0.0
210
0.0
220
0.0
230
1.0
  2
Grunt_0002
 70
     0
 71
     0
 91
        1
 92
        2
 72
     0
 73
     1
 93
        4
 10
-1358.639089504012
 20
355.0000000000484
 10
-718.6390895040114
 20
355.0000000000484
 10
-718.6390895040114
 20
375.0000000000484
 10
-1358.639089504012
 20
375.0000000000484
 97
        0
 75
     0
 76
     2
 52
0.0
 41
1.0
 77
     0
 78
     4
 53
44.99999999999999
 43
0.0
 44
0.0
 45
-27.57716345475098
 46
27.57716345475099
 79
     0
 53
44.99999999999999
 43
-9.192387818250328
 44
9.19238781825033
 45
-55.15432690950197
 46
55.15432690950198
 79
     0
 53
44.99999999999999
 43
-18.38477563650066
 44
18.38477563650066
 45
-55.15432690950197
 46
55.15432690950198
 79
     0
 53
135.0
 43
-27.57716345475098
 44
27.57716345475099
 45
9.192387818250326
 46
9.192387818250332
 79
     2
 49
38.99999856948853
 49
-38.99999856948853
 98
        0
  0
HATCH
  5
78
330
1F
100
AcDbEntity
  8
0
  6
Continuous
370
    13
100
AcDbHatch
 10
0.0
 20
0.0
 30
0.0
210
0.0
220
0.0
230
1.0
  2
Beton_0002
 70
     0
 71
     0
 91
        1
 92
        2
 72
     0
 73
     1
 93
        8
 10
-698.6390895040117
 20
641.0000000000482
 10
-167.639089504012
 20
641.0000000000482
 10
-167.639089504012
 20
805.0000000000481
 10
-242.6390895040095
 20
805.0000000000481
 10
-242.6390895040095
 20
790.0000000000481
 10
-392.6390895040116
 20
790.0000000000482
 10
-392.6390895040116
 20
805.0000000000481
 10
-698.6390895040117
 20
805.0000000000482
 97
        0
 75
     0
 76
     2
 52
0.0
 41
1.0
 77
     0
 78
     2
 53
44.99999999999999
 43
0.0
 44
0.0
 45
-18.38477563650066
 46
18.38477563650066
 79
     2
 49
19.49999928474426
 49
-6.49999976158142
 53
44.99999999999999
 43
0.0000000000000018
 44
18.38477563650066
 45
-18.38477563650066
 46
18.38477563650066
 79
     2
 49
19.49999928474426
 49
-6.49999976158142
 98
        0
  0
HATCH
  5
79
330
1F
100
AcDbEntity
  8
0
  6
Continuous
370
    13
100
AcDbHatch
 10
0.0
 20
0.0
 30
0.0
210
0.0
220
0.0
230
1.0
  2
Beton_0002
 70
     0
 71
     0
 91
        1
 92
        2
 72
     0
 73
     1
 93
        4
 10
-698.6390895040117
 20
525.0000000000484
 10
-167.639089504012
 20
525.0000000000484
 10
-167.639089504012
 20
625.0000000000482
 10
-698.6390895040117
 20
625.0000000000482
 97
        0
 75
     0
 76
     2
 52
0.0
 41
1.0
 77
     0
 78
     2
 53
44.99999999999999
 43
0.0
 44
0.0
 45
-18.38477563650066
 46
18.38477563650066
 79
     2
 49
19.49999928474426
 49
-6.49999976158142
 53
44.99999999999999
 43
0.0000000000000018
 44
18.38477563650066
 45
-18.38477563650066
 46
18.38477563650066
 79
     2
 49
19.49999928474426
 49
-6.49999976158142
 98
        0
  0
HATCH
  5
7A
330
1F
100
AcDbEntity
  8
0
  6
Continuous
370
    13
100
AcDbHatch
 10
0.0
 20
0.0
 30
0.0
210
0.0
220
0.0
230
1.0
  2
Płyty_kamienne_0002
 70
     0
 71
     0
 91
        1
 92
        2
 72
     0
 73
     1
 93
        4
 10
-698.6390895040117
 20
375.0000000000484
 10
-167.6642371671417
 20
375.0000000000484
 10
-167.6642371671417
 20
525.0000000000484
 10
-698.6390895040117
 20
525.0000000000484
 97
        0
 75
     0
 76
     2
 52
0.0
 41
1.0
 77
     0
 78
     2
 53
45.0
 43
0.0
 44
35.0
 45
-11.13693180368812
 46
11.13693180368812
 79
     4
 49
0.0
 49
-10.5
 49
0.0
 49
-15.75
 53
110.0
 43
35.0
 44
35.0
 45
14.80015877737805
 46
5.386817257379289
 79
     4
 49
0.0
 49
-7.699999999999999
 49
0.0
 49
-13.3
 98
        0
  0
HATCH
  5
7B
330
1F
100
AcDbEntity
  8
0
  6
Continuous
370
    13
100
AcDbHatch
 10
0.0
 20
0.0
 30
0.0
210
0.0
220
0.0
230
1.0
  2
Grunt_0002
 70
     0
 71
     0
 91
        1
 92
        2
 72
     0
 73
     1
 93
        4
 10
-698.6390895040117
 20
355.0000000000484
 10
-167.6642371671417
 20
355.0000000000484
 10
-167.6642371671417
 20
375.0000000000484
 10
-698.6390895040117
 20
375.0000000000484
 97
        0
 75
     0
 76
     2
 52
0.0
 41
1.0
 77
     0
 78
     4
 53
44.99999999999999
 43
0.0
 44
0.0
 45
-27.57716345475098
 46
27.57716345475099
 79
     0
 53
44.99999999999999
 43
-9.192387818250328
 44
9.19238781825033
 45
-55.15432690950197
 46
55.15432690950198
 79
     0
 53
44.99999999999999
 43
-18.38477563650066
 44
18.38477563650066
 45
-55.15432690950197
 46
55.15432690950198
 79
     0
 53
135.0
 43
-27.57716345475098
 44
27.57716345475099
 45
9.192387818250326
 46
9.192387818250332
 79
     2
 49
38.99999856948853
 49
-38.99999856948853
 98
        0
  0
HATCH
  5
7C
330
1F
100
AcDbEntity
  8
0
  6
Continuous
370
    13
100
AcDbHatch
 10
0.0
 20
0.0
 30
0.0
210
0.0
220
0.0
230
1.0
  2
SOLID
 70
     1
 71
     0
 91
        1
 92
        2
 72
     1
 73
     1
 93
        2
 10
-800.8597062472788
 20
728.0000000000484
 42
-0.9999999999999999
 10
-810.8597062472804
 20
728.0000000000484
 42
-0.9999999999999999
 97
        0
 75
     0
 76
     1
 98
        0
  0
HATCH
  5
7D
330
1F
100
AcDbEntity
  8
0
  6
Continuous
370
    13
100
AcDbHatch
 10
0.0
 20
0.0
 30
0.0
210
0.0
220
0.0
230
1.0
  2
SOLID
 70
     1
 71
     0
 91
        1
 92
        2
 72
     1
 73
     1
 93
        2
 10
-1612.972539759115
 20
728.0000000000484
 42
0.9999999999999999
 10
-1602.972539759114
 20
728.0000000000484
 42
0.9999999999999999
 97
        0
 75
     0
 76
     1
 98
        0
  0
HATCH
  5
7E
330
1F
100
AcDbEntity
  8
0
  6
Continuous
370
    13
100
AcDbHatch
 10
0.0
 20
0.0
 30
0.0
210
0.0
220
0.0
230
1.0
  2
SOLID
 70
     1
 71
     0
 91
        1
 92
        2
 72
     1
 73
     1
 93
        2
 10
-1462.972539759115
 20
728.0000000000484
 42
0.9999999999999999
 10
-1452.972539759113
 20
728.0000000000484
 42
0.9999999999999999
 97
        0
 75
     0
 76
     1
 98
        0
  0
HATCH
  5
7F
330
1F
100
AcDbEntity
  8
0
  6
Continuous
370
    13
100
AcDbHatch
 10
0.0
 20
0.0
 30
0.0
210
0.0
220
0.0
230
1.0
  2
SOLID
 70
     1
 71
     0
 91
        1
 92
        2
 72
     1
 73
     1
 93
        2
 10
-1276.418472760744
 20
728.0000000000484
 42
0.9999999999999999
 10
-1266.418472760743
 20
728.0000000000484
 42
0.9999999999999999
 97
        0
 75
     0
 76
     1
 98
        0
  0
HATCH
  5
80
330
1F
100
AcDbEntity
  8
0
  6
Continuous
370
    13
100
AcDbHatch
 10
0.0
 20
0.0
 30
0.0
210
0.0
220
0.0
230
1.0
  2
SOLID
 70
     1
 71
     0
 91
        1
 92
        2
 72
     1
 73
     1
 93
        2
 10
-314.3056392489077
 20
728.0000000000484
 42
-0.9999999999999999
 10
-324.3056392489092
 20
728.0000000000484
 42
-0.9999999999999999
 97
        0
 75
     0
 76
     1
 98
        0
  0
HATCH
  5
81
330
1F
100
AcDbEntity
  8
0
  6
Continuous
370
    13
100
AcDbHatch
 10
0.0
 20
0.0
 30
0.0
210
0.0
220
0.0
230
1.0
  2
SOLID
 70
     1
 71
     0
 91
        1
 92
        2
 72
     1
 73
     1
 93
        2
 10
-464.305639248908
 20
728.0000000000484
 42
-0.9999999999999999
 10
-474.3056392489096
 20
728.0000000000484
 42
-0.9999999999999999
 97
        0
 75
     0
 76
     1
 98
        0
  0
HATCH
  5
82
330
1F
100
AcDbEntity
  8
0
  6
Continuous
370
    13
100
AcDbHatch
 10
0.0
 20
0.0
 30
0.0
210
0.0
220
0.0
230
1.0
  2
SOLID
 70
     1
 71
     0
 91
        1
 92
        2
 72
     1
 73
     1
 93
        2
 10
-614.3056392489084
 20
728.0000000000484
 42
-0.9999999999999999
 10
-624.3056392489099
 20
728.0000000000484
 42
-0.9999999999999999
 97
        0
 75
     0
 76
     1
 98
        0
  0
HATCH
  5
83
330
1F
100
AcDbEntity
  8
0
  6
Continuous
370
    13
100
AcDbHatch
 10
0.0
 20
0.0
 30
0.0
210
0.0
220
0.0
230
1.0
  2
Płyty_kamienne_0002
 70
     0
 71
     0
 91
        1
 92
        2
 72
     0
 73
     1
 93
        4
 10
-2297.972539759116
 20
1711.998421549177
 10
-2311.972539759115
 20
1711.998421549177
 10
-2311.972539759115
 20
855.5617547752412
 10
-2297.972539759116
 20
869.561754775241
 97
        0
 75
     0
 76
     2
 52
0.0
 41
1.0
 77
     0
 78
     2
 53
45.0
 43
0.0
 44
35.0
 45
-11.13693180368812
 46
11.13693180368812
 79
     4
 49
0.0
 49
-10.5
 49
0.0
 49
-15.75
 53
110.0
 43
35.0
 44
35.0
 45
14.80015877737805
 46
5.386817257379289
 79
     4
 49
0.0
 49
-7.699999999999999
 49
0.0
 49
-13.3
 98
        0
  0
HATCH
  5
84
330
1F
100
AcDbEntity
  8
0
  6
Continuous
370
    13
100
AcDbHatch
 10
0.0
 20
0.0
 30
0.0
210
0.0
220
0.0
230
1.0
  2
Płyty_kamienne_0002
 70
     0
 71
     0
 91
        1
 92
        2
 72
     0
 73
     1
 93
        4
 10
-2276.972539759115
 20
820.5617547752412
 10
-1773.639089504013
 20
820.9873176652138
 10
-1773.639089504013
 20
834.5617547752407
 10
-2262.972539759116
 20
834.561754775241
 97
        0
 75
     0
 76
     2
 52
0.0
 41
1.0
 77
     0
 78
     2
 53
45.0
 43
0.0
 44
35.0
 45
-11.13693180368812
 46
11.13693180368812
 79
     4
 49
0.0
 49
-10.5
 49
0.0
 49
-15.75
 53
110.0
 43
35.0
 44
35.0
 45
14.80015877737805
 46
5.386817257379289
 79
     4
 49
0.0
 49
-7.699999999999999
 49
0.0
 49
-13.3
 98
        0
  0
HATCH
  5
85
330
1F
100
AcDbEntity
  8
0
  6
Continuous
370
    13
100
AcDbHatch
 10
0.0
 20
0.0
 30
0.0
210
0.0
220
0.0
230
1.0
  2
Płyty_kamienne_0002
 70
     0
 71
     0
 91
        1
 92
        2
 72
     0
 73
     1
 93
        4
 10
-1703.639089504009
 20
834.5617547752407
 10
-1378.639089504012
 20
834.5617547752407
 10
-1378.639089504012
 20
820.5617547752407
 10
-1703.639089504009
 20
820.5617547752407
 97
        0
 75
     0
 76
     2
 52
0.0
 41
1.0
 77
     0
 78
     2
 53
45.0
 43
0.0
 44
35.0
 45
-11.13693180368812
 46
11.13693180368812
 79
     4
 49
0.0
 49
-10.5
 49
0.0
 49
-15.75
 53
110.0
 43
35.0
 44
35.0
 45
14.80015877737805
 46
5.386817257379289
 79
     4
 49
0.0
 49
-7.699999999999999
 49
0.0
 49
-13.3
 98
        0
  0
HATCH
  5
86
330
1F
100
AcDbEntity
  8
0
  6
Continuous
370
    13
100
AcDbHatch
 10
0.0
 20
0.0
 30
0.0
210
0.0
220
0.0
230
1.0
  2
Płyty_kamienne_0002
 70
     0
 71
     0
 91
        1
 92
        2
 72
     0
 73
     1
 93
        4
 10
-698.6390895040117
 20
834.5617547752407
 10
-373.6390895040125
 20
834.5617547752407
 10
-373.6390895040125
 20
821.0000000000483
 10
-698.6390895040117
 20
821.0000000000483
 97
        0
 75
     0
 76
     2
 52
0.0
 41
1.0
 77
     0
 78
     2
 53
45.0
 43
0.0
 44
35.0
 45
-11.13693180368812
 46
11.13693180368812
 79
     4
 49
0.0
 49
-10.5
 49
0.0
 49
-15.75
 53
110.0
 43
35.0
 44
35.0
 45
14.80015877737805
 46
5.386817257379289
 79
     4
 49
0.0
 49
-7.699999999999999
 49
0.0
 49
-13.3
 98
        0
  0
HATCH
  5
87
330
1F
100
AcDbEntity
  8
0
  6
Continuous
370
    13
100
AcDbHatch
 10
0.0
 20
0.0
 30
0.0
210
0.0
220
0.0
230
1.0
  2
Płyty_kamienne_0002
 70
     0
 71
     0
 91
        1
 92
        2
 72
     0
 73
     1
 93
        4
 10
-167.639089504012
 20
834.5617547752407
 10
-282.6390895040086
 20
834.5617547752407
 10
-282.6390895040086
 20
821.0000000000483
 10
-167.639089504012
 20
821.0000000000483
 97
        0
 75
     0
 76
     2
 52
0.0
 41
1.0
 77
     0
 78
     2
 53
45.0
 43
0.0
 44
35.0
 45
-11.13693180368812
 46
11.13693180368812
 79
     4
 49
0.0
 49
-10.5
 49
0.0
 49
-15.75
 53
110.0
 43
35.0
 44
35.0
 45
14.80015877737805
 46
5.386817257379289
 79
     4
 49
0.0
 49
-7.699999999999999
 49
0.0
 49
-13.3
 98
        0
  0
HATCH
  5
88
330
1F
100
AcDbEntity
  8
0
  6
Continuous
370
    13
100
AcDbHatch
 10
0.0
 20
0.0
 30
0.0
210
0.0
220
0.0
230
1.0
  2
Płyty_kamienne_0002
 70
     0
 71
     0
 91
        1
 92
        2
 72
     0
 73
     1
 93
        4
 10
-1358.639089504012
 20
834.5617547752407
 10
-1133.657686419833
 20
834.5617547752407
 10
-1133.657686419833
 20
820.5617547752407
 10
-1358.639089504012
 20
820.5617547752407
 97
        0
 75
     0
 76
     2
 52
0.0
 41
1.0
 77
     0
 78
     2
 53
45.0
 43
0.0
 44
35.0
 45
-11.13693180368812
 46
11.13693180368812
 79
     4
 49
0.0
 49
-10.5
 49
0.0
 49
-15.75
 53
110.0
 43
35.0
 44
35.0
 45
14.80015877737805
 46
5.386817257379289
 79
     4
 49
0.0
 49
-7.699999999999999
 49
0.0
 49
-13.3
 98
        0
  0
HATCH
  5
89
330
1F
100
AcDbEntity
  8
0
  6
Continuous
370
    13
100
AcDbHatch
 10
0.0
 20
0.0
 30
0.0
210
0.0
220
0.0
230
1.0
  2
Płyty_kamienne_0002
 70
     0
 71
     0
 91
        1
 92
        2
 72
     0
 73
     1
 93
        4
 10
-718.6390895040114
 20
834.5617547752407
 10
-943.6390895040074
 20
834.5617547752407
 10
-943.6390895040074
 20
820.5617547752407
 10
-718.6390895040114
 20
820.5617547752407
 97
        0
 75
     0
 76
     2
 52
0.0
 41
1.0
 77
     0
 78
     2
 53
45.0
 43
0.0
 44
35.0
 45
-11.13693180368812
 46
11.13693180368812
 79
     4
 49
0.0
 49
-10.5
 49
0.0
 49
-15.75
 53
110.0
 43
35.0
 44
35.0
 45
14.80015877737805
 46
5.386817257379289
 79
     4
 49
0.0
 49
-7.699999999999999
 49
0.0
 49
-13.3
 98
        0
  0
HATCH
  5
8A
330
1F
100
AcDbEntity
  8
@__WIDOCZNE
  6
Continuous
 62
   142
370
    13
100
AcDbHatch
 10
0.0
 20
0.0
 30
0.0
210
0.0
220
0.0
230
1.0
  2
SOLID
 70
     1
 71
     1
 91
        1
 92
        2
 72
     1
 73
     1
 93
        6
 10
-1390.001988959779
 20
126.8504469130154
 42
0.0
 10
-1390.001988959779
 20
151.4286692887563
 42
0.0
 10
-1414.580211335519
 20
151.4286692887563
 42
0.414213562373095
 10
-1444.074078186408
 20
121.9348024378679
 42
0.0
 10
-1444.074078186408
 20
97.356580062127
 42
0.0
 10
-1419.495855810667
 20
97.356580062127
 42
0.414213562373095
 97
        1
330
8B
 75
     0
 76
     1
 98
        0
  0
LWPOLYLINE
  5
8B
102
{ACAD_REACTORS
330
8A
102
}
330
1F
100
AcDbEntity
  8
@__WIDOCZNE
  6
Continuous
 62
   142
370
    13
100
AcDbPolyline
 90
        6
 70
   129
 43
0.0
 10
-1390.001988959779
 20
126.8504469130154
 10
-1390.001988959779
 20
151.4286692887563
 10
-1414.580211335519
 20
151.4286692887563
 42
0.414213562373095
 10
-1444.074078186408
 20
121.9348024378679
 10
-1444.074078186408
 20
97.356580062127
 10
-1419.495855810667
 20
97.356580062127
 42
0.414213562373095
  0
HATCH
  5
8C
330
1F
100
AcDbEntity
  8
@__WIDOCZNE
  6
Continuous
370
    13
100
AcDbHatch
 10
0.0
 20
0.0
 30
0.0
210
0.0
220
0.0
230
1.0
  2
SOLID
 70
     1
 71
     1
 91
        3
 92
        2
 72
     1
 73
     1
 93
        8
 10
-1844.608978596282
 20
98.17160218242837
 42
0.0723831287448308
 10
-1880.28088407882
 20
97.8674536450701
 42
0.0
 10
-1880.28088407882
 20
29.2367701649312
 42
0.0475754375093521
 10
-1860.990466674004
 20
27.13299178154682
 42
0.0
 10
-1858.221006603585
 20
27.13299178154682
 42
0.0201526900432898
 10
-1849.997920159003
 20
27.57623055992408
 42
0.1117820670402823
 10
-1832.464957954869
 20
33.1147824931215
 42
0.5989391739264164
 10
-1838.28383134213
 20
65.9908535396998
 42
0.7144612958116017
 97
        1
330
8D
 92
        2
 72
     1
 73
     1
 93
        4
 10
-1867.446624370926
 20
70.06012219255386
 42
0.018587651104709
 10
-1849.850094396118
 20
70.07706525553314
 42
0.8637728306683231
 10
-1850.363184084069
 20
88.35761407340325
 42
0.0363046036528515
 10
-1867.446624370926
 20
88.35761407340325
 42
0.0
 97
        1
330
8E
 92
        2
 72
     1
 73
     1
 93
        4
 10
-1867.24821365328
 20
38.30746993145628
 42
0.0570602598095221
 10
-1849.10729936985
 20
38.48254307002574
 42
0.9504624262000833
 10
-1849.29759365642
 20
59.8135267392792
 42
0.0333151677067815
 10
-1867.24821365328
 20
59.8135267392792
 42
0.0
 97
        1
330
8F
 75
     0
 76
     1
 98
        0
  0
LWPOLYLINE
  5
8D
102
{ACAD_REACTORS
330
8C
102
}
330
1F
100
AcDbEntity
  8
@__WIDOCZNE
  6
Continuous
370
    13
100
AcDbPolyline
 90
        8
 70
   129
 43
0.0
 10
-1844.608978596282
 20
98.17160218242837
 42
0.0723831287448308
 10
-1880.28088407882
 20
97.8674536450701
 10
-1880.28088407882
 20
29.2367701649312
 42
0.0475754375093521
 10
-1860.990466674004
 20
27.13299178154682
 10
-1858.221006603585
 20
27.13299178154682
 42
0.0201526900432898
 10
-1849.997920159003
 20
27.57623055992408
 42
0.1117820670402823
 10
-1832.464957954869
 20
33.1147824931215
 42
0.5989391739264164
 10
-1838.28383134213
 20
65.9908535396998
 42
0.7144612958116017
  0
LWPOLYLINE
  5
8E
102
{ACAD_REACTORS
330
8C
102
}
330
1F
100
AcDbEntity
  8
@__WIDOCZNE
  6
Continuous
370
    13
100
AcDbPolyline
 90
        4
 70
   129
 43
0.0
 10
-1867.446624370926
 20
70.06012219255386
 42
0.018587651104709
 10
-1849.850094396118
 20
70.07706525553314
 42
0.8637728306683231
 10
-1850.363184084069
 20
88.35761407340325
 42
0.0363046036528515
 10
-1867.446624370926
 20
88.35761407340325
  0
LWPOLYLINE
  5
8F
102
{ACAD_REACTORS
330
8C
102
}
330
1F
100
AcDbEntity
  8
@__WIDOCZNE
  6
Continuous
370
    13
100
AcDbPolyline
 90
        4
 70
   129
 43
0.0
 10
-1867.24821365328
 20
38.30746993145628
 42
0.0570602598095221
 10
-1849.10729936985
 20
38.48254307002574
 42
0.9504624262000833
 10
-1849.29759365642
 20
59.8135267392792
 42
0.0333151677067815
 10
-1867.24821365328
 20
59.8135267392792
  0
HATCH
  5
90
330
1F
100
AcDbEntity
  8
@__WIDOCZNE
  6
Continuous
370
    13
100
AcDbHatch
 10
0.0
 20
0.0
 30
0.0
210
0.0
220
0.0
230
1.0
  2
SOLID
 70
     1
 71
     1
 91
        1
 92
        2
 72
     1
 73
     1
 93
       12
 10
-1729.402714440353
 20
82.46142554291968
 42
0.0
 10
-1745.324133915823
 20
82.46142554291968
 42
0.0
 10
-1745.324133915823
 20
97.94723417838935
 42
0.0
 10
-1757.603398609321
 20
95.44975661360877
 42
0.0
 10
-1757.603398609321
 20
44.39724550147272
 42
0.3686923280690939
 10
-1740.339247767858
 20
27.19259236236771
 42
0.0
 10
-1727.8927556222
 20
27.23556106484648
 42
0.0
 10
-1725.240251832387
 20
38.84026514527616
 42
0.0
 10
-1737.9506672031
 20
38.84026514527616
 42
-0.3159610186060354
 10
-1745.324133915823
 20
46.21373185799915
 42
0.0
 10
-1745.324133915823
 20
70.99528879181105
 42
0.0
 10
-1729.402714440353
 20
70.99528879181105
 42
0.0
 97
        1
330
91
 75
     0
 76
     1
 98
        0
  0
LWPOLYLINE
  5
91
102
{ACAD_REACTORS
330
90
102
}
330
1F
100
AcDbEntity
  8
@__WIDOCZNE
  6
Continuous
370
    13
100
AcDbPolyline
 90
       12
 70
   129
 43
0.0
 10
-1729.402714440353
 20
82.46142554291968
 10
-1745.324133915823
 20
82.46142554291968
 10
-1745.324133915823
 20
97.94723417838935
 10
-1757.603398609321
 20
95.44975661360877
 10
-1757.603398609321
 20
44.39724550147272
 42
0.3686923280690939
 10
-1740.339247767858
 20
27.19259236236771
 10
-1727.8927556222
 20
27.23556106484648
 10
-1725.240251832387
 20
38.84026514527616
 10
-1737.9506672031
 20
38.84026514527616
 42
-0.3159610186060354
 10
-1745.324133915823
 20
46.21373185799915
 10
-1745.324133915823
 20
70.99528879181105
 10
-1729.402714440353
 20
70.99528879181105
  0
HATCH
  5
92
330
1F
100
AcDbEntity
  8
@__WIDOCZNE
  6
Continuous
370
    13
100
AcDbHatch
 10
0.0
 20
0.0
 30
0.0
210
0.0
220
0.0
230
1.0
  2
SOLID
 70
     1
 71
     1
 91
        2
 92
        2
 72
     1
 73
     1
 93
       14
 10
-1695.3789455291
 20
70.66086091922163
 42
-0.387209016979461
 10
-1687.643449429521
 20
62.54443689004607
 42
0.0
 10
-1687.574328139165
 20
59.47424266031409
 42
0.1185067504646354
 10
-1705.348438172614
 20
59.6343642799575
 42
0.2642193030162518
 10
-1718.06555020485
 20
49.53992440696031
 42
0.1757337626801403
 10
-1718.08092676935
 20
38.36255346105699
 42
0.2604621029539542
 10
-1705.804478884279
 20
27.44278968914959
 42
0.0083652857947627
 10
-1702.260288367389
 20
27.13299178154682
 42
0.0
 10
-1687.288899371302
 20
27.13299178154682
 42
0.028992295246684
 10
-1675.069614284331
 20
28.71095824822878
 42
0.0
 10
-1675.696508768819
 20
63.37655135528242
 42
0.4278697545607686
 10
-1693.114318429094
 20
81.77590655045397
 42
0.0
 10
-1710.567750622467
 20
81.84917571428518
 42
0.0
 10
-1713.329565525953
 20
70.66086091922163
 42
0.0
 97
        1
330
93
 92
        2
 72
     1
 73
     1
 93
        6
 10
-1687.464524662339
 20
50.9694597080188
 42
0.1273826308893613
 10
-1701.046762368479
 20
51.31906204537206
 42
0.2091253650713026
 10
-1706.414701844473
 20
46.22346481611505
 42
0.067218802794298
 10
-1706.351643396481
 20
42.3159262088284
 42
0.2977682718343915
 10
-1700.831290205443
 20
36.64088600748916
 42
0.0710664823309622
 10
-1687.464524662339
 20
36.66701657445803
 42
0.0
 97
        1
330
94
 75
     0
 76
     1
 98
        0
  0
LWPOLYLINE
  5
93
102
{ACAD_REACTORS
330
92
102
}
330
1F
100
AcDbEntity
  8
@__WIDOCZNE
  6
Continuous
370
    13
100
AcDbPolyline
 90
       14
 70
   129
 43
0.0
 10
-1695.3789455291
 20
70.66086091922163
 42
-0.387209016979461
 10
-1687.643449429521
 20
62.54443689004607
 10
-1687.574328139165
 20
59.47424266031409
 42
0.1185067504646354
 10
-1705.348438172614
 20
59.6343642799575
 42
0.2642193030162518
 10
-1718.06555020485
 20
49.53992440696031
 42
0.1757337626801403
 10
-1718.08092676935
 20
38.36255346105699
 42
0.2604621029539542
 10
-1705.804478884279
 20
27.44278968914959
 42
0.0083652857947627
 10
-1702.260288367389
 20
27.13299178154682
 10
-1687.288899371302
 20
27.13299178154682
 42
0.028992295246684
 10
-1675.069614284331
 20
28.71095824822878
 10
-1675.696508768819
 20
63.37655135528242
 42
0.4278697545607686
 10
-1693.114318429094
 20
81.77590655045397
 10
-1710.567750622467
 20
81.84917571428518
 10
-1713.329565525953
 20
70.66086091922163
  0
LWPOLYLINE
  5
94
102
{ACAD_REACTORS
330
92
102
}
330
1F
100
AcDbEntity
  8
@__WIDOCZNE
  6
Continuous
370
    13
100
AcDbPolyline
 90
        6
 70
   129
 43
0.0
 10
-1687.464524662339
 20
50.9694597080188
 42
0.1273826308893613
 10
-1701.046762368479
 20
51.31906204537206
 42
0.2091253650713026
 10
-1706.414701844473
 20
46.22346481611505
 42
0.067218802794298
 10
-1706.351643396481
 20
42.3159262088284
 42
0.2977682718343915
 10
-1700.831290205443
 20
36.64088600748916
 42
0.0710664823309622
 10
-1687.464524662339
 20
36.66701657445803
  0
HATCH
  5
95
330
1F
100
AcDbEntity
  8
@__WIDOCZNE
  6
Continuous
370
    13
100
AcDbHatch
 10
0.0
 20
0.0
 30
0.0
210
0.0
220
0.0
230
1.0
  2
SOLID
 70
     1
 71
     1
 91
        1
 92
        2
 72
     1
 73
     1
 93
       26
 10
-1654.198388356059
 20
82.0276615001998
 42
0.0863077155126181
 10
-1665.782746252365
 20
79.18917737236453
 42
0.0
 10
-1665.782746252365
 20
27.13299178154682
 42
0.0
 10
-1652.785044452873
 20
27.13299178154682
 42
0.0
 10
-1652.785044452873
 20
70.71945709420402
 42
-0.12168371550613
 10
-1643.122265044085
 20
71.67188779263367
 42
-0.3861329478031837
 10
-1635.237625678547
 20
62.48921307251476
 42
0.0
 10
-1635.237625678547
 20
27.13299178154682
 42
0.0
 10
-1622.750237854651
 20
27.13299178154682
 42
0.0
 10
-1622.932143332362
 20
61.33512567383481
 42
0.0
 10
-1622.750237854651
 20
61.33887699108986
 42
0.0799288732000265
 10
-1624.003794302096
 20
68.44353605487119
 42
0.0
 10
-1622.739100694243
 20
69.22565000319669
 42
-0.1916235362829357
 10
-1611.562754209819
 20
71.40103683998977
 42
-0.3589776600930252
 10
-1604.783409795383
 20
63.29313384576918
 42
0.0
 10
-1604.777166722119
 20
27.13299178154682
 42
0.0
 10
-1592.868830936648
 20
27.13299178154682
 42
0.0
 10
-1592.874123468114
 20
65.8010197972445
 42
0.3475935087177212
 10
-1607.366660587493
 20
82.46142554291968
 42
0.0
 10
-1617.170892658584
 20
82.46142554291968
 42
0.0002381544695914
 10
-1617.238346976839
 20
82.45667841114756
 42
0.1173548723086789
 10
-1623.239100482952
 20
80.72198421700638
 42
0.1053500657717058
 10
-1629.449964777999
 20
76.81925925311295
 42
0.1560368886834541
 10
-1638.651553086051
 20
82.13948174335539
 42
0.0158994515272265
 10
-1643.078612422226
 20
82.46142554291968
 42
0.0
 10
-1648.773361816882
 20
82.46142554291968
 42
0.0194967579096993
 97
        1
330
96
 75
     0
 76
     1
 98
        0
  0
LWPOLYLINE
  5
96
102
{ACAD_REACTORS
330
95
102
}
330
1F
100
AcDbEntity
  8
@__WIDOCZNE
  6
Continuous
370
    13
100
AcDbPolyline
 90
       26
 70
   129
 43
0.0
 10
-1654.198388356059
 20
82.0276615001998
 42
0.0863077155126181
 10
-1665.782746252365
 20
79.18917737236453
 10
-1665.782746252365
 20
27.13299178154682
 10
-1652.785044452873
 20
27.13299178154682
 10
-1652.785044452873
 20
70.71945709420402
 42
-0.12168371550613
 10
-1643.122265044085
 20
71.67188779263367
 42
-0.3861329478031837
 10
-1635.237625678547
 20
62.48921307251476
 10
-1635.237625678547
 20
27.13299178154682
 10
-1622.750237854651
 20
27.13299178154682
 10
-1622.932143332362
 20
61.33512567383481
 10
-1622.750237854651
 20
61.33887699108986
 42
0.0799288732000265
 10
-1624.003794302096
 20
68.44353605487119
 10
-1622.739100694243
 20
69.22565000319669
 42
-0.1916235362829357
 10
-1611.562754209819
 20
71.40103683998977
 42
-0.3589776600930252
 10
-1604.783409795383
 20
63.29313384576918
 10
-1604.777166722119
 20
27.13299178154682
 10
-1592.868830936648
 20
27.13299178154682
 10
-1592.874123468114
 20
65.8010197972445
 42
0.3475935087177212
 10
-1607.366660587493
 20
82.46142554291968
 10
-1617.170892658584
 20
82.46142554291968
 42
0.0002381544695914
 10
-1617.238346976839
 20
82.45667841114756
 42
0.1173548723086789
 10
-1623.239100482952
 20
80.72198421700638
 42
0.1053500657717058
 10
-1629.449964777999
 20
76.81925925311295
 42
0.1560368886834541
 10
-1638.651553086051
 20
82.13948174335539
 42
0.0158994515272265
 10
-1643.078612422226
 20
82.46142554291968
 10
-1648.773361816882
 20
82.46142554291968
 42
0.0194967579096993
  0
HATCH
  5
97
330
1F
100
AcDbEntity
  8
@__WIDOCZNE
  6
Continuous
370
    13
100
AcDbHatch
 10
0.0
 20
0.0
 30
0.0
210
0.0
220
0.0
230
1.0
  2
SOLID
 70
     1
 71
     1
 91
        2
 92
        2
 72
     1
 73
     1
 93
       14
 10
-1564.164290039887
 20
81.21627504992657
 42
0.2809658966461606
 10
-1582.559778033168
 20
62.18583720874382
 42
0.1091159824470767
 10
-1582.545983001007
 20
45.21703033520485
 42
0.2766399819923606
 10
-1564.06607851207
 20
27.87418971143229
 42
0.0392105095801167
 10
-1558.998548032042
 20
27.15518527716409
 42
0.0
 10
-1541.383049920677
 20
27.13299178154682
 42
0.0
 10
-1539.184423721292
 20
38.00747491090139
 42
0.0
 10
-1557.58646827303
 20
38.00747491090139
 42
-0.1667294674755062
 10
-1565.564314677562
 20
40.74382612457694
 42
-0.081638462027361
 10
-1569.66203592779
 20
46.01357122047678
 42
-0.0661503038161424
 10
-1570.215334957396
 20
49.5523796489945
 42
0.0
 10
-1535.042525920085
 20
49.5523796489945
 42
0.0
 10
-1535.042525920085
 20
60.79102869050179
 42
0.3105787245802772
 10
-1551.826375948879
 20
81.24375079517532
 42
0.1083142208160692
 97
        1
330
98
 92
        2
 72
     1
 73
     1
 93
        5
 10
-1555.16081319632
 20
71.84991398303109
 42
0.1431069476368757
 10
-1561.105556534388
 20
72.06086934777578
 42
0.3279495498710064
 10
-1570.210690757098
 20
59.65105365195566
 42
0.0
 10
-1546.837795763098
 20
59.65105365195566
 42
0.0
 10
-1546.837795763098
 20
60.60662794126981
 42
0.3298596086471468
 97
        1
330
99
 75
     0
 76
     1
 98
        0
  0
LWPOLYLINE
  5
98
102
{ACAD_REACTORS
330
97
102
}
330
1F
100
AcDbEntity
  8
@__WIDOCZNE
  6
Continuous
370
    13
100
AcDbPolyline
 90
       14
 70
   129
 43
0.0
 10
-1564.164290039887
 20
81.21627504992657
 42
0.2809658966461606
 10
-1582.559778033168
 20
62.18583720874382
 42
0.1091159824470767
 10
-1582.545983001007
 20
45.21703033520485
 42
0.2766399819923606
 10
-1564.06607851207
 20
27.87418971143229
 42
0.0392105095801167
 10
-1558.998548032042
 20
27.15518527716409
 10
-1541.383049920677
 20
27.13299178154682
 10
-1539.184423721292
 20
38.00747491090139
 10
-1557.58646827303
 20
38.00747491090139
 42
-0.1667294674755062
 10
-1565.564314677562
 20
40.74382612457694
 42
-0.081638462027361
 10
-1569.66203592779
 20
46.01357122047678
 42
-0.0661503038161424
 10
-1570.215334957396
 20
49.5523796489945
 10
-1535.042525920085
 20
49.5523796489945
 10
-1535.042525920085
 20
60.79102869050179
 42
0.3105787245802772
 10
-1551.826375948879
 20
81.24375079517532
 42
0.1083142208160692
  0
LWPOLYLINE
  5
99
102
{ACAD_REACTORS
330
97
102
}
330
1F
100
AcDbEntity
  8
@__WIDOCZNE
  6
Continuous
370
    13
100
AcDbPolyline
 90
        5
 70
   129
 43
0.0
 10
-1555.16081319632
 20
71.84991398303109
 42
0.1431069476368757
 10
-1561.105556534388
 20
72.06086934777578
 42
0.3279495498710064
 10
-1570.210690757098
 20
59.65105365195566
 10
-1546.837795763098
 20
59.65105365195566
 10
-1546.837795763098
 20
60.60662794126981
 42
0.3298596086471468
  0
HATCH
  5
9A
330
1F
100
AcDbEntity
  8
@__WIDOCZNE
  6
Continuous
370
    13
100
AcDbHatch
 10
0.0
 20
0.0
 30
0.0
210
0.0
220
0.0
230
1.0
  2
SOLID
 70
     1
 71
     1
 91
        1
 92
        2
 72
     1
 73
     1
 93
       13
 10
-1497.55321862776
 20
82.1047084903459
 42
0.0175531184166386
 10
-1503.169542088179
 20
82.46142554291968
 42
0.0
 10
-1507.711161373805
 20
82.46142554291968
 42
0.0177750747803509
 10
-1513.398296898057
 20
82.09767685201652
 42
0.0683229953867364
 10
-1526.039182683462
 20
79.60409012036007
 42
0.0
 10
-1526.039182683462
 20
27.13299178154682
 42
0.0
 10
-1513.542212098656
 20
27.13299178154682
 42
0.0
 10
-1513.542212098656
 20
70.76393098648492
 42
-0.0958663550348273
 10
-1501.360549851507
 20
71.31944179709681
 42
-0.3633763851128492
 10
-1494.005037242314
 20
62.53478578645155
 42
0.0
 10
-1494.005037242314
 20
27.13299178154682
 42
0.0
 10
-1481.834896717265
 20
27.13299178154682
 42
0.0
 10
-1481.834896717265
 20
64.42796838466447
 42
0.3803017440747632
 97
        1
330
9B
 75
     0
 76
     1
 98
        0
  0
LWPOLYLINE
  5
9B
102
{ACAD_REACTORS
330
9A
102
}
330
1F
100
AcDbEntity
  8
@__WIDOCZNE
  6
Continuous
370
    13
100
AcDbPolyline
 90
       13
 70
   129
 43
0.0
 10
-1497.55321862776
 20
82.1047084903459
 42
0.0175531184166386
 10
-1503.169542088179
 20
82.46142554291968
 10
-1507.711161373805
 20
82.46142554291968
 42
0.0177750747803509
 10
-1513.398296898057
 20
82.09767685201652
 42
0.0683229953867364
 10
-1526.039182683462
 20
79.60409012036007
 10
-1526.039182683462
 20
27.13299178154682
 10
-1513.542212098656
 20
27.13299178154682
 10
-1513.542212098656
 20
70.76393098648492
 42
-0.0958663550348273
 10
-1501.360549851507
 20
71.31944179709681
 42
-0.3633763851128492
 10
-1494.005037242314
 20
62.53478578645155
 10
-1494.005037242314
 20
27.13299178154682
 10
-1481.834896717265
 20
27.13299178154682
 10
-1481.834896717265
 20
64.42796838466447
 42
0.3803017440747632
  0
HATCH
  5
9C
330
1F
100
AcDbEntity
  8
@__WIDOCZNE
  6
Continuous
370
    13
100
AcDbHatch
 10
0.0
 20
0.0
 30
0.0
210
0.0
220
0.0
230
1.0
  2
SOLID
 70
     1
 71
     1
 91
        1
 92
        2
 72
     1
 73
     1
 93
       12
 10
-1472.352887577928
 20
44.39724550147272
 42
0.3564817226562251
 10
-1455.088736736466
 20
27.19259236236771
 42
0.0
 10
-1442.642244590807
 20
27.23556106484648
 42
0.0
 10
-1439.989740800994
 20
38.84026514527616
 42
0.0
 10
-1452.700156171707
 20
38.84026514527616
 42
-0.3014632934563285
 10
-1460.07362288443
 20
46.21373185799915
 42
0.0
 10
-1460.07362288443
 20
70.99528879181105
 42
0.0
 10
-1444.15220340896
 20
70.99528879181105
 42
0.0
 10
-1444.15220340896
 20
82.46142554291968
 42
0.0
 10
-1460.07362288443
 20
82.46142554291968
 42
0.0
 10
-1460.07362288443
 20
97.94723417838935
 42
0.0
 10
-1472.352887577928
 20
95.44975661360877
 42
0.0
 97
        1
330
9D
 75
     0
 76
     1
 98
        0
  0
LWPOLYLINE
  5
9D
102
{ACAD_REACTORS
330
9C
102
}
330
1F
100
AcDbEntity
  8
@__WIDOCZNE
  6
Continuous
370
    13
100
AcDbPolyline
 90
       12
 70
   129
 43
0.0
 10
-1472.352887577928
 20
44.39724550147272
 42
0.3564817226562251
 10
-1455.088736736466
 20
27.19259236236771
 10
-1442.642244590807
 20
27.23556106484648
 10
-1439.989740800994
 20
38.84026514527616
 10
-1452.700156171707
 20
38.84026514527616
 42
-0.3014632934563285
 10
-1460.07362288443
 20
46.21373185799915
 10
-1460.07362288443
 20
70.99528879181105
 10
-1444.15220340896
 20
70.99528879181105
 10
-1444.15220340896
 20
82.46142554291968
 10
-1460.07362288443
 20
82.46142554291968
 10
-1460.07362288443
 20
97.94723417838935
 10
-1472.352887577928
 20
95.44975661360877
  0
HATCH
  5
9E
330
1F
100
AcDbEntity
  8
@__WIDOCZNE
  6
Continuous
370
    13
100
AcDbHatch
 10
0.0
 20
0.0
 30
0.0
210
0.0
220
0.0
230
1.0
  2
SOLID
 70
     1
 71
     1
 91
        2
 92
        2
 72
     1
 73
     1
 93
        9
 10
-1798.353175528995
 20
81.98657770430384
 42
0.2820479307333718
 10
-1817.197331750551
 20
62.93416802434781
 42
0.0886832537999132
 10
-1817.163046105669
 20
45.63402678997019
 42
0.2508564250541997
 10
-1799.731031447562
 20
27.13299178154682
 42
0.0
 10
-1784.71631114513
 20
27.13299178154682
 42
0.2670900430231695
 10
-1767.071162198142
 20
47.31499222260393
 42
0.1207336614180937
 10
-1767.027114476438
 20
62.00365055784762
 42
0.3094451166888095
 10
-1785.711720033064
 20
81.9520427761422
 42
0.0268897328129527
 10
-1789.056832065414
 20
82.46142554291968
 42
0.074328415179198
 97
        1
330
9F
 92
        2
 72
     1
 73
     1
 93
        8
 10
-1804.78995588228
 20
60.3227931830983
 42
0.0948073731652809
 10
-1804.886012577331
 20
49.10403397774066
 42
0.0590800675341869
 10
-1803.794519113382
 20
45.37256301277925
 42
0.6394418664691048
 10
-1780.873453922958
 20
44.6762888288259
 42
0.0835238969854629
 10
-1779.438696118556
 20
49.36979420916043
 42
0.0916297819744675
 10
-1779.666234472563
 20
60.88930344281995
 42
0.2559732989582162
 10
-1788.078277064415
 20
71.31871972145665
 42
0.1954327814670101
 10
-1796.631108014774
 20
70.97018629594776
 42
0.2505066079508973
 97
        1
330
A0
 75
     0
 76
     1
 98
        0
  0
LWPOLYLINE
  5
9F
102
{ACAD_REACTORS
330
9E
102
}
330
1F
100
AcDbEntity
  8
@__WIDOCZNE
  6
Continuous
370
    13
100
AcDbPolyline
 90
        9
 70
   129
 43
0.0
 10
-1798.353175528995
 20
81.98657770430384
 42
0.2820479307333718
 10
-1817.197331750551
 20
62.93416802434781
 42
0.0886832537999132
 10
-1817.163046105669
 20
45.63402678997019
 42
0.2508564250541997
 10
-1799.731031447562
 20
27.13299178154682
 10
-1784.71631114513
 20
27.13299178154682
 42
0.2670900430231695
 10
-1767.071162198142
 20
47.31499222260393
 42
0.1207336614180937
 10
-1767.027114476438
 20
62.00365055784762
 42
0.3094451166888095
 10
-1785.711720033064
 20
81.9520427761422
 42
0.0268897328129527
 10
-1789.056832065414
 20
82.46142554291968
 42
0.074328415179198
  0
LWPOLYLINE
  5
A0
102
{ACAD_REACTORS
330
9E
102
}
330
1F
100
AcDbEntity
  8
@__WIDOCZNE
  6
Continuous
370
    13
100
AcDbPolyline
 90
        8
 70
   129
 43
0.0
 10
-1804.78995588228
 20
60.3227931830983
 42
0.0948073731652809
 10
-1804.886012577331
 20
49.10403397774066
 42
0.0590800675341869
 10
-1803.794519113382
 20
45.37256301277925
 42
0.6394418664691048
 10
-1780.873453922958
 20
44.6762888288259
 42
0.0835238969854629
 10
-1779.438696118556
 20
49.36979420916043
 42
0.0916297819744675
 10
-1779.666234472563
 20
60.88930344281995
 42
0.2559732989582162
 10
-1788.078277064415
 20
71.31871972145665
 42
0.1954327814670101
 10
-1796.631108014774
 20
70.97018629594776
 42
0.2505066079508973
  0
INSERT
  5
110
330
1F
100
AcDbEntity
  8
@__WIDOCZNE
  6
Continuous
370
    13
100
AcDbBlockReference
  2
*X1
 10
0.0
 20
0.0
 30
0.0
  0
INSERT
  5
131
330
1F
100
AcDbEntity
  8
0
  6
Continuous
370
    13
100
AcDbBlockReference
  2
Izolacja cieplna 12_17_2
 10
-2567.971433522582
 20
1150.000000000048
 30
0.0
  0
INSERT
  5
16A
330
1F
100
AcDbEntity
  8
0
  6
Continuous
370
    13
100
AcDbBlockReference
  2
Izolacja cieplna 12_16_2
 10
-2281.972273844694
 20
641.0000000000484
 30
0.0
  0
INSERT
  5
171
330
1F
100
AcDbEntity
  8
@__WIDOCZNE
  6
Continuous
370
    13
100
AcDbBlockReference
 66
     1
  2
Sygnał termostatu 12
 10
-2203.471987704241
 20
1250.727850302568
 30
0.0
  0
ATTRIB
  5
172
330
171
100
AcDbEntity
  8
@__WIDOCZNE
  6
Continuous
370
    13
100
AcDbText
 10
-2226.237737704241
 20
1237.442157445425
 30
0.0
 40
30.0
  1
01
  7
GENERATED_STYLE_1
 11
-2226.237737704241
 21
1228.575751195425
 31
0.0
100
AcDbAttribute
  2
txt
 70
     0
 74
     1
  0
SEQEND
  5
173
330
171
100
AcDbEntity
  8
@__WIDOCZNE
  6
Continuous
370
    13
  0
INSERT
  5
179
330
1F
100
AcDbEntity
  8
@__WIDOCZNE
  6
Continuous
370
    13
100
AcDbBlockReference
 66
     1
  2
Sygnał termostatu 12_2
 10
-2203.471987704241
 20
1180.727850302568
 30
0.0
  0
ATTRIB
  5
17A
330
179
100
AcDbEntity
  8
@__WIDOCZNE
  6
Continuous
370
    13
100
AcDbText
 10
-2226.237737704241
 20
1167.442157445425
 30
0.0
 40
30.0
  1
02
  7
GENERATED_STYLE_1
 11
-2226.237737704241
 21
1158.575751195425
 31
0.0
100
AcDbAttribute
  2
txt
 70
     0
 74
     1
  0
SEQEND
  5
17B
330
179
100
AcDbEntity
  8
@__WIDOCZNE
  6
Continuous
370
    13
  0
INSERT
  5
181
330
1F
100
AcDbEntity
  8
@__WIDOCZNE
  6
Continuous
370
    13
100
AcDbBlockReference
 66
     1
  2
Sygnał termostatu 12_3
 10
-2203.471987704241
 20
1110.727850302568
 30
0.0
  0
ATTRIB
  5
182
330
181
100
AcDbEntity
  8
@__WIDOCZNE
  6
Continuous
370
    13
100
AcDbText
 10
-2226.237737704241
 20
1097.442157445425
 30
0.0
 40
30.0
  1
03
  7
GENERATED_STYLE_1
 11
-2226.237737704241
 21
1088.575751195425
 31
0.0
100
AcDbAttribute
  2
txt
 70
     0
 74
     1
  0
SEQEND
  5
183
330
181
100
AcDbEntity
  8
@__WIDOCZNE
  6
Continuous
370
    13
  0
INSERT
  5
189
330
1F
100
AcDbEntity
  8
@__WIDOCZNE
  6
Continuous
370
    13
100
AcDbBlockReference
 66
     1
  2
Sygnał termostatu 12_4
 10
-2203.471987704241
 20
1040.727850302568
 30
0.0
  0
ATTRIB
  5
18A
330
189
100
AcDbEntity
  8
@__WIDOCZNE
  6
Continuous
370
    13
100
AcDbText
 10
-2226.237737704241
 20
1027.442157445425
 30
0.0
 40
30.0
  1
04
  7
GENERATED_STYLE_1
 11
-2226.237737704241
 21
1018.575751195425
 31
0.0
100
AcDbAttribute
  2
txt
 70
     0
 74
     1
  0
SEQEND
  5
18B
330
189
100
AcDbEntity
  8
@__WIDOCZNE
  6
Continuous
370
    13
  0
INSERT
  5
18C
330
1F
100
AcDbEntity
  8
@__WIDOCZNE
  6
Continuous
370
    13
100
AcDbBlockReference
 66
     1
  2
Sygnał termostatu 12
 10
-2203.512381003325
 20
966.4769010823317
 30
0.0
  0
ATTRIB
  5
18D
330
18C
100
AcDbEntity
  8
@__WIDOCZNE
  6
Continuous
370
    13
100
AcDbText
 10
-2226.278131003325
 20
953.1912082251888
 30
0.0
 40
30.0
  1
01
  7
GENERATED_STYLE_1
 11
-2226.278131003325
 21
944.3248019751888
 31
0.0
100
AcDbAttribute
  2
txt
 70
     0
 74
     1
  0
SEQEND
  5
18E
330
18C
100
AcDbEntity
  8
@__WIDOCZNE
  6
Continuous
370
    13
  0
INSERT
  5
18F
330
1F
100
AcDbEntity
  8
@__WIDOCZNE
  6
Continuous
370
    13
100
AcDbBlockReference
 66
     1
  2
Sygnał termostatu 12_3
 10
-2133.365782815253
 20
966.4769010823317
 30
0.0
  0
ATTRIB
  5
190
330
18F
100
AcDbEntity
  8
@__WIDOCZNE
  6
Continuous
370
    13
100
AcDbText
 10
-2156.131532815252
 20
953.1912082251888
 30
0.0
 40
30.0
  1
03
  7
GENERATED_STYLE_1
 11
-2156.131532815252
 21
944.3248019751888
 31
0.0
100
AcDbAttribute
  2
txt
 70
     0
 74
     1
  0
SEQEND
  5
191
330
18F
100
AcDbEntity
  8
@__WIDOCZNE
  6
Continuous
370
    13
  0
INSERT
  5
192
330
1F
100
AcDbEntity
  8
@__WIDOCZNE
  6
Continuous
370
    13
100
AcDbBlockReference
 66
     1
  2
Sygnał termostatu 12_2
 10
-2133.365782815253
 20
899.3667020684537
 30
0.0
  0
ATTRIB
  5
193
330
192
100
AcDbEntity
  8
@__WIDOCZNE
  6
Continuous
370
    13
100
AcDbText
 10
-2156.131532815252
 20
886.081009211311
 30
0.0
 40
30.0
  1
02
  7
GENERATED_STYLE_1
 11
-2156.131532815252
 21
877.214602961311
 31
0.0
100
AcDbAttribute
  2
txt
 70
     0
 74
     1
  0
SEQEND
  5
194
330
192
100
AcDbEntity
  8
@__WIDOCZNE
  6
Continuous
370
    13
  0
INSERT
  5
195
330
1F
100
AcDbEntity
  8
@__WIDOCZNE
  6
Continuous
370
    13
100
AcDbBlockReference
 66
     1
  2
Sygnał termostatu 12_2
 10
-1959.529407522437
 20
966.476901082331
 30
0.0
  0
ATTRIB
  5
196
330
195
100
AcDbEntity
  8
@__WIDOCZNE
  6
Continuous
370
    13
100
AcDbText
 10
-1982.295157522437
 20
953.1912082251881
 30
0.0
 40
30.0
  1
02
  7
GENERATED_STYLE_1
 11
-1982.295157522437
 21
944.3248019751882
 31
0.0
100
AcDbAttribute
  2
txt
 70
     0
 74
     1
  0
SEQEND
  5
197
330
195
100
AcDbEntity
  8
@__WIDOCZNE
  6
Continuous
370
    13
  0
INSERT
  5
198
330
1F
100
AcDbEntity
  8
@__WIDOCZNE
  6
Continuous
370
    13
100
AcDbBlockReference
 66
     1
  2
Sygnał termostatu 12
 10
-1711.139089504009
 20
966.4769010823317
 30
0.0
  0
ATTRIB
  5
199
330
198
100
AcDbEntity
  8
@__WIDOCZNE
  6
Continuous
370
    13
100
AcDbText
 10
-1733.904839504009
 20
953.1912082251888
 30
0.0
 40
30.0
  1
01
  7
GENERATED_STYLE_1
 11
-1733.904839504009
 21
944.3248019751888
 31
0.0
100
AcDbAttribute
  2
txt
 70
     0
 74
     1
  0
SEQEND
  5
19A
330
198
100
AcDbEntity
  8
@__WIDOCZNE
  6
Continuous
370
    13
  0
INSERT
  5
19B
330
1F
100
AcDbEntity
  8
@__WIDOCZNE
  6
Continuous
370
    13
100
AcDbBlockReference
 66
     1
  2
Sygnał termostatu 12_3
 10
-1640.621157566839
 20
966.4769010823317
 30
0.0
  0
ATTRIB
  5
19C
330
19B
100
AcDbEntity
  8
@__WIDOCZNE
  6
Continuous
370
    13
100
AcDbText
 10
-1663.386907566839
 20
953.1912082251888
 30
0.0
 40
30.0
  1
03
  7
GENERATED_STYLE_1
 11
-1663.386907566839
 21
944.3248019751888
 31
0.0
100
AcDbAttribute
  2
txt
 70
     0
 74
     1
  0
SEQEND
  5
19D
330
19B
100
AcDbEntity
  8
@__WIDOCZNE
  6
Continuous
370
    13
  0
INSERT
  5
19E
330
1F
100
AcDbEntity
  8
@__WIDOCZNE
  6
Continuous
370
    13
100
AcDbBlockReference
 66
     1
  2
Sygnał termostatu 12
 10
-1126.157686419833
 20
942.5189790576406
 30
0.0
  0
ATTRIB
  5
19F
330
19E
100
AcDbEntity
  8
@__WIDOCZNE
  6
Continuous
370
    13
100
AcDbText
 10
-1148.923436419833
 20
929.2332862004979
 30
0.0
 40
30.0
  1
01
  7
GENERATED_STYLE_1
 11
-1148.923436419833
 21
920.366879950498
 31
0.0
100
AcDbAttribute
  2
txt
 70
     0
 74
     1
  0
SEQEND
  5
1A0
330
19E
100
AcDbEntity
  8
@__WIDOCZNE
  6
Continuous
370
    13
  0
INSERT
  5
1A1
330
1F
100
AcDbEntity
  8
@__WIDOCZNE
  6
Continuous
370
    13
100
AcDbBlockReference
 66
     1
  2
Sygnał termostatu 12_3
 10
-951.6576864198325
 20
942.5189790576406
 30
0.0
  0
ATTRIB
  5
1A2
330
1A1
100
AcDbEntity
  8
@__WIDOCZNE
  6
Continuous
370
    13
100
AcDbText
 10
-974.4234364198317
 20
929.2332862004979
 30
0.0
 40
30.0
  1
03
  7
GENERATED_STYLE_1
 11
-974.4234364198317
 21
920.366879950498
 31
0.0
100
AcDbAttribute
  2
txt
 70
     0
 74
     1
  0
SEQEND
  5
1A3
330
1A1
100
AcDbEntity
  8
@__WIDOCZNE
  6
Continuous
370
    13
  0
INSERT
  5
1A4
330
1F
100
AcDbEntity
  8
@__WIDOCZNE
  6
Continuous
370
    13
100
AcDbBlockReference
 66
     1
  2
Sygnał termostatu 12_2
 10
-1197.20619392711
 20
708.9838541740484
 30
0.0
  0
ATTRIB
  5
1A5
330
1A4
100
AcDbEntity
  8
@__WIDOCZNE
  6
Continuous
370
    13
100
AcDbText
 10
-1219.97194392711
 20
695.6981613169055
 30
0.0
 40
30.0
  1
02
  7
GENERATED_STYLE_1
 11
-1219.97194392711
 21
686.8317550669055
 31
0.0
100
AcDbAttribute
  2
txt
 70
     0
 74
     1
  0
SEQEND
  5
1A6
330
1A4
100
AcDbEntity
  8
@__WIDOCZNE
  6
Continuous
370
    13
  0
INSERT
  5
1A7
330
1F
100
AcDbEntity
  8
@__WIDOCZNE
  6
Continuous
370
    13
100
AcDbBlockReference
 66
     1
  2
Sygnał termostatu 12_2
 10
-876.6576864198332
 20
942.5189790576406
 30
0.0
  0
ATTRIB
  5
1A8
330
1A7
100
AcDbEntity
  8
@__WIDOCZNE
  6
Continuous
370
    13
100
AcDbText
 10
-899.4234364198333
 20
929.2332862004979
 30
0.0
 40
30.0
  1
02
  7
GENERATED_STYLE_1
 11
-899.4234364198333
 21
920.366879950498
 31
0.0
100
AcDbAttribute
  2
txt
 70
     0
 74
     1
  0
SEQEND
  5
1A9
330
1A7
100
AcDbEntity
  8
@__WIDOCZNE
  6
Continuous
370
    13
  0
INSERT
  5
1AA
330
1F
100
AcDbEntity
  8
@__WIDOCZNE
  6
Continuous
370
    13
100
AcDbBlockReference
 66
     1
  2
Sygnał termostatu 12_4
 10
-880.0797520275112
 20
755.7708346153493
 30
0.0
  0
ATTRIB
  5
1AB
330
1AA
100
AcDbEntity
  8
@__WIDOCZNE
  6
Continuous
370
    13
100
AcDbText
 10
-902.8455020275103
 20
742.4851417582064
 30
0.0
 40
30.0
  1
04
  7
GENERATED_STYLE_1
 11
-902.8455020275103
 21
733.6187355082064
 31
0.0
100
AcDbAttribute
  2
txt
 70
     0
 74
     1
  0
SEQEND
  5
1AC
330
1AA
100
AcDbEntity
  8
@__WIDOCZNE
  6
Continuous
370
    13
  0
WIPEOUT
  5
1AD
330
1F
100
AcDbEntity
  8
@__WIDOCZNE
  6
Wipeout_Contour
 62
   254
 48
27598.12341506418
370
     0
 92
      284
310
1C0100000100000014010000060000000B00000056B4F5C32922A4C05D4087E8758A7840000000000000000056B4F5C32922A4C0AC28762C3DA88540000000000000000056B4F5C32922A4C0D400000000F891400000000000000000F1AFB8ABE737A5C0D400000000F8914000000000000000003B337180F037A5C02005C3
310
5F4A367C400000000000000000D9378A6CD140A6C0C1BCA17EE7DB73400000000000000000D9378A6CD140A6C0801A0000000049400000000000000000F336BBF0F123A5C0801A0000000049400000000000000000F336BBF0F123A5C0DA6EC3C65D6970400000000000000000E92160FCF197A4C05B2EA003C4DF74400000
310
00000000000056B4F5C32922A4C05D4087E8758A78400000000000000000
100
AcDbWipeout
 90
        0
 10
-2848.409031218831
 20
50.00000000004834
 30
0.0
 11
271.3274580393349
 21
0.0
 31
0.0
 12
0.0
 22
1100.0
 32
0.0
 13
1.0
 23
1.0
340
0
 70
    15
280
     1
281
    50
282
    50
283
     0
360
0
 71
     2
 91
       11
 14
0.5000000000000009
 24
0.1884965579914828
 14
0.5000000000000009
 24
-0.084572609054449
 14
0.5000000000000009
 24
-0.5
 14
-0.011820328947118
 24
-0.5
 14
-0.0118838976352141
 24
0.1350971293347563
 14
-0.4999999999999992
 24
0.256596347954719
 14
-0.4999999999999992
 24
0.5000000000000001
 14
0.0249615814373773
 24
0.5000000000000001
 14
0.0249615814373773
 24
0.3067405503330581
 14
0.282952098385272
 24
0.2418314954361857
 14
0.5000000000000009
 24
0.1884965579914828
  0
HATCH
  5
1AE
330
1F
100
AcDbEntity
  8
@__WIDOCZNE
  6
Continuous
370
    13
100
AcDbHatch
 10
0.0
 20
0.0
 30
0.0
210
0.0
220
0.0
230
1.0
  2
Izolacja_miękka_0002
 70
     0
 71
     1
 91
        1
 92
        2
 72
     0
 73
     1
 93
       10
 10
-2577.081573179496
 20
392.6537862094173
 10
-2577.081573179496
 20
693.0298699599422
 10
-2577.081573179496
 20
1150.000000000048
 10
-2715.952482005574
 20
1150.000000000048
 10
-2715.969729936126
 20
451.3931577318164
 10
-2848.409031218831
 20
317.7440172498574
 10
-2848.409031218831
 20
50.00000000004834
 10
-2705.972539759119
 20
50.00000000004834
 10
-2705.972539759119
 20
262.5853946336845
 10
-2635.972628597392
 20
333.9853550202441
 97
        1
330
1AF
 75
     0
 76
     2
 52
0.0
 41
1.0
 77
     0
 78
     2
 53
60.00000000000001
 43
0.0
 44
0.0
 45
-12.99038105676658
 46
7.499999999999996
 79
     0
 53
120.0
 43
0.0
 44
0.0
 45
12.99038105676657
 46
7.500000000000008
 79
     0
 98
        0
  0
LWPOLYLINE
  5
1AF
102
{ACAD_REACTORS
330
1AE
102
}
330
1F
100
AcDbEntity
  8
@__WIDOCZNE
  6
Continuous
370
    25
100
AcDbPolyline
 90
       10
 70
   129
 43
0.0
 10
-2577.081573179496
 20
392.6537862094173
 10
-2577.081573179496
 20
693.0298699599422
 10
-2577.081573179496
 20
1150.000000000048
 10
-2715.952482005574
 20
1150.000000000048
 10
-2715.969729936126
 20
451.3931577318164
 10
-2848.409031218831
 20
317.7440172498574
 10
-2848.409031218831
 20
50.00000000004834
 10
-2705.972539759119
 20
50.00000000004834
 10
-2705.972539759119
 20
262.5853946336845
 10
-2635.972628597392
 20
333.9853550202441
  0
LINE
  5
1B0
330
1F
100
AcDbEntity
  8
0
  6
Continuous
370
    13
100
AcDbLine
 10
-100.0000000000001
 20
170.0000000000481
 30
0.0
 11
-100.0000000000001
 21
-49.99999999995164
 31
0.0
  0
LINE
  5
1B1
330
1F
100
AcDbEntity
  8
0
  6
Continuous
370
    13
100
AcDbLine
 10
-1900.000000000001
 20
-49.99999999995253
 30
0.0
 11
-100.0000000000001
 21
-49.99999999995253
 31
0.0
  0
LINE
  5
1B2
330
1F
100
AcDbEntity
  8
0
  6
Continuous
370
    13
100
AcDbLine
 10
-2705.972539759119
 20
200.9515051020887
 30
0.0
 11
-2705.972539759119
 21
262.5853946336845
 31
0.0
  0
LINE
  5
1B3
330
1F
100
AcDbEntity
  8
0
  6
Continuous
370
    13
100
AcDbLine
 10
-2705.972539759119
 20
170.8801301766335
 30
0.0
 11
-2697.972539759116
 21
170.8801301766335
 31
0.0
  0
LINE
  5
1B4
330
1F
100
AcDbEntity
  8
0
  6
Continuous
370
    13
100
AcDbLine
 10
-2705.972539759119
 20
262.5853946336845
 30
0.0
 11
-2575.972539759115
 21
392.5853946336853
 31
0.0
  0
LINE
  5
1B5
330
1F
100
AcDbEntity
  8
0
  6
Continuous
370
    35
100
AcDbLine
 10
-2743.972539759114
 20
800.000000000048
 30
0.0
 11
-2723.972539759114
 21
800.000000000048
 31
0.0
  0
LINE
  5
1B6
330
1F
100
AcDbEntity
  8
0
  6
Continuous
370
    35
100
AcDbLine
 10
-2743.972539759114
 20
970.0000000000484
 30
0.0
 11
-2723.972539759114
 21
970.0000000000484
 31
0.0
  0
LINE
  5
1B7
330
1F
100
AcDbEntity
  8
0
  6
Continuous
370
    35
100
AcDbLine
 10
-2823.730029924415
 20
0.0000000000482947
 30
0.0
 11
-2898.639089504011
 21
73.65137991486067
 31
0.0
  0
LINE
  5
1B8
330
1F
100
AcDbEntity
  8
0
  6
Continuous
370
    50
100
AcDbLine
 10
-2767.972539759115
 20
1714.998421549177
 30
0.0
 11
-2767.972539759115
 21
1150.000000000048
 31
0.0
  0
LINE
  5
1B9
330
1F
100
AcDbEntity
  8
0
  6
Continuous
370
    50
100
AcDbLine
 10
-2687.972539759115
 20
1152.470577044114
 30
0.0
 11
-2327.972539759115
 21
1152.470577044114
 31
0.0
  0
LINE
  5
1BA
330
1F
100
AcDbEntity
  8
0
  6
Continuous
370
    50
100
AcDbLine
 10
-2697.972539759116
 20
50.00000000004834
 30
0.0
 11
-2197.972539759116
 21
50.00000000004834
 31
0.0
  0
LINE
  5
1BB
330
1F
100
AcDbEntity
  8
0
  6
Continuous
370
    50
100
AcDbLine
 10
-2697.972539759116
 20
259.2716861346991
 30
0.0
 11
-2697.972539759116
 21
50.00000000004834
 31
0.0
  0
LINE
  5
1BC
330
1F
100
AcDbEntity
  8
0
  6
Continuous
370
    50
100
AcDbLine
 10
-2697.972539759116
 20
50.00000000004834
 30
0.0
 11
-2747.972539759115
 21
0.0000000000482947
 31
0.0
  0
LINE
  5
1BD
330
1F
100
AcDbEntity
  8
0
  6
Continuous
370
    50
100
AcDbLine
 10
-2197.972539759116
 20
50.00000000004834
 30
0.0
 11
-2147.972539759116
 21
0.0000000000482947
 31
0.0
  0
LINE
  5
1BE
330
1F
100
AcDbEntity
  8
0
  6
Continuous
370
    50
100
AcDbLine
 10
-2747.972539759117
 20
0.0000000000482947
 30
0.0
 11
-2147.972539759116
 21
0.0000000000482947
 31
0.0
  0
LINE
  5
1BF
330
1F
100
AcDbEntity
  8
0
  6
Continuous
370
    35
100
AcDbLine
 10
-2823.730029924415
 20
0.0000000000482947
 30
0.0
 11
-2747.972539759117
 21
0.0000000000482947
 31
0.0
  0
LINE
  5
1C0
330
1F
100
AcDbEntity
  8
0
  6
Continuous
370
    35
100
AcDbLine
 10
-2297.972539759116
 20
994.561754775241
 30
0.0
 11
-2282.972539759115
 21
994.561754775241
 31
0.0
  0
LINE
  5
1C1
330
1F
100
AcDbEntity
  8
0
  6
Continuous
370
    50
100
AcDbLine
 10
-2282.972539759115
 20
869.561754775241
 30
0.0
 11
-2282.972539759115
 21
1714.998421549177
 31
0.0
  0
LINE
  5
1C2
330
1F
100
AcDbEntity
  8
0
  6
Continuous
370
    35
100
AcDbLine
 10
-2297.972539759116
 20
869.561754775241
 30
0.0
 11
-2282.972539759115
 21
869.561754775241
 31
0.0
  0
LINE
  5
1C3
330
1F
100
AcDbEntity
  8
0
  6
Continuous
370
    35
100
AcDbLine
 10
-2262.972539759116
 20
849.561754775241
 30
0.0
 11
-2262.972539759116
 21
834.561754775241
 31
0.0
  0
LINE
  5
1C4
330
1F
100
AcDbEntity
  8
0
  6
Continuous
370
    35
100
AcDbLine
 10
-2297.972539759116
 20
1009.561754775241
 30
0.0
 11
-2282.972539759115
 21
1009.561754775241
 31
0.0
  0
LINE
  5
1C5
330
1F
100
AcDbEntity
  8
0
  6
Continuous
370
    35
100
AcDbLine
 10
-2297.972539759116
 20
1159.561754775241
 30
0.0
 11
-2282.972539759115
 21
1159.561754775241
 31
0.0
  0
LINE
  5
1C6
330
1F
100
AcDbEntity
  8
0
  6
Continuous
370
    35
100
AcDbLine
 10
-2297.972539759116
 20
1174.561754775241
 30
0.0
 11
-2282.972539759115
 21
1174.561754775241
 31
0.0
  0
LINE
  5
1C7
330
1F
100
AcDbEntity
  8
0
  6
Continuous
370
    35
100
AcDbLine
 10
-2297.972539759116
 20
1324.561754775241
 30
0.0
 11
-2282.972539759115
 21
1324.561754775241
 31
0.0
  0
LINE
  5
1C8
330
1F
100
AcDbEntity
  8
0
  6
Continuous
370
    35
100
AcDbLine
 10
-2297.972539759116
 20
1339.561754775241
 30
0.0
 11
-2282.972539759115
 21
1339.561754775241
 31
0.0
  0
LINE
  5
1C9
330
1F
100
AcDbEntity
  8
0
  6
Continuous
370
    35
100
AcDbLine
 10
-2297.972539759116
 20
1489.561754775241
 30
0.0
 11
-2282.972539759115
 21
1489.561754775241
 31
0.0
  0
LINE
  5
1CA
330
1F
100
AcDbEntity
  8
0
  6
Continuous
370
    35
100
AcDbLine
 10
-2297.972539759116
 20
1504.561754775241
 30
0.0
 11
-2282.972539759115
 21
1504.561754775241
 31
0.0
  0
LINE
  5
1CB
330
1F
100
AcDbEntity
  8
0
  6
Continuous
370
    35
100
AcDbLine
 10
-2297.972539759116
 20
1654.561754775241
 30
0.0
 11
-2282.972539759115
 21
1654.561754775241
 31
0.0
  0
LINE
  5
1CC
330
1F
100
AcDbEntity
  8
0
  6
Continuous
370
    35
100
AcDbLine
 10
-2297.972539759116
 20
1669.561754775241
 30
0.0
 11
-2282.972539759115
 21
1669.561754775241
 31
0.0
  0
LINE
  5
1CF
330
1F
100
AcDbEntity
  8
Linia Izolacji - ARCHICAD
  6
IZOLACJA GRUBA
370
    35
100
AcDbLine
 10
-2272.385828772365
 20
633.0000000000484
 30
0.0
 11
-2289.972539759116
 21
633.0000000000484
 31
0.0
  0
LINE
  5
1D1
330
1F
100
AcDbEntity
  8
0
  6
Continuous
370
    13
100
AcDbLine
 10
-2281.972539759116
 20
805.0000000000483
 30
0.0
 11
-2281.972539759116
 21
641.0000000000484
 31
0.0
  0
LINE
  5
1D2
330
1F
100
AcDbEntity
  8
0
  6
Continuous
370
    35
100
AcDbLine
 10
-2327.972539759115
 20
1700.000000000049
 30
0.0
 11
-2327.972539759115
 21
525.0000000000483
 31
0.0
  0
LINE
  5
1D3
330
1F
100
AcDbEntity
  8
0
  6
Continuous
370
    50
100
AcDbLine
 10
-2697.972539759116
 20
259.2716861346989
 30
0.0
 11
-2657.244225893767
 21
300.0000000000477
 31
0.0
  0
LINE
  5
1D4
330
1F
100
AcDbEntity
  8
0
  6
Continuous
370
    35
100
AcDbLine
 10
-2657.244225893767
 20
300.0000000000477
 30
0.0
 11
-2567.972539759116
 21
389.2716861346961
 31
0.0
  0
LINE
  5
1D5
330
1F
100
AcDbEntity
  8
0
  6
Continuous
370
    50
100
AcDbLine
 10
-2567.972539759116
 20
1714.998421549177
 30
0.0
 11
-2567.972539759116
 21
308.0000000000484
 31
0.0
  0
LINE
  5
1D7
330
1F
100
AcDbEntity
  8
Linia Izolacji - ARCHICAD
  6
IZOLACJA CIENKA
370
    35
100
AcDbLine
 10
-2567.972539759116
 20
1146.000000000048
 30
0.0
 11
-2327.972539759115
 21
1146.000000000048
 31
0.0
  0
LINE
  5
1D8
330
1F
100
AcDbEntity
  8
0
  6
Continuous
370
    50
100
AcDbLine
 10
-2327.972539759115
 20
525.0000000000483
 30
0.0
 11
-2327.972539759115
 21
308.0000000000484
 31
0.0
  0
LINE
  5
1D9
330
1F
100
AcDbEntity
  8
0
  6
Continuous
370
    35
100
AcDbLine
 10
-2567.972539759116
 20
1142.000000000048
 30
0.0
 11
-2327.972539759115
 21
1142.000000000048
 31
0.0
  0
LINE
  5
1DA
330
1F
100
AcDbEntity
  8
0
  6
Continuous
370
    35
100
AcDbLine
 10
-2743.972539759114
 20
980.0000000000484
 30
0.0
 11
-2723.972539759114
 21
980.0000000000484
 31
0.0
  0
LINE
  5
1DB
330
1F
100
AcDbEntity
  8
0
  6
Continuous
370
    35
100
AcDbLine
 10
-2715.972539759115
 20
700.0000000000479
 30
0.0
 11
-2723.972539759116
 21
700.0000000000479
 31
0.0
  0
LINE
  5
1DC
330
1F
100
AcDbEntity
  8
0
  6
Continuous
370
    35
100
AcDbLine
 10
-2723.972539759116
 20
1150.000000000048
 30
0.0
 11
-2723.972539759116
 21
700.0000000000483
 31
0.0
  0
LINE
  5
1DD
330
1F
100
AcDbEntity
  8
0
  6
Continuous
370
    35
100
AcDbLine
 10
-2567.972539759116
 20
308.0000000000484
 30
0.0
 11
-2327.972539759115
 21
308.0000000000484
 31
0.0
  0
LINE
  5
1DE
330
1F
100
AcDbEntity
  8
0
  6
Continuous
370
    50
100
AcDbLine
 10
-2575.972539759115
 20
1150.000000000048
 30
0.0
 11
-2575.972539759115
 21
392.5853946336853
 31
0.0
  0
LINE
  5
1DF
330
1F
100
AcDbEntity
  8
Linia Izolacji - ARCHICAD
  6
IZOLACJA CIENKA
370
    35
100
AcDbLine
 10
-2193.972539759116
 20
200.9515051020887
 30
0.0
 11
-2193.972539759116
 21
258.9700665061708
 31
0.0
  0
LINE
  5
1E0
330
1F
100
AcDbEntity
  8
0
  6
Continuous
370
    50
100
AcDbLine
 10
-2197.972539759116
 20
259.2716861346991
 30
0.0
 11
-2238.700853624467
 21
300.0000000000483
 31
0.0
  0
LINE
  5
1E1
330
1F
100
AcDbEntity
  8
0
  6
Continuous
370
    50
100
AcDbLine
 10
-2197.972539759116
 20
50.00000000004834
 30
0.0
 11
-2197.972539759116
 21
259.2716861346991
 31
0.0
  0
LINE
  5
1E2
330
1F
100
AcDbEntity
  8
Linia Izolacji - ARCHICAD
  6
IZOLACJA CIENKA
370
    35
100
AcDbLine
 10
-2237.043999374972
 20
304.0000000000483
 30
0.0
 11
-2660.985325109021
 21
304.0000000000483
 31
0.0
  0
LINE
  5
1E3
330
1F
100
AcDbEntity
  8
Linia Izolacji - ARCHICAD
  6
IZOLACJA CIENKA
370
    35
100
AcDbLine
 10
-2195.144112634369
 20
262.1001132594449
 30
0.0
 11
-2237.043999374972
 21
304.0000000000479
 31
0.0
  0
LINE
  5
1E4
330
1F
100
AcDbEntity
  8
Linia Izolacji - ARCHICAD
  6
IZOLACJA GRUBA
370
    35
100
AcDbLine
 10
-2319.972539759114
 20
843.0000000000484
 30
0.0
 11
-2319.972539759114
 21
1711.998421549177
 31
0.0
  0
LINE
  5
1E5
330
1F
100
AcDbEntity
  8
Linia Izolacji - ARCHICAD
  6
IZOLACJA GRUBA
370
    35
100
AcDbLine
 10
-2319.972539759116
 20
690.8903562009679
 30
0.0
 11
-2319.972539759116
 21
805.0000000000483
 31
0.0
  0
LINE
  5
1E6
330
1F
100
AcDbEntity
  8
0
  6
Continuous
370
     0
100
AcDbLine
 10
-2767.972539759115
 20
1150.000000000048
 30
0.0
 11
-2767.972539759115
 21
1120.000000000048
 31
0.0
  0
LINE
  5
1E7
330
1F
100
AcDbEntity
  8
0
  6
Continuous
370
     0
100
AcDbLine
 10
-2767.972539759115
 20
1150.000000000048
 30
0.0
 11
-2567.972539759116
 21
1150.000000000048
 31
0.0
  0
LINE
  5
1E8
330
1F
100
AcDbEntity
  8
0
  6
Continuous
370
     0
100
AcDbLine
 10
-2567.972539759116
 20
1150.000000000048
 30
0.0
 11
-2567.972539759116
 21
1210.000000000048
 31
0.0
  0
LINE
  5
1E9
330
1F
100
AcDbEntity
  8
0
  6
Continuous
370
    13
100
AcDbLine
 10
-337.6390895040119
 20
879.5617547752408
 30
0.0
 11
-317.6390895040105
 21
879.5617547752408
 31
0.0
  0
LINE
  5
1EA
330
1F
100
AcDbEntity
  8
0
  6
Continuous
370
    13
100
AcDbLine
 10
-297.6390895040092
 20
879.5617547752408
 30
0.0
 11
-317.6390895040105
 21
879.5617547752408
 31
0.0
  0
LINE
  5
1EB
330
1F
100
AcDbEntity
  8
0
  6
Continuous
370
    35
100
AcDbLine
 10
-167.639089504012
 20
805.0000000000481
 30
0.0
 11
-297.6390895040092
 21
805.0000000000481
 31
0.0
  0
LINE
  5
1EC
330
1F
100
AcDbEntity
  8
0
  6
Continuous
370
    50
100
AcDbLine
 10
-167.639089504012
 20
849.5617547752407
 30
0.0
 11
-297.6390895040092
 21
849.5617547752407
 31
0.0
  0
LINE
  5
1ED
330
1F
100
AcDbEntity
  8
0
  6
Continuous
370
    35
100
AcDbLine
 10
-297.6390895040092
 20
834.5617547752407
 30
0.0
 11
-167.639089504012
 21
834.5617547752407
 31
0.0
  0
LINE
  5
1EE
330
1F
100
AcDbEntity
  8
0
  6
Continuous
370
    13
100
AcDbLine
 10
-337.6390895040119
 20
863.022931443772
 30
0.0
 11
-357.6390895040115
 21
863.022931443772
 31
0.0
  0
LINE
  5
1EF
330
1F
100
AcDbEntity
  8
0
  6
Continuous
370
    13
100
AcDbLine
 10
-297.6390895040092
 20
863.022931443772
 30
0.0
 11
-277.6390895040096
 21
863.022931443772
 31
0.0
  0
LINE
  5
1F0
330
1F
100
AcDbEntity
  8
0
  6
Continuous
370
    13
100
AcDbLine
 10
-357.6390895040115
 20
863.022931443772
 30
0.0
 11
-357.6390895040115
 21
899.5617547752408
 31
0.0
  0
LINE
  5
1F1
330
1F
100
AcDbEntity
  8
0
  6
Continuous
370
    13
100
AcDbLine
 10
-337.6390895040119
 20
805.0000000000481
 30
0.0
 11
-337.6390895040119
 21
899.5617547752408
 31
0.0
  0
LINE
  5
1F2
330
1F
100
AcDbEntity
  8
0
  6
Continuous
370
    13
100
AcDbLine
 10
-297.6390895040092
 20
805.0000000000481
 30
0.0
 11
-297.6390895040092
 21
899.5617547752408
 31
0.0
  0
LINE
  5
1F3
330
1F
100
AcDbEntity
  8
0
  6
Continuous
370
    13
100
AcDbLine
 10
-277.6390895040096
 20
863.022931443772
 30
0.0
 11
-277.6390895040096
 21
899.5617547752408
 31
0.0
  0
LINE
  5
1F4
330
1F
100
AcDbEntity
  8
0
  6
Continuous
370
    13
100
AcDbLine
 10
-467.6390895040091
 20
899.5617547752407
 30
0.0
 11
-317.6390895040105
 21
899.5617547752408
 31
0.0
  0
LINE
  5
1F5
330
1F
100
AcDbEntity
  8
0
  6
Continuous
370
    13
100
AcDbLine
 10
-167.639089504012
 20
899.5617547752408
 30
0.0
 11
-317.6390895040105
 21
899.5617547752408
 31
0.0
  0
LINE
  5
1F6
330
1F
100
AcDbEntity
  8
0
  6
Continuous
370
    13
100
AcDbLine
 10
-487.6390895040087
 20
949.5617547752407
 30
0.0
 11
-487.6390895040087
 21
1249.561754775241
 31
0.0
  0
LINE
  5
1F7
330
1F
100
AcDbEntity
  8
0
  6
Continuous
370
    13
100
AcDbLine
 10
-487.6390895040087
 20
949.5617547752407
 30
0.0
 11
-507.6390895040083
 21
949.5617547752407
 31
0.0
  0
LINE
  5
1F8
330
1F
100
AcDbEntity
  8
0
  6
Continuous
370
    13
100
AcDbLine
 10
-487.6390895040087
 20
1249.561754775241
 30
0.0
 11
-507.6390895040083
 21
1249.561754775241
 31
0.0
  0
LINE
  5
1F9
330
1F
100
AcDbEntity
  8
0
  6
Continuous
370
    13
100
AcDbLine
 10
-507.6390895040083
 20
949.5617547752407
 30
0.0
 11
-507.6390895040083
 21
1249.561754775241
 31
0.0
  0
LINE
  5
1FA
330
1F
100
AcDbEntity
  8
0
  6
Continuous
370
    13
100
AcDbLine
 10
-507.6390895040083
 20
949.5617547752407
 30
0.0
 11
-607.6390895040079
 21
928.1849267555306
 31
0.0
  0
LINE
  5
1FB
330
1F
100
AcDbEntity
  8
0
  6
Continuous
370
    13
100
AcDbLine
 10
-607.6390895040079
 20
928.1849267555306
 30
0.0
 11
-607.6390895040079
 21
1099.561754775241
 31
0.0
  0
LINE
  5
1FC
330
1F
100
AcDbEntity
  8
0
  6
Continuous
370
    13
100
AcDbLine
 10
-507.6390895040083
 20
1249.561754775241
 30
0.0
 11
-607.6390895040079
 21
1270.938582794951
 31
0.0
  0
LINE
  5
1FD
330
1F
100
AcDbEntity
  8
0
  6
Continuous
370
    13
100
AcDbLine
 10
-607.6390895040079
 20
1270.938582794951
 30
0.0
 11
-607.6390895040079
 21
1099.561754775241
 31
0.0
  0
LINE
  5
1FE
330
1F
100
AcDbEntity
  8
0
  6
Continuous
370
    13
100
AcDbLine
 10
-487.6390895040087
 20
1089.561754775241
 30
0.0
 11
-467.6390895040091
 21
1089.561754775241
 31
0.0
  0
LINE
  5
1FF
330
1F
100
AcDbEntity
  8
0
  6
Continuous
370
    13
100
AcDbLine
 10
-487.6390895040087
 20
1109.561754775241
 30
0.0
 11
-467.6390895040091
 21
1109.561754775241
 31
0.0
  0
LINE
  5
200
330
1F
100
AcDbEntity
  8
0
  6
Continuous
370
    13
100
AcDbLine
 10
-362.6390895040105
 20
1319.561754775241
 30
0.0
 11
-317.6390895040105
 21
1319.561754775241
 31
0.0
  0
LINE
  5
201
330
1F
100
AcDbEntity
  8
0
  6
Continuous
370
    13
100
AcDbLine
 10
-392.6390895040098
 20
1389.561754775241
 30
0.0
 11
-387.6390895040091
 21
1389.561754775241
 31
0.0
  0
LINE
  5
202
330
1F
100
AcDbEntity
  8
0
  6
Continuous
370
    13
100
AcDbLine
 10
-402.6390895040096
 20
1379.561754775241
 30
0.0
 11
-402.6390895040096
 21
1304.561754775241
 31
0.0
  0
LINE
  5
203
330
1F
100
AcDbEntity
  8
0
  6
Continuous
370
    13
100
AcDbLine
 10
-397.6390895040088
 20
1299.561754775241
 30
0.0
 11
-367.6390895040112
 21
1299.561754775241
 31
0.0
  0
LINE
  5
204
330
1F
100
AcDbEntity
  8
0
  6
Continuous
370
    13
100
AcDbLine
 10
-362.6390895040105
 20
1304.561754775241
 30
0.0
 11
-362.6390895040105
 21
1319.561754775241
 31
0.0
  0
LINE
  5
205
330
1F
100
AcDbEntity
  8
0
  6
Continuous
370
    13
100
AcDbLine
 10
-387.6390895040091
 20
1389.561754775241
 30
0.0
 11
-368.8359202983976
 21
1441.270470090674
 31
0.0
  0
LINE
  5
206
330
1F
100
AcDbEntity
  8
0
  6
Continuous
370
    13
100
AcDbLine
 10
-364.1369531809561
 20
1444.561754775241
 30
0.0
 11
-317.6390895040105
 21
1444.561754775241
 31
0.0
  0
LINE
  5
207
330
1F
100
AcDbEntity
  8
0
  6
Continuous
370
    13
100
AcDbLine
 10
-358.5335350640649
 20
1436.561754775239
 30
0.0
 11
-317.6390895040105
 21
1436.561754775239
 31
0.0
  0
LINE
  5
208
330
1F
100
AcDbEntity
  8
0
  6
Continuous
370
    13
100
AcDbLine
 10
-363.2325021815083
 20
1433.270470090673
 30
0.0
 11
-378.1851585901043
 21
1392.150664967037
 31
0.0
  0
LINE
  5
209
330
1F
100
AcDbEntity
  8
0
  6
Continuous
370
    13
100
AcDbLine
 10
-317.6390895040105
 20
1381.591242155421
 30
0.0
 11
-370.5076324918041
 21
1381.591242155421
 31
0.0
  0
LINE
  5
20A
330
1F
100
AcDbEntity
  8
0
  6
Continuous
370
    13
100
AcDbLine
 10
-374.4625601501616
 20
1383.532067884943
 30
0.0
 11
-377.4411191310238
 21
1387.382775381127
 31
0.0
  0
LINE
  5
20B
330
1F
100
AcDbEntity
  8
0
  6
Continuous
370
    13
100
AcDbLine
 10
-272.6390895040106
 20
1319.561754775241
 30
0.0
 11
-317.6390895040105
 21
1319.561754775241
 31
0.0
  0
LINE
  5
20C
330
1F
100
AcDbEntity
  8
0
  6
Continuous
370
    13
100
AcDbLine
 10
-242.6390895040113
 20
1389.561754775241
 30
0.0
 11
-247.639089504012
 21
1389.561754775241
 31
0.0
  0
LINE
  5
20D
330
1F
100
AcDbEntity
  8
0
  6
Continuous
370
    13
100
AcDbLine
 10
-232.6390895040115
 20
1379.561754775241
 30
0.0
 11
-232.6390895040115
 21
1304.561754775241
 31
0.0
  0
LINE
  5
20E
330
1F
100
AcDbEntity
  8
0
  6
Continuous
370
    13
100
AcDbLine
 10
-237.6390895040122
 20
1299.561754775241
 30
0.0
 11
-267.6390895040098
 21
1299.561754775241
 31
0.0
  0
LINE
  5
20F
330
1F
100
AcDbEntity
  8
0
  6
Continuous
370
    13
100
AcDbLine
 10
-272.6390895040106
 20
1304.561754775241
 30
0.0
 11
-272.6390895040106
 21
1319.561754775241
 31
0.0
  0
LINE
  5
210
330
1F
100
AcDbEntity
  8
0
  6
Continuous
370
    13
100
AcDbLine
 10
-247.639089504012
 20
1389.561754775241
 30
0.0
 11
-266.4422587096234
 21
1441.270470090674
 31
0.0
  0
LINE
  5
211
330
1F
100
AcDbEntity
  8
0
  6
Continuous
370
    13
100
AcDbLine
 10
-271.141225827065
 20
1444.561754775241
 30
0.0
 11
-317.6390895040105
 21
1444.561754775241
 31
0.0
  0
LINE
  5
212
330
1F
100
AcDbEntity
  8
0
  6
Continuous
370
    13
100
AcDbLine
 10
-276.7446439439561
 20
1436.561754775239
 30
0.0
 11
-317.6390895040105
 21
1436.561754775239
 31
0.0
  0
LINE
  5
213
330
1F
100
AcDbEntity
  8
0
  6
Continuous
370
    13
100
AcDbLine
 10
-272.0456768265128
 20
1433.270470090673
 30
0.0
 11
-257.0930204179168
 21
1392.150664967037
 31
0.0
  0
LINE
  5
214
330
1F
100
AcDbEntity
  8
0
  6
Continuous
370
    13
100
AcDbLine
 10
-317.6390895040105
 20
1381.591242155421
 30
0.0
 11
-264.770546516217
 21
1381.591242155421
 31
0.0
  0
LINE
  5
215
330
1F
100
AcDbEntity
  8
0
  6
Continuous
370
    13
100
AcDbLine
 10
-260.8156188578595
 20
1383.532067884943
 30
0.0
 11
-257.8370598769973
 21
1387.382775381127
 31
0.0
  0
LINE
  5
216
330
1F
100
AcDbEntity
  8
0
  6
Continuous
370
    13
100
AcDbLine
 10
-435.6390895040091
 20
1279.561754775241
 30
0.0
 11
-435.6390895040091
 21
1479.561754775241
 31
0.0
  0
LINE
  5
217
330
1F
100
AcDbEntity
  8
0
  6
Continuous
370
    13
100
AcDbLine
 10
-199.639089504012
 20
1279.561754775241
 30
0.0
 11
-199.639089504012
 21
1479.561754775241
 31
0.0
  0
LINE
  5
218
330
1F
100
AcDbEntity
  8
0
  6
Continuous
370
    13
100
AcDbLine
 10
-199.639089504012
 20
1279.561754775241
 30
0.0
 11
-435.6390895040091
 21
1279.561754775241
 31
0.0
  0
LINE
  5
219
330
1F
100
AcDbEntity
  8
0
  6
Continuous
370
    13
100
AcDbLine
 10
-199.639089504012
 20
1479.561754775241
 30
0.0
 11
-435.6390895040091
 21
1479.561754775241
 31
0.0
  0
LINE
  5
21A
330
1F
100
AcDbEntity
  8
0
  6
Continuous
370
    13
100
AcDbLine
 10
-392.6390895040116
 20
790.0000000000482
 30
0.0
 11
-317.6390895040105
 21
790.0000000000482
 31
0.0
  0
LINE
  5
21B
330
1F
100
AcDbEntity
  8
0
  6
Continuous
370
    13
100
AcDbLine
 10
-392.6390895040116
 20
790.0000000000482
 30
0.0
 11
-392.6390895040116
 21
805.0000000000481
 31
0.0
  0
LINE
  5
21C
330
1F
100
AcDbEntity
  8
0
  6
Continuous
370
    13
100
AcDbLine
 10
-242.6390895040095
 20
790.0000000000481
 30
0.0
 11
-317.6390895040105
 21
790.0000000000482
 31
0.0
  0
LINE
  5
21D
330
1F
100
AcDbEntity
  8
0
  6
Continuous
370
    13
100
AcDbLine
 10
-242.6390895040095
 20
790.0000000000481
 30
0.0
 11
-242.6390895040095
 21
805.0000000000481
 31
0.0
  0
LINE
  5
21E
330
1F
100
AcDbEntity
  8
0
  6
Continuous
370
    13
100
AcDbLine
 10
-467.6390895040091
 20
899.5617547752407
 30
0.0
 11
-467.6390895040091
 21
1714.998421549177
 31
0.0
  0
LINE
  5
21F
330
1F
100
AcDbEntity
  8
0
  6
Continuous
370
    13
100
AcDbLine
 10
-167.639089504012
 20
899.5617547752407
 30
0.0
 11
-167.639089504012
 21
1714.998421549177
 31
0.0
  0
LINE
  5
221
330
1F
100
AcDbEntity
  8
0
  6
Kreski i kropki
370
    13
100
AcDbLine
 10
-317.6390895040105
 20
766.58729986683
 30
0.0
 11
-317.8748130251976
 21
1733.867929660252
 31
0.0
  0
LINE
  5
222
330
1F
100
AcDbEntity
  8
0
  6
Continuous
370
    13
100
AcDbLine
 10
-1718.639089504009
 20
879.5617547752406
 30
0.0
 11
-1738.639089504011
 21
879.5617547752406
 31
0.0
  0
LINE
  5
223
330
1F
100
AcDbEntity
  8
0
  6
Continuous
370
    13
100
AcDbLine
 10
-1758.639089504012
 20
879.5617547752406
 30
0.0
 11
-1738.639089504011
 21
879.5617547752406
 31
0.0
  0
LINE
  5
224
330
1F
100
AcDbEntity
  8
0
  6
Continuous
370
    13
100
AcDbLine
 10
-1718.639089504009
 20
863.0229314437719
 30
0.0
 11
-1698.63908950401
 21
863.0229314437719
 31
0.0
  0
LINE
  5
225
330
1F
100
AcDbEntity
  8
0
  6
Continuous
370
    13
100
AcDbLine
 10
-1758.639089504012
 20
863.0229314437719
 30
0.0
 11
-1778.639089504012
 21
863.0229314437719
 31
0.0
  0
LINE
  5
226
330
1F
100
AcDbEntity
  8
0
  6
Continuous
370
    13
100
AcDbLine
 10
-1698.63908950401
 20
863.0229314437719
 30
0.0
 11
-1698.63908950401
 21
899.5617547752406
 31
0.0
  0
LINE
  5
227
330
1F
100
AcDbEntity
  8
0
  6
Continuous
370
    13
100
AcDbLine
 10
-1718.639089504009
 20
805.0000000000479
 30
0.0
 11
-1718.639089504009
 21
899.5617547752406
 31
0.0
  0
LINE
  5
228
330
1F
100
AcDbEntity
  8
0
  6
Continuous
370
    13
100
AcDbLine
 10
-1758.639089504012
 20
805.0000000000479
 30
0.0
 11
-1758.639089504012
 21
899.5617547752406
 31
0.0
  0
LINE
  5
229
330
1F
100
AcDbEntity
  8
0
  6
Continuous
370
    13
100
AcDbLine
 10
-1778.639089504012
 20
863.0229314437719
 30
0.0
 11
-1778.639089504012
 21
899.5617547752406
 31
0.0
  0
LINE
  5
22A
330
1F
100
AcDbEntity
  8
0
  6
Continuous
370
    13
100
AcDbLine
 10
-1588.639089504012
 20
899.5617547752406
 30
0.0
 11
-1738.639089504011
 21
899.5617547752406
 31
0.0
  0
LINE
  5
22B
330
1F
100
AcDbEntity
  8
0
  6
Continuous
370
    13
100
AcDbLine
 10
-1888.639089504009
 20
899.5617547752406
 30
0.0
 11
-1738.639089504011
 21
899.5617547752406
 31
0.0
  0
LINE
  5
22C
330
1F
100
AcDbEntity
  8
0
  6
Continuous
370
    13
100
AcDbLine
 10
-1568.639089504013
 20
949.5617547752406
 30
0.0
 11
-1548.639089504013
 21
949.5617547752406
 31
0.0
  0
LINE
  5
22D
330
1F
100
AcDbEntity
  8
0
  6
Continuous
370
    13
100
AcDbLine
 10
-1548.639089504013
 20
949.5617547752406
 30
0.0
 11
-1448.639089504014
 21
928.1849267555305
 31
0.0
  0
LINE
  5
22E
330
1F
100
AcDbEntity
  8
0
  6
Continuous
370
    13
100
AcDbLine
 10
-1663.63908950401
 20
790.000000000048
 30
0.0
 11
-1738.639089504011
 21
790.000000000048
 31
0.0
  0
LINE
  5
22F
330
1F
100
AcDbEntity
  8
0
  6
Continuous
370
    13
100
AcDbLine
 10
-1663.63908950401
 20
790.000000000048
 30
0.0
 11
-1663.63908950401
 21
805.0000000000479
 31
0.0
  0
LINE
  5
230
330
1F
100
AcDbEntity
  8
0
  6
Continuous
370
    13
100
AcDbLine
 10
-1813.639089504012
 20
790.000000000048
 30
0.0
 11
-1738.639089504011
 21
790.000000000048
 31
0.0
  0
LINE
  5
231
330
1F
100
AcDbEntity
  8
0
  6
Continuous
370
    13
100
AcDbLine
 10
-1813.639089504012
 20
790.000000000048
 30
0.0
 11
-1813.639089504012
 21
805.0000000000479
 31
0.0
  0
LINE
  5
232
330
1F
100
AcDbEntity
  8
0
  6
Continuous
370
    35
100
AcDbLine
 10
-1118.657686419832
 20
670.0000000000483
 30
0.0
 11
-958.6576864198322
 21
670.0000000000483
 31
0.0
  0
LINE
  5
233
330
1F
100
AcDbEntity
  8
0
  6
Continuous
370
    35
100
AcDbLine
 10
-1218.657686419832
 20
625.0000000000484
 30
0.0
 11
-1163.657686419832
 21
570.0000000000483
 31
0.0
  0
LINE
  5
234
330
1F
100
AcDbEntity
  8
0
  6
Continuous
370
    35
100
AcDbLine
 10
-858.6576864198325
 20
625.0000000000482
 30
0.0
 11
-913.6576864198322
 21
570.0000000000482
 31
0.0
  0
LINE
  5
235
330
1F
100
AcDbEntity
  8
0
  6
Continuous
370
    35
100
AcDbLine
 10
-913.6576864198322
 20
570.0000000000482
 30
0.0
 11
-1163.657686419832
 21
570.0000000000483
 31
0.0
  0
LINE
  5
236
330
1F
100
AcDbEntity
  8
0
  6
Continuous
370
    35
100
AcDbLine
 10
-1134.657686419832
 20
805.0000000000483
 30
0.0
 11
-1134.657686419832
 21
654.0000000000483
 31
0.0
  0
LINE
  5
237
330
1F
100
AcDbEntity
  8
0
  6
Continuous
370
    35
100
AcDbLine
 10
-942.6204925881909
 20
805.0000000000483
 30
0.0
 11
-942.6204925881909
 21
654.0000000000483
 31
0.0
  0
LINE
  5
238
330
1F
100
AcDbEntity
  8
0
  6
Continuous
370
    35
100
AcDbLine
 10
-1134.657686419832
 20
654.0000000000483
 30
0.0
 11
-942.6204925881909
 21
654.0000000000483
 31
0.0
  0
LINE
  5
239
330
1F
100
AcDbEntity
  8
Linia Izolacji - ARCHICAD
  6
IZOLACJA GRUBA
370
    35
100
AcDbLine
 10
-1126.657686419831
 20
654.0000000000483
 30
0.0
 11
-1126.657686419831
 21
805.0000000000483
 31
0.0
  0
LINE
  5
23A
330
1F
100
AcDbEntity
  8
Linia Izolacji - ARCHICAD
  6
IZOLACJA GRUBA
370
    35
100
AcDbLine
 10
-950.6204925881918
 20
654.0000000000483
 30
0.0
 11
-950.6204925881918
 21
805.0000000000483
 31
0.0
  0
LINE
  5
23B
330
1F
100
AcDbEntity
  8
Linia Izolacji - ARCHICAD
  6
IZOLACJA GRUBA
370
    35
100
AcDbLine
 10
-1215.343977920846
 20
633.0000000000484
 30
0.0
 11
-1160.343977920846
 21
578.0000000000483
 31
0.0
  0
LINE
  5
23C
330
1F
100
AcDbEntity
  8
Linia Izolacji - ARCHICAD
  6
IZOLACJA GRUBA
370
    35
100
AcDbLine
 10
-1160.343977920846
 20
578.0000000000483
 30
0.0
 11
-916.9713949188165
 21
578.0000000000482
 31
0.0
  0
LINE
  5
23D
330
1F
100
AcDbEntity
  8
Linia Izolacji - ARCHICAD
  6
IZOLACJA GRUBA
370
    35
100
AcDbLine
 10
-861.9713949188133
 20
633.0000000000483
 30
0.0
 11
-916.9713949188165
 21
578.0000000000499
 31
0.0
  0
LINE
  5
23E
330
1F
100
AcDbEntity
  8
0
  6
Continuous
370
    50
100
AcDbLine
 10
-808.6576864198319
 20
525.0000000000484
 30
0.0
 11
-808.6576864198319
 21
470.0000000000482
 31
0.0
  0
LINE
  5
23F
330
1F
100
AcDbEntity
  8
0
  6
Continuous
370
    50
100
AcDbLine
 10
-1268.657686419833
 20
470.0000000000482
 30
0.0
 11
-808.6576864198319
 21
470.0000000000482
 31
0.0
  0
LINE
  5
240
330
1F
100
AcDbEntity
  8
0
  6
Continuous
370
    50
100
AcDbLine
 10
-1268.657686419833
 20
525.0000000000484
 30
0.0
 11
-1268.657686419833
 21
470.0000000000482
 31
0.0
  0
LINE
  5
241
330
1F
100
AcDbEntity
  8
0
  6
Continuous
370
    35
100
AcDbLine
 10
-1088.639089504012
 20
834.5617547752407
 30
0.0
 11
-1088.639089504012
 21
750.0000000000472
 31
0.0
  0
LINE
  5
242
330
1F
100
AcDbEntity
  8
0
  6
Continuous
370
    35
100
AcDbLine
 10
-988.6390895040126
 20
834.5617547752407
 30
0.0
 11
-988.6390895040126
 21
750.0000000000472
 31
0.0
  0
LINE
  5
243
330
1F
100
AcDbEntity
  8
0
  6
Continuous
370
    35
100
AcDbLine
 10
-1103.657686419832
 20
710.0000000000482
 30
0.0
 11
-1103.657686419832
 21
690.0000000000483
 31
0.0
  0
LINE
  5
244
330
1F
100
AcDbEntity
  8
0
  6
Continuous
370
    35
100
AcDbLine
 10
-973.6204925881915
 20
710.0000000000482
 30
0.0
 11
-973.6204925881915
 21
690.0000000000482
 31
0.0
  0
LINE
  5
245
330
1F
100
AcDbEntity
  8
0
  6
Continuous
370
    35
100
AcDbLine
 10
-1118.657686419832
 20
690.0000000000483
 30
0.0
 11
-1103.657686419832
 21
690.0000000000483
 31
0.0
  0
LINE
  5
246
330
1F
100
AcDbEntity
  8
0
  6
Continuous
370
    35
100
AcDbLine
 10
-973.6204925881915
 20
690.0000000000482
 30
0.0
 11
-958.6576864198322
 21
690.0000000000482
 31
0.0
  0
LINE
  5
247
330
1F
100
AcDbEntity
  8
0
  6
Continuous
370
    35
100
AcDbLine
 10
-1118.657686419832
 20
730.0000000000483
 30
0.0
 11
-1103.657686419832
 21
710.0000000000482
 31
0.0
  0
LINE
  5
248
330
1F
100
AcDbEntity
  8
0
  6
Continuous
370
    35
100
AcDbLine
 10
-958.6204925881909
 20
730.0000000000483
 30
0.0
 11
-973.6204925881915
 21
710.0000000000482
 31
0.0
  0
LINE
  5
249
330
1F
100
AcDbEntity
  8
0
  6
Continuous
370
    35
100
AcDbLine
 10
-1118.657686419832
 20
849.5617547752408
 30
0.0
 11
-1118.657686419832
 21
670.0000000000483
 31
0.0
  0
LINE
  5
24A
330
1F
100
AcDbEntity
  8
0
  6
Continuous
370
    35
100
AcDbLine
 10
-958.6576864198322
 20
849.5617547752408
 30
0.0
 11
-958.6576864198322
 21
670.0000000000483
 31
0.0
  0
LINE
  5
24B
330
1F
100
AcDbEntity
  8
0
  6
Continuous
370
    35
100
AcDbLine
 10
-1103.639089504013
 20
834.5617547752407
 30
0.0
 11
-1103.639089504013
 21
849.5617547752407
 31
0.0
  0
LINE
  5
24C
330
1F
100
AcDbEntity
  8
0
  6
Continuous
370
    35
100
AcDbLine
 10
-973.6390895040104
 20
834.5617547752407
 30
0.0
 11
-973.6390895040104
 21
849.5617547752407
 31
0.0
  0
LINE
  5
24D
330
1F
100
AcDbEntity
  8
0
  6
Continuous
370
    35
100
AcDbLine
 10
-1133.657686419833
 20
849.5617547752408
 30
0.0
 11
-1133.657686419833
 21
834.5617547752408
 31
0.0
  0
LINE
  5
24E
330
1F
100
AcDbEntity
  8
0
  6
Continuous
370
    35
100
AcDbLine
 10
-1103.639089504013
 20
834.5617547752407
 30
0.0
 11
-973.6390895040104
 21
834.5617547752407
 31
0.0
  0
LINE
  5
24F
330
1F
100
AcDbEntity
  8
0
  6
Continuous
370
    35
100
AcDbLine
 10
-943.6390895040074
 20
849.561754775241
 30
0.0
 11
-943.6390895040074
 21
834.5617547752408
 31
0.0
  0
LINE
  5
250
330
1F
100
AcDbEntity
  8
0
  6
Continuous
370
    35
100
AcDbLine
 10
-1212.030269421864
 20
641.0000000000484
 30
0.0
 11
-1157.030269421862
 21
586.0000000000483
 31
0.0
  0
LINE
  5
251
330
1F
100
AcDbEntity
  8
0
  6
Continuous
370
    35
100
AcDbLine
 10
-1157.030269421862
 20
586.0000000000483
 30
0.0
 11
-920.2851034178008
 21
586.0000000000482
 31
0.0
  0
LINE
  5
252
330
1F
100
AcDbEntity
  8
0
  6
Continuous
370
    35
100
AcDbLine
 10
-920.2851034178008
 20
586.0000000000482
 30
0.0
 11
-865.2851034177993
 21
641.0000000000482
 31
0.0
  0
LINE
  5
253
330
1F
100
AcDbEntity
  8
Linia Izolacji - ARCHICAD
  6
IZOLACJA GRUBA
370
    35
100
AcDbLine
 10
-1038.639089504012
 20
662.0000000000483
 30
0.0
 11
-1118.657686419832
 21
662.0000000000483
 31
0.0
  0
LINE
  5
254
330
1F
100
AcDbEntity
  8
Linia Izolacji - ARCHICAD
  6
IZOLACJA GRUBA
370
    35
100
AcDbLine
 10
-1038.639089504012
 20
662.0000000000483
 30
0.0
 11
-958.6576864198322
 21
662.0000000000483
 31
0.0
  0
LINE
  5
255
330
1F
100
AcDbEntity
  8
0
  6
Continuous
370
    13
100
AcDbLine
 10
-2154.320031597701
 20
877.8976672051153
 30
0.0
 11
-2214.169203016925
 21
816.5781724772714
 31
0.0
  0
CIRCLE
  5
256
330
1F
100
AcDbEntity
  8
0
  6
Continuous
370
    13
100
AcDbCircle
 10
-2217.661577813999
 20
813.0000000000483
 30
0.0
 40
5.0
  0
HATCH
  5
257
330
1F
100
AcDbEntity
  8
0
  6
Continuous
370
    13
100
AcDbHatch
 10
0.0
 20
0.0
 30
0.0
210
0.0
220
0.0
230
1.0
  2
SOLID
 70
     1
 71
     0
 91
        1
 92
        2
 72
     0
 73
     1
 93
       16
 10
-2212.661577813999
 20
813.0000000000483
 10
-2213.042180151443
 20
814.9134171618738
 10
-2214.126043908067
 20
816.5355339059811
 10
-2215.748160652174
 20
817.6193976626048
 10
-2217.661577813999
 20
818.0000000000483
 10
-2219.574994975825
 20
817.6193976626048
 10
-2221.197111719932
 20
816.5355339059811
 10
-2222.280975476556
 20
814.9134171618738
 10
-2222.661577813999
 20
813.0000000000483
 10
-2222.280975476556
 20
811.0865828382229
 10
-2221.197111719932
 20
809.4644660941156
 10
-2219.574994975825
 20
808.3806023374918
 10
-2217.661577813999
 20
808.0000000000483
 10
-2215.748160652174
 20
808.3806023374918
 10
-2214.126043908067
 20
809.4644660941156
 10
-2213.042180151443
 20
811.0865828382229
 97
        0
 75
     0
 76
     1
 98
        0
  0
LINE
  5
258
330
1F
100
AcDbEntity
  8
0
  6
Continuous
370
    50
100
AcDbLine
 10
-2232.972539759115
 20
1366.011127326111
 30
0.0
 11
-2388.308218150235
 21
1366.011127326111
 31
0.0
  0
LINE
  5
259
330
1F
100
AcDbEntity
  8
0
  6
Continuous
370
    50
100
AcDbLine
 10
-2232.972539759115
 20
1366.011127326111
 30
0.0
 11
-2232.972539759115
 21
1714.998421549177
 31
0.0
  0
LINE
  5
25A
330
1F
100
AcDbEntity
  8
0
  6
Continuous
370
    50
100
AcDbLine
 10
-1758.639089504012
 20
849.561754775241
 30
0.0
 11
-2262.972539759116
 21
849.561754775241
 31
0.0
  0
LINE
  5
25B
330
1F
100
AcDbEntity
  8
Linia Izolacji - ARCHICAD
  6
IZOLACJA GRUBA
370
    35
100
AcDbLine
 10
-1758.639089504012
 20
813.0000000000483
 30
0.0
 11
-2289.972539759115
 21
813.0000000000483
 31
0.0
  0
LINE
  5
25C
330
1F
100
AcDbEntity
  8
0
  6
Continuous
370
    35
100
AcDbLine
 10
-1758.639089504012
 20
805.0000000000483
 30
0.0
 11
-2327.972539759115
 21
805.0000000000483
 31
0.0
  0
LINE
  5
25D
330
1F
100
AcDbEntity
  8
0
  6
Continuous
370
    35
100
AcDbLine
 10
-778.6390895040065
 20
849.561754775241
 30
0.0
 11
-778.6390895040065
 21
834.5617547752408
 31
0.0
  0
LINE
  5
25E
330
1F
100
AcDbEntity
  8
0
  6
Continuous
370
    35
100
AcDbLine
 10
-793.6390895040071
 20
849.561754775241
 30
0.0
 11
-793.6390895040071
 21
834.5617547752408
 31
0.0
  0
LINE
  5
25F
330
1F
100
AcDbEntity
  8
0
  6
Continuous
370
    13
100
AcDbLine
 10
-1156.112681571312
 20
869.0807818181125
 30
0.0
 11
-1221.985163712127
 21
897.5393903406431
 31
0.0
  0
LINE
  5
260
330
1F
100
AcDbEntity
  8
0
  6
Continuous
370
    13
100
AcDbLine
 10
-1156.112681571312
 20
869.0807818181125
 30
0.0
 11
-1325.332057222118
 21
869.0807818181128
 31
0.0
  0
LINE
  5
261
330
1F
100
AcDbEntity
  8
0
  6
Continuous
370
    13
100
AcDbLine
 10
-921.1654974367111
 20
869.0807818181125
 30
0.0
 11
-855.2930152958962
 21
897.5393903406431
 31
0.0
  0
LINE
  5
262
330
1F
100
AcDbEntity
  8
0
  6
Continuous
370
    13
100
AcDbLine
 10
-921.1654974367111
 20
869.0807818181125
 30
0.0
 11
-751.9461217859047
 21
869.0807818181128
 31
0.0
  0
LINE
  5
263
330
1F
100
AcDbEntity
  8
0
  6
Continuous
370
    35
100
AcDbLine
 10
-1378.639089504012
 20
375.0000000000484
 30
0.0
 11
-2327.972539759115
 21
375.0000000000484
 31
0.0
  0
LINE
  5
264
330
1F
100
AcDbEntity
  8
0
  6
Continuous
370
    50
100
AcDbLine
 10
-1378.639089504012
 20
525.0000000000484
 30
0.0
 11
-2327.972539759115
 21
525.0000000000484
 31
0.0
  0
LINE
  5
265
330
1F
100
AcDbEntity
  8
0
  6
Continuous
370
    35
100
AcDbLine
 10
-1378.639089504012
 20
625.0000000000484
 30
0.0
 11
-2327.972539759115
 21
625.0000000000484
 31
0.0
  0
LINE
  5
266
330
1F
100
AcDbEntity
  8
Linia Izolacji - ARCHICAD
  6
IZOLACJA GRUBA
370
    35
100
AcDbLine
 10
-1378.639089504012
 20
633.0000000000484
 30
0.0
 11
-2289.972539759116
 21
633.0000000000484
 31
0.0
  0
LINE
  5
267
330
1F
100
AcDbEntity
  8
0
  6
Continuous
370
    35
100
AcDbLine
 10
-2281.972539759116
 20
641.0000000000484
 30
0.0
 11
-1378.639089504012
 21
641.0000000000484
 31
0.0
  0
LINE
  5
268
330
1F
100
AcDbEntity
  8
0
  6
Continuous
370
    35
100
AcDbLine
 10
-1378.639089504012
 20
805.0000000000483
 30
0.0
 11
-1718.639089504009
 21
805.0000000000483
 31
0.0
  0
LINE
  5
269
330
1F
100
AcDbEntity
  8
0
  6
Continuous
370
    35
100
AcDbLine
 10
-1718.639089504009
 20
834.5617547752407
 30
0.0
 11
-1378.639089504012
 21
834.5617547752407
 31
0.0
  0
LINE
  5
26A
330
1F
100
AcDbEntity
  8
0
  6
Continuous
370
    50
100
AcDbLine
 10
-1378.639089504012
 20
849.5617547752408
 30
0.0
 11
-1718.639089504009
 21
849.561754775241
 31
0.0
  0
LINE
  5
26B
330
1F
100
AcDbEntity
  8
0
  6
Continuous
370
    50
100
AcDbLine
 10
-1268.657686419833
 20
525.0000000000484
 30
0.0
 11
-1358.639089504012
 21
525.0000000000484
 31
0.0
  0
LINE
  5
26C
330
1F
100
AcDbEntity
  8
0
  6
Continuous
370
    35
100
AcDbLine
 10
-1218.657686419832
 20
625.0000000000484
 30
0.0
 11
-1358.639089504012
 21
625.0000000000484
 31
0.0
  0
LINE
  5
26D
330
1F
100
AcDbEntity
  8
Linia Izolacji - ARCHICAD
  6
IZOLACJA GRUBA
370
    35
100
AcDbLine
 10
-1215.343977920846
 20
633.0000000000484
 30
0.0
 11
-1358.639089504012
 21
633.0000000000484
 31
0.0
  0
LINE
  5
26E
330
1F
100
AcDbEntity
  8
0
  6
Continuous
370
    35
100
AcDbLine
 10
-1358.639089504012
 20
641.0000000000484
 30
0.0
 11
-1212.030269421864
 21
641.0000000000484
 31
0.0
  0
LINE
  5
26F
330
1F
100
AcDbEntity
  8
0
  6
Continuous
370
    35
100
AcDbLine
 10
-1134.657686419832
 20
805.0000000000483
 30
0.0
 11
-1358.639089504012
 21
805.0000000000483
 31
0.0
  0
LINE
  5
270
330
1F
100
AcDbEntity
  8
Linia Izolacji - ARCHICAD
  6
IZOLACJA GRUBA
370
    35
100
AcDbLine
 10
-1118.657686419832
 20
813.0000000000483
 30
0.0
 11
-1358.639089504012
 21
813.0000000000483
 31
0.0
  0
LINE
  5
271
330
1F
100
AcDbEntity
  8
0
  6
Continuous
370
    35
100
AcDbLine
 10
-1358.639089504012
 20
834.5617547752407
 30
0.0
 11
-1118.657686419832
 21
834.5617547752407
 31
0.0
  0
LINE
  5
272
330
1F
100
AcDbEntity
  8
0
  6
Continuous
370
    50
100
AcDbLine
 10
-337.6390895040119
 20
849.5617547752407
 30
0.0
 11
-698.6390895040117
 21
849.5617547752407
 31
0.0
  0
LINE
  5
273
330
1F
100
AcDbEntity
  8
0
  6
Continuous
370
    35
100
AcDbLine
 10
-698.6390895040117
 20
834.5617547752407
 30
0.0
 11
-337.6390895040119
 21
834.5617547752407
 31
0.0
  0
LINE
  5
274
330
1F
100
AcDbEntity
  8
0
  6
Continuous
370
    35
100
AcDbLine
 10
-358.6390895040119
 20
805.0000000000481
 30
0.0
 11
-698.6390895040117
 21
805.0000000000482
 31
0.0
  0
LINE
  5
275
330
1F
100
AcDbEntity
  8
0
  6
Continuous
370
    35
100
AcDbLine
 10
-698.6390895040117
 20
641.0000000000482
 30
0.0
 11
-188.639089504012
 21
641.0000000000482
 31
0.0
  0
LINE
  5
276
330
1F
100
AcDbEntity
  8
Linia Izolacji - ARCHICAD
  6
IZOLACJA GRUBA
370
    35
100
AcDbLine
 10
-698.6390895040117
 20
633.0000000000482
 30
0.0
 11
-167.6390895040122
 21
633.0000000000482
 31
0.0
  0
LINE
  5
277
330
1F
100
AcDbEntity
  8
0
  6
Continuous
370
    35
100
AcDbLine
 10
-188.639089504012
 20
625.0000000000482
 30
0.0
 11
-698.6390895040117
 21
625.0000000000482
 31
0.0
  0
LINE
  5
278
330
1F
100
AcDbEntity
  8
0
  6
Continuous
370
    50
100
AcDbLine
 10
-167.6642371671417
 20
525.0000000000484
 30
0.0
 11
-698.6390895040117
 21
525.0000000000484
 31
0.0
  0
LINE
  5
279
330
1F
100
AcDbEntity
  8
0
  6
Continuous
370
    35
100
AcDbLine
 10
-167.6642371671417
 20
375.0000000000484
 30
0.0
 11
-698.6390895040117
 21
375.0000000000484
 31
0.0
  0
LINE
  5
27A
330
1F
100
AcDbEntity
  8
0
  6
Continuous
370
    50
100
AcDbLine
 10
-718.6390895040114
 20
849.5617547752407
 30
0.0
 11
-1358.639089504012
 21
849.5617547752408
 31
0.0
  0
LINE
  5
27B
330
1F
100
AcDbEntity
  8
0
  6
Continuous
370
    35
100
AcDbLine
 10
-958.6576864198322
 20
834.5617547752407
 30
0.0
 11
-718.6390895040114
 21
834.5617547752407
 31
0.0
  0
LINE
  5
27C
330
1F
100
AcDbEntity
  8
Linia Izolacji - ARCHICAD
  6
IZOLACJA GRUBA
370
    35
100
AcDbLine
 10
-958.6576864198322
 20
813.0000000000481
 30
0.0
 11
-718.6390895040114
 21
813.0000000000481
 31
0.0
  0
LINE
  5
27D
330
1F
100
AcDbEntity
  8
0
  6
Continuous
370
    35
100
AcDbLine
 10
-718.6390895040114
 20
805.0000000000482
 30
0.0
 11
-958.6576864198322
 21
805.0000000000482
 31
0.0
  0
LINE
  5
27E
330
1F
100
AcDbEntity
  8
0
  6
Continuous
370
    35
100
AcDbLine
 10
-865.2851034177993
 20
641.0000000000482
 30
0.0
 11
-718.6390895040114
 21
641.0000000000482
 31
0.0
  0
LINE
  5
27F
330
1F
100
AcDbEntity
  8
Linia Izolacji - ARCHICAD
  6
IZOLACJA GRUBA
370
    35
100
AcDbLine
 10
-861.971394918815
 20
633.0000000000482
 30
0.0
 11
-718.6390895040114
 21
633.0000000000482
 31
0.0
  0
LINE
  5
280
330
1F
100
AcDbEntity
  8
0
  6
Continuous
370
    35
100
AcDbLine
 10
-718.6390895040114
 20
625.0000000000482
 30
0.0
 11
-858.6576864198325
 21
625.0000000000482
 31
0.0
  0
LINE
  5
281
330
1F
100
AcDbEntity
  8
0
  6
Continuous
370
    50
100
AcDbLine
 10
-718.6390895040114
 20
525.0000000000484
 30
0.0
 11
-808.6576864198319
 21
525.0000000000484
 31
0.0
  0
LINE
  5
282
330
1F
100
AcDbEntity
  8
0
  6
Continuous
370
    35
100
AcDbLine
 10
-718.6390895040114
 20
375.0000000000484
 30
0.0
 11
-1358.639089504012
 21
375.0000000000484
 31
0.0
  0
LINE
  5
283
330
1F
100
AcDbEntity
  8
0
  6
Kreski i kropki
370
    13
100
AcDbLine
 10
-1038.639089504012
 20
512.8791660318193
 30
0.0
 11
-1038.639089504012
 21
891.178216733796
 31
0.0
  0
LINE
  5
284
330
1F
100
AcDbEntity
  8
0
  6
Kreski i kropki
370
    13
100
AcDbLine
 10
-150.3047567685373
 20
1099.561754775241
 30
0.0
 11
-624.3043564691723
 21
1099.561754775241
 31
0.0
  0
LINE
  5
285
330
1F
100
AcDbEntity
  8
Linia Izolacji - ARCHICAD
  6
IZOLACJA GRUBA
370
    35
100
AcDbLine
 10
-1718.639089504011
 20
813.0000000000483
 30
0.0
 11
-1378.639089504013
 21
813.0000000000483
 31
0.0
  0
LINE
  5
286
330
1F
100
AcDbEntity
  8
Linia Izolacji - ARCHICAD
  6
IZOLACJA GRUBA
370
    35
100
AcDbLine
 10
-337.6390895040119
 20
813.0000000000481
 30
0.0
 11
-698.6390895040117
 21
813.0000000000482
 31
0.0
  0
LINE
  5
287
330
1F
100
AcDbEntity
  8
Linia Izolacji - ARCHICAD
  6
IZOLACJA GRUBA
370
    35
100
AcDbLine
 10
-297.6390895040074
 20
813.0000000000482
 30
0.0
 11
-167.6390895040102
 21
813.0000000000482
 31
0.0
  0
LINE
  5
288
330
1F
100
AcDbEntity
  8
0
  6
Continuous
370
    13
100
AcDbLine
 10
-968.0881242980023
 20
755.9599746298645
 30
0.0
 11
-910.0797520275106
 21
755.9599746298645
 31
0.0
  0
CIRCLE
  5
289
330
1F
100
AcDbEntity
  8
0
  6
Continuous
370
    13
100
AcDbCircle
 10
-973.0881242980023
 20
755.9599746298645
 30
0.0
 40
5.0
  0
HATCH
  5
28A
330
1F
100
AcDbEntity
  8
0
  6
Continuous
370
    13
100
AcDbHatch
 10
0.0
 20
0.0
 30
0.0
210
0.0
220
0.0
230
1.0
  2
SOLID
 70
     1
 71
     0
 91
        1
 92
        2
 72
     0
 73
     1
 93
       16
 10
-968.0881242980023
 20
755.9599746298645
 10
-968.4687266354458
 20
757.87339179169
 10
-969.5525903920695
 20
759.4955085357973
 10
-971.1747071361768
 20
760.579372292421
 10
-973.0881242980023
 20
760.9599746298645
 10
-975.0015414598278
 20
760.579372292421
 10
-976.6236582039351
 20
759.4955085357973
 10
-977.7075219605588
 20
757.87339179169
 10
-978.0881242980023
 20
755.9599746298645
 10
-977.7075219605588
 20
754.046557468039
 10
-976.6236582039351
 20
752.4244407239318
 10
-975.0015414598278
 20
751.340576967308
 10
-973.0881242980023
 20
750.9599746298645
 10
-971.1747071361768
 20
751.340576967308
 10
-969.5525903920695
 20
752.4244407239318
 10
-968.4687266354458
 20
754.046557468039
 97
        0
 75
     0
 76
     1
 98
        0
  0
LINE
  5
28B
330
1F
100
AcDbEntity
  8
0
  6
Continuous
370
    35
100
AcDbLine
 10
-1773.639089504013
 20
849.561754775241
 30
0.0
 11
-1773.639089504013
 21
834.5617547752408
 31
0.0
  0
LINE
  5
28C
330
1F
100
AcDbEntity
  8
0
  6
Continuous
370
    35
100
AcDbLine
 10
-1758.639089504012
 20
849.561754775241
 30
0.0
 11
-1758.639089504012
 21
834.5617547752408
 31
0.0
  0
LINE
  5
28D
330
1F
100
AcDbEntity
  8
0
  6
Continuous
370
    35
100
AcDbLine
 10
-1703.639089504009
 20
849.561754775241
 30
0.0
 11
-1703.639089504009
 21
834.5617547752408
 31
0.0
  0
LINE
  5
28E
330
1F
100
AcDbEntity
  8
0
  6
Continuous
370
    35
100
AcDbLine
 10
-343.6390895040119
 20
849.5617547752404
 30
0.0
 11
-343.6390895040119
 21
834.5617547752404
 31
0.0
  0
LINE
  5
28F
330
1F
100
AcDbEntity
  8
0
  6
Continuous
370
    35
100
AcDbLine
 10
-358.6390895040119
 20
849.5617547752408
 30
0.0
 11
-358.6390895040119
 21
834.5617547752408
 31
0.0
  0
LINE
  5
290
330
1F
100
AcDbEntity
  8
0
  6
Continuous
370
    35
100
AcDbLine
 10
-282.6390895040086
 20
849.5617547752408
 30
0.0
 11
-282.6390895040086
 21
834.5617547752408
 31
0.0
  0
LINE
  5
291
330
1F
100
AcDbEntity
  8
0
  6
Continuous
370
    35
100
AcDbLine
 10
-1239.585645053289
 20
723.0000000000483
 30
0.0
 11
-1358.639089504012
 21
723.0000000000483
 31
0.0
  0
LINE
  5
292
330
1F
100
AcDbEntity
  8
0
  6
Continuous
370
    35
100
AcDbLine
 10
-1378.639089504012
 20
723.0000000000483
 30
0.0
 11
-2227.972539759116
 21
723.0000000000484
 31
0.0
  0
LINE
  5
293
330
1F
100
AcDbEntity
  8
0
  6
Continuous
370
    35
100
AcDbLine
 10
-837.6925339547339
 20
723.0000000000483
 30
0.0
 11
-718.6390895040114
 21
723.0000000000483
 31
0.0
  0
LINE
  5
294
330
1F
100
AcDbEntity
  8
0
  6
Continuous
370
    35
100
AcDbLine
 10
-698.6390895040117
 20
723.0000000000483
 30
0.0
 11
-167.639089504012
 21
723.0000000000483
 31
0.0
  0
LINE
  5
295
330
1F
100
AcDbEntity
  8
0
  6
Continuous
370
    13
100
AcDbLine
 10
-1888.639089504009
 20
899.5617547752406
 30
0.0
 11
-1888.639089504009
 21
1017.683324526287
 31
0.0
  0
LINE
  5
296
330
1F
100
AcDbEntity
  8
0
  6
Continuous
370
    13
100
AcDbLine
 10
-1588.639089504012
 20
899.5617547752406
 30
0.0
 11
-1588.639089504012
 21
1017.683324526287
 31
0.0
  0
LINE
  5
297
330
1F
100
AcDbEntity
  8
0
  6
Continuous
370
    13
100
AcDbLine
 10
-1568.639089504013
 20
949.5617547752406
 30
0.0
 11
-1568.639089504013
 21
1017.683324526287
 31
0.0
  0
LINE
  5
298
330
1F
100
AcDbEntity
  8
0
  6
Continuous
370
    13
100
AcDbLine
 10
-1548.639089504013
 20
949.5617547752406
 30
0.0
 11
-1548.639089504013
 21
1017.683324526287
 31
0.0
  0
LINE
  5
299
330
1F
100
AcDbEntity
  8
0
  6
Continuous
370
    13
100
AcDbLine
 10
-1448.639089504014
 20
928.1849267555305
 30
0.0
 11
-1448.639089504014
 21
1017.683324526287
 31
0.0
  0
LINE
  5
29B
330
1F
100
AcDbEntity
  8
0
  6
Przerywana
370
    13
100
AcDbLine
 10
-1738.639089504011
 20
1017.683324526287
 30
0.0
 11
-1431.48271195299
 21
1017.683324526287
 31
0.0
  0
LINE
  5
29C
330
1F
100
AcDbEntity
  8
0
  6
Kreski i kropki
370
    13
100
AcDbLine
 10
-1738.639089504011
 20
766.5872998668298
 30
0.0
 11
-1738.639089504011
 21
1033.31565231333
 31
0.0
  0
LINE
  5
29D
330
1F
100
AcDbEntity
  8
0
  6
Continuous
370
    35
100
AcDbLine
 10
-2297.972539759116
 20
869.561754775241
 30
0.0
 11
-2311.972539759115
 21
855.5617547752412
 31
0.0
  0
LINE
  5
29E
330
1F
100
AcDbEntity
  8
0
  6
Continuous
370
    35
100
AcDbLine
 10
-2262.972539759116
 20
834.561754775241
 30
0.0
 11
-2276.972539759115
 21
820.5617547752412
 31
0.0
  0
LINE
  5
29F
330
1F
100
AcDbEntity
  8
0
  6
Continuous
370
    35
100
AcDbLine
 10
-2262.972539759116
 20
834.5617547752407
 30
0.0
 11
-1758.639089504012
 21
834.5617547752407
 31
0.0
  0
LINE
  5
2A0
330
1F
100
AcDbEntity
  8
0
  6
Continuous
370
    35
100
AcDbLine
 10
-2297.972539759116
 20
869.561754775241
 30
0.0
 11
-2297.972539759116
 21
1714.008792516424
 31
0.0
  0
LINE
  5
2A1
330
1F
100
AcDbEntity
  8
0
  6
Continuous
370
    13
100
AcDbLine
 10
-2288.544181791082
 20
845.0044827816446
 30
0.0
 11
-2156.953075259788
 21
947.9393814225739
 31
0.0
  0
CIRCLE
  5
2A2
330
1F
100
AcDbEntity
  8
0
  6
Continuous
370
    13
100
AcDbCircle
 10
-2292.48242490497
 20
841.9238592772363
 30
0.0
 40
5.0
  0
HATCH
  5
2A3
330
1F
100
AcDbEntity
  8
0
  6
Continuous
370
    13
100
AcDbHatch
 10
0.0
 20
0.0
 30
0.0
210
0.0
220
0.0
230
1.0
  2
SOLID
 70
     1
 71
     0
 91
        1
 92
        2
 72
     0
 73
     1
 93
       16
 10
-2287.48242490497
 20
841.9238592772363
 10
-2287.863027242413
 20
843.8372764390617
 10
-2288.946890999037
 20
845.459393183169
 10
-2290.569007743145
 20
846.5432569397927
 10
-2292.48242490497
 20
846.9238592772363
 10
-2294.395842066795
 20
846.5432569397927
 10
-2296.017958810903
 20
845.459393183169
 10
-2297.101822567527
 20
843.8372764390617
 10
-2297.48242490497
 20
841.9238592772363
 10
-2297.101822567527
 20
840.0104421154108
 10
-2296.017958810903
 20
838.3883253713035
 10
-2294.395842066795
 20
837.3044616146798
 10
-2292.48242490497
 20
836.9238592772363
 10
-2290.569007743145
 20
837.3044616146798
 10
-2288.946890999037
 20
838.3883253713035
 10
-2287.863027242413
 20
840.0104421154108
 97
        0
 75
     0
 76
     1
 98
        0
  0
LINE
  5
2A4
330
1F
100
AcDbEntity
  8
0
  6
Continuous
370
    13
100
AcDbLine
 10
-2288.745266292632
 20
866.2004210670315
 30
0.0
 11
-2222.793369092394
 21
943.4933526550501
 31
0.0
  0
CIRCLE
  5
2A5
330
1F
100
AcDbEntity
  8
0
  6
Continuous
370
    13
100
AcDbCircle
 10
-2291.990727737432
 20
862.3968727223514
 30
0.0
 40
5.0
  0
HATCH
  5
2A6
330
1F
100
AcDbEntity
  8
0
  6
Continuous
370
    13
100
AcDbHatch
 10
0.0
 20
0.0
 30
0.0
210
0.0
220
0.0
230
1.0
  2
SOLID
 70
     1
 71
     0
 91
        1
 92
        2
 72
     0
 73
     1
 93
       16
 10
-2286.990727737432
 20
862.3968727223514
 10
-2287.371330074875
 20
864.3102898841769
 10
-2288.455193831499
 20
865.9324066282842
 10
-2290.077310575606
 20
867.0162703849079
 10
-2291.990727737432
 20
867.3968727223514
 10
-2293.904144899258
 20
867.0162703849079
 10
-2295.526261643365
 20
865.9324066282842
 10
-2296.610125399989
 20
864.3102898841769
 10
-2296.990727737432
 20
862.3968727223514
 10
-2296.610125399989
 20
860.483455560526
 10
-2295.526261643365
 20
858.8613388164187
 10
-2293.904144899258
 20
857.7774750597949
 10
-2291.990727737432
 20
857.3968727223514
 10
-2290.077310575606
 20
857.7774750597949
 10
-2288.455193831499
 20
858.8613388164187
 10
-2287.371330074875
 20
860.483455560526
 97
        0
 75
     0
 76
     1
 98
        0
  0
LINE
  5
2A7
330
1F
100
AcDbEntity
  8
0
  6
Continuous
 62
    22
370
    50
100
AcDbLine
 10
-1758.639089504012
 20
813.0000000000483
 30
0.0
 11
-1838.639089504012
 21
813.0000000000483
 31
0.0
  0
LINE
  5
2A8
330
1F
100
AcDbEntity
  8
0
  6
Continuous
 62
    22
370
    50
100
AcDbLine
 10
-1718.639089504009
 20
813.0000000000483
 30
0.0
 11
-1638.639089504009
 21
813.0000000000483
 31
0.0
  0
LINE
  5
2A9
330
1F
100
AcDbEntity
  8
0
  6
Continuous
 62
    22
370
    50
100
AcDbLine
 10
-337.6390895040119
 20
813.0000000000483
 30
0.0
 11
-417.639089504012
 21
813.0000000000483
 31
0.0
  0
LINE
  5
2AA
330
1F
100
AcDbEntity
  8
0
  6
Continuous
 62
    22
370
    50
100
AcDbLine
 10
-297.6390895040092
 20
813.0000000000483
 30
0.0
 11
-217.6390895040091
 21
813.0000000000483
 31
0.0
  0
LINE
  5
2AB
330
1F
100
AcDbEntity
  8
0
  6
Continuous
370
    13
100
AcDbLine
 10
-1820.700720202148
 20
816.6391218480949
 30
0.0
 11
-1940.223626281738
 21
943.492874903213
 31
0.0
  0
CIRCLE
  5
2AC
330
1F
100
AcDbEntity
  8
0
  6
Continuous
370
    13
100
AcDbCircle
 10
-1817.271902304523
 20
813.0000000000483
 30
0.0
 40
5.0
  0
HATCH
  5
2AD
330
1F
100
AcDbEntity
  8
0
  6
Continuous
370
    13
100
AcDbHatch
 10
0.0
 20
0.0
 30
0.0
210
0.0
220
0.0
230
1.0
  2
SOLID
 70
     1
 71
     0
 91
        1
 92
        2
 72
     0
 73
     1
 93
       16
 10
-1812.271902304523
 20
813.0000000000483
 10
-1812.652504641967
 20
814.9134171618738
 10
-1813.73636839859
 20
816.5355339059811
 10
-1815.358485142698
 20
817.6193976626048
 10
-1817.271902304523
 20
818.0000000000483
 10
-1819.185319466348
 20
817.6193976626048
 10
-1820.807436210456
 20
816.5355339059811
 10
-1821.891299967079
 20
814.9134171618738
 10
-1822.271902304523
 20
813.0000000000483
 10
-1821.891299967079
 20
811.0865828382229
 10
-1820.807436210456
 20
809.4644660941156
 10
-1819.185319466348
 20
808.3806023374918
 10
-1817.271902304523
 20
808.0000000000483
 10
-1815.358485142698
 20
808.3806023374918
 10
-1813.73636839859
 20
809.4644660941156
 10
-1812.652504641967
 20
811.0865828382229
 97
        0
 75
     0
 76
     1
 98
        0
  0
LINE
  5
2AE
330
1F
100
AcDbEntity
  8
0
  6
Continuous
370
    13
100
AcDbLine
 10
-1711.139089504009
 20
936.4769010823322
 30
0.0
 11
-1711.139089504009
 21
847.061754775241
 31
0.0
  0
CIRCLE
  5
2AF
330
1F
100
AcDbEntity
  8
0
  6
Continuous
370
    13
100
AcDbCircle
 10
-1711.139089504009
 20
842.061754775241
 30
0.0
 40
5.0
  0
HATCH
  5
2B0
330
1F
100
AcDbEntity
  8
0
  6
Continuous
370
    13
100
AcDbHatch
 10
0.0
 20
0.0
 30
0.0
210
0.0
220
0.0
230
1.0
  2
SOLID
 70
     1
 71
     0
 91
        1
 92
        2
 72
     0
 73
     1
 93
       16
 10
-1706.139089504009
 20
842.061754775241
 10
-1706.519691841453
 20
843.9751719370664
 10
-1707.603555598077
 20
845.5972886811737
 10
-1709.225672342184
 20
846.6811524377974
 10
-1711.139089504009
 20
847.061754775241
 10
-1713.052506665835
 20
846.6811524377974
 10
-1714.674623409942
 20
845.5972886811737
 10
-1715.758487166566
 20
843.9751719370664
 10
-1716.139089504009
 20
842.061754775241
 10
-1715.758487166566
 20
840.1483376134155
 10
-1714.674623409942
 20
838.5262208693082
 10
-1713.052506665835
 20
837.4423571126845
 10
-1711.139089504009
 20
837.061754775241
 10
-1709.225672342184
 20
837.4423571126845
 10
-1707.603555598077
 20
838.5262208693082
 10
-1706.519691841453
 20
840.1483376134155
 97
        0
 75
     0
 76
     1
 98
        0
  0
LINE
  5
2B1
330
1F
100
AcDbEntity
  8
0
  6
Continuous
370
    13
100
AcDbLine
 10
-1709.363105874637
 20
832.0137092357929
 30
0.0
 11
-1654.277059343075
 21
939.7651743190212
 31
0.0
  0
CIRCLE
  5
2B2
330
1F
100
AcDbEntity
  8
0
  6
Continuous
370
    13
100
AcDbCircle
 10
-1711.63908950401
 20
827.5617547752411
 30
0.0
 40
5.0
  0
HATCH
  5
2B3
330
1F
100
AcDbEntity
  8
0
  6
Continuous
370
    13
100
AcDbHatch
 10
0.0
 20
0.0
 30
0.0
210
0.0
220
0.0
230
1.0
  2
SOLID
 70
     1
 71
     0
 91
        1
 92
        2
 72
     0
 73
     1
 93
       16
 10
-1706.63908950401
 20
827.5617547752411
 10
-1707.019691841454
 20
829.4751719370665
 10
-1708.103555598077
 20
831.0972886811738
 10
-1709.725672342184
 20
832.1811524377976
 10
-1711.63908950401
 20
832.5617547752411
 10
-1713.552506665835
 20
832.1811524377976
 10
-1715.174623409943
 20
831.0972886811738
 10
-1716.258487166566
 20
829.4751719370665
 10
-1716.63908950401
 20
827.5617547752411
 10
-1716.258487166566
 20
825.6483376134156
 10
-1715.174623409943
 20
824.0262208693083
 10
-1713.552506665835
 20
822.9423571126846
 10
-1711.63908950401
 20
822.5617547752411
 10
-1709.725672342184
 20
822.9423571126846
 10
-1708.103555598077
 20
824.0262208693083
 10
-1707.019691841454
 20
825.6483376134156
 97
        0
 75
     0
 76
     1
 98
        0
  0
LINE
  5
2B4
330
1F
100
AcDbEntity
  8
0
  6
Continuous
370
    13
100
AcDbLine
 10
-1126.157686419833
 20
912.5189790576413
 30
0.0
 11
-1126.157686419833
 21
847.061754775241
 31
0.0
  0
CIRCLE
  5
2B5
330
1F
100
AcDbEntity
  8
0
  6
Continuous
370
    13
100
AcDbCircle
 10
-1126.157686419833
 20
842.061754775241
 30
0.0
 40
5.0
  0
HATCH
  5
2B6
330
1F
100
AcDbEntity
  8
0
  6
Continuous
370
    13
100
AcDbHatch
 10
0.0
 20
0.0
 30
0.0
210
0.0
220
0.0
230
1.0
  2
SOLID
 70
     1
 71
     0
 91
        1
 92
        2
 72
     0
 73
     1
 93
       16
 10
-1121.157686419833
 20
842.061754775241
 10
-1121.538288757276
 20
843.9751719370664
 10
-1122.6221525139
 20
845.5972886811737
 10
-1124.244269258007
 20
846.6811524377974
 10
-1126.157686419833
 20
847.061754775241
 10
-1128.071103581658
 20
846.6811524377974
 10
-1129.693220325765
 20
845.5972886811737
 10
-1130.777084082389
 20
843.9751719370664
 10
-1131.157686419833
 20
842.061754775241
 10
-1130.777084082389
 20
840.1483376134155
 10
-1129.693220325765
 20
838.5262208693082
 10
-1128.071103581658
 20
837.4423571126845
 10
-1126.157686419833
 20
837.061754775241
 10
-1124.244269258007
 20
837.4423571126845
 10
-1122.6221525139
 20
838.5262208693082
 10
-1121.538288757276
 20
840.1483376134155
 97
        0
 75
     0
 76
     1
 98
        0
  0
LINE
  5
2B7
330
1F
100
AcDbEntity
  8
0
  6
Continuous
370
    13
100
AcDbLine
 10
-951.6576864198325
 20
912.5189790576413
 30
0.0
 11
-951.6576864198325
 21
832.5617547752411
 31
0.0
  0
CIRCLE
  5
2B8
330
1F
100
AcDbEntity
  8
0
  6
Continuous
370
    13
100
AcDbCircle
 10
-951.6576864198325
 20
827.5617547752411
 30
0.0
 40
5.0
  0
HATCH
  5
2B9
330
1F
100
AcDbEntity
  8
0
  6
Continuous
370
    13
100
AcDbHatch
 10
0.0
 20
0.0
 30
0.0
210
0.0
220
0.0
230
1.0
  2
SOLID
 70
     1
 71
     0
 91
        1
 92
        2
 72
     0
 73
     1
 93
       16
 10
-946.6576864198325
 20
827.5617547752411
 10
-947.0382887572761
 20
829.4751719370665
 10
-948.1221525138998
 20
831.0972886811738
 10
-949.7442692580071
 20
832.1811524377976
 10
-951.6576864198325
 20
832.5617547752411
 10
-953.571103581658
 20
832.1811524377976
 10
-955.1932203257653
 20
831.0972886811738
 10
-956.277084082389
 20
829.4751719370665
 10
-956.6576864198325
 20
827.5617547752411
 10
-956.277084082389
 20
825.6483376134156
 10
-955.1932203257653
 20
824.0262208693083
 10
-953.571103581658
 20
822.9423571126846
 10
-951.6576864198325
 20
822.5617547752411
 10
-949.7442692580071
 20
822.9423571126846
 10
-948.1221525138998
 20
824.0262208693083
 10
-947.0382887572761
 20
825.6483376134156
 97
        0
 75
     0
 76
     1
 98
        0
  0
LINE
  5
2BA
330
1F
100
AcDbEntity
  8
0
  6
Continuous
370
    50
100
AcDbLine
 10
-1422.833256463133
 20
326.230311017311
 30
0.0
 11
-1422.833256463133
 21
1714.998421549177
 31
0.0
  0
LINE
  5
2BB
330
1F
100
AcDbEntity
  8
0
  6
Continuous
370
    35
100
AcDbLine
 10
-2743.972539759114
 20
1150.000000000048
 30
0.0
 11
-2743.972539759114
 21
800.0000000000484
 31
0.0
  0
LINE
  5
2BC
330
1F
100
AcDbEntity
  8
0
  6
Continuous
370
    35
100
AcDbLine
 10
-1298.639089504017
 20
849.561754775241
 30
0.0
 11
-1298.639089504017
 21
834.5617547752408
 31
0.0
  0
LINE
  5
2BD
330
1F
100
AcDbEntity
  8
0
  6
Continuous
370
    35
100
AcDbLine
 10
-1283.639089504016
 20
849.561754775241
 30
0.0
 11
-1283.639089504016
 21
834.5617547752408
 31
0.0
  0
LINE
  5
2BE
330
1F
100
AcDbEntity
  8
0
  6
Continuous
370
    35
100
AcDbLine
 10
-2112.972539759115
 20
849.561754775241
 30
0.0
 11
-2112.972539759115
 21
834.561754775241
 31
0.0
  0
LINE
  5
2BF
330
1F
100
AcDbEntity
  8
0
  6
Continuous
370
    35
100
AcDbLine
 10
-2097.972539759115
 20
849.561754775241
 30
0.0
 11
-2097.972539759115
 21
834.561754775241
 31
0.0
  0
LINE
  5
2C0
330
1F
100
AcDbEntity
  8
0
  6
Continuous
370
    35
100
AcDbLine
 10
-1937.972539759115
 20
849.561754775241
 30
0.0
 11
-1937.972539759115
 21
834.561754775241
 31
0.0
  0
LINE
  5
2C1
330
1F
100
AcDbEntity
  8
0
  6
Continuous
370
    35
100
AcDbLine
 10
-1922.972539759114
 20
849.561754775241
 30
0.0
 11
-1922.972539759114
 21
834.561754775241
 31
0.0
  0
LINE
  5
2C2
330
1F
100
AcDbEntity
  8
0
  6
Continuous
370
    35
100
AcDbLine
 10
-538.6390895040134
 20
849.5617547752408
 30
0.0
 11
-538.6390895040134
 21
834.5617547752408
 31
0.0
  0
LINE
  5
2C3
330
1F
100
AcDbEntity
  8
0
  6
Continuous
370
    35
100
AcDbLine
 10
-523.6390895040129
 20
849.5617547752408
 30
0.0
 11
-523.6390895040129
 21
834.5617547752408
 31
0.0
  0
LINE
  5
2C4
330
1F
100
AcDbEntity
  8
0
  6
Continuous
370
    35
100
AcDbLine
 10
-688.639089504012
 20
849.561754775241
 30
0.0
 11
-688.639089504012
 21
834.5617547752408
 31
0.0
  0
LINE
  5
2C5
330
1F
100
AcDbEntity
  8
0
  6
Continuous
370
    35
100
AcDbLine
 10
-1538.639089504008
 20
849.561754775241
 30
0.0
 11
-1538.639089504008
 21
834.561754775241
 31
0.0
  0
LINE
  5
2C6
330
1F
100
AcDbEntity
  8
0
  6
Continuous
370
    35
100
AcDbLine
 10
-1553.639089504009
 20
849.561754775241
 30
0.0
 11
-1553.639089504009
 21
834.561754775241
 31
0.0
  0
LINE
  5
2C7
330
1F
100
AcDbEntity
  8
0
  6
Continuous
370
    35
100
AcDbLine
 10
-1388.639089504009
 20
849.561754775241
 30
0.0
 11
-1388.639089504009
 21
834.561754775241
 31
0.0
  0
LINE
  5
2C8
330
1F
100
AcDbEntity
  8
0
  6
Continuous
370
    13
100
AcDbLine
 10
-100.0000000000001
 20
170.0000000000481
 30
0.0
 11
-100.0000000000001
 21
-49.99999999995164
 31
0.0
  0
LINE
  5
2C9
330
1F
100
AcDbEntity
  8
0
  6
Continuous
370
    13
100
AcDbLine
 10
-1900.0
 20
-49.99999999995253
 30
0.0
 11
-100.0000000000001
 21
-49.99999999995253
 31
0.0
  0
LINE
  5
2CA
330
1F
100
AcDbEntity
  8
0
  6
Continuous
370
    35
100
AcDbLine
 10
-2311.476122128022
 20
690.8938654992733
 30
0.0
 11
-2311.476122128022
 21
663.1918850610567
 31
0.0
  0
LWPOLYLINE
  5
2CB
330
1F
100
AcDbEntity
  8
@__WIDOCZNE
  6
Continuous
370
    13
100
AcDbPolyline
 90
        4
 70
   129
 43
0.0
 10
-2969.999999999999
 20
-49.99999999995121
 10
-2969.999999999999
 20
1750.000000000049
 10
-100.0000000000001
 20
1750.000000000048
 10
-100.0000000000005
 20
-49.99999999995163
  0
LWPOLYLINE
  5
2CC
330
1F
100
AcDbEntity
  8
@__WIDOCZNE
  6
Continuous
370
    13
100
AcDbPolyline
 90
        2
 70
   129
 43
0.0
 10
-100.0000000000001
 20
10.00000000004708
 10
-1364.269721801271
 20
10.00000000004708
  0
LWPOLYLINE
  5
2CD
330
1F
100
AcDbEntity
  8
@__WIDOCZNE
  6
Continuous
370
    13
100
AcDbPolyline
 90
        4
 70
   129
 43
0.0
 10
-1900.000000000181
 20
170.0000000000472
 10
-1900.000000000181
 20
-49.99999999995342
 10
-100.0000000000001
 20
-49.99999999995164
 10
-100.0000000000001
 20
170.0000000000472
  0
LWPOLYLINE
  5
2CE
330
1F
100
AcDbEntity
  8
@__WIDOCZNE
  6
Continuous
370
    13
100
AcDbPolyline
 90
        2
 70
   128
 43
0.0
 10
-239.9999999998728
 20
120.0000000000483
 10
-239.9999999998728
 20
170.0000000000472
  0
LWPOLYLINE
  5
2CF
330
1F
100
AcDbEntity
  8
@__WIDOCZNE
  6
Continuous
370
    13
100
AcDbPolyline
 90
        2
 70
   128
 43
0.0
 10
-100.0000000000001
 20
120.0000000000483
 10
-409.9999999999455
 20
120.0000000000483
  0
LWPOLYLINE
  5
2D0
330
1F
100
AcDbEntity
  8
@__WIDOCZNE
  6
Continuous
370
    13
100
AcDbPolyline
 90
        2
 70
   128
 43
0.0
 10
-409.9999999999455
 20
10.00000000004708
 10
-409.9999999999455
 20
170.0000000000472
  0
LWPOLYLINE
  5
2D1
330
1F
100
AcDbEntity
  8
@__WIDOCZNE
  6
Continuous
370
    13
100
AcDbPolyline
 90
        2
 70
   128
 43
0.0
 10
-1364.269721801271
 20
170.0000000000472
 10
-1364.269721801271
 20
-49.99999999995342
  0
LWPOLYLINE
  5
2D2
330
1F
100
AcDbEntity
  8
@__WIDOCZNE
  6
Continuous
370
    13
100
AcDbPolyline
 90
        4
 70
   129
 43
0.0
 10
-3019.999999999997
 20
-100.0000000003142
 10
-3019.999999999997
 20
2000.00000000005
 10
-49.99999999999672
 20
2000.000000000049
 10
-49.99999999999716
 20
-100.0000000003146
  0
ARC
  5
2D3
330
1F
100
AcDbEntity
  8
0
  6
Continuous
370
    50
100
AcDbCircle
 10
-2262.972539759116
 20
869.561754775241
 30
0.0
 40
19.99999999999957
100
AcDbArc
 50
180.0
 51
270.0
  0
ARC
  5
2D4
330
1F
100
AcDbEntity
  8
Linia Izolacji - ARCHICAD
  6
IZOLACJA GRUBA
370
    13
100
AcDbCircle
 10
-2289.972539759116
 20
663.0000000000484
 30
0.0
 40
29.99999999999936
100
AcDbArc
 50
180.0
 51
270.0
  0
ARC
  5
2D5
330
1F
100
AcDbEntity
  8
Linia Izolacji - ARCHICAD
  6
IZOLACJA GRUBA
370
    13
100
AcDbCircle
 10
-2289.972539759115
 20
843.0000000000484
 30
0.0
 40
29.99999999999936
100
AcDbArc
 50
180.0
 51
270.0
  0
ARC
  5
2D6
330
1F
100
AcDbEntity
  8
0
  6
Continuous
370
    13
100
AcDbCircle
 10
-392.6390895040098
 20
1379.561754775241
 30
0.0
 40
10.00000000000001
100
AcDbArc
 50
90.0
 51
180.0
  0
ARC
  5
2D7
330
1F
100
AcDbEntity
  8
0
  6
Continuous
370
    13
100
AcDbCircle
 10
-397.6390895040088
 20
1304.561754775241
 30
0.0
 40
5.000000000000782
100
AcDbArc
 50
180.0
 51
270.0
  0
ARC
  5
2D8
330
1F
100
AcDbEntity
  8
0
  6
Continuous
370
    13
100
AcDbCircle
 10
-367.6390895040112
 20
1304.561754775241
 30
0.0
 40
5.000000000000004
100
AcDbArc
 50
270.0
 51
0.0
  0
ARC
  5
2D9
330
1F
100
AcDbEntity
  8
0
  6
Continuous
370
    13
100
AcDbCircle
 10
-364.1369531809561
 20
1439.561754775241
 30
0.0
 40
5.000000000000004
100
AcDbArc
 50
90.0
 51
160.0168934780991
  0
ARC
  5
2DA
330
1F
100
AcDbEntity
  8
0
  6
Continuous
370
    13
100
AcDbCircle
 10
-358.5335350640649
 20
1431.561754775238
 30
0.0
 40
5.000000000000004
100
AcDbArc
 50
90.0
 51
160.0168934780944
  0
ARC
  5
2DB
330
1F
100
AcDbEntity
  8
0
  6
Continuous
370
    13
100
AcDbCircle
 10
-373.4861914726645
 20
1390.441949651604
 30
0.0
 40
4.999999999997536
100
AcDbArc
 50
160.016893478097
 51
217.722293435253
  0
ARC
  5
2DC
330
1F
100
AcDbEntity
  8
0
  6
Continuous
370
    13
100
AcDbCircle
 10
-370.5076324918041
 20
1386.591242155421
 30
0.0
 40
4.999999999999334
100
AcDbArc
 50
217.7222934352691
 51
270.0
  0
ARC
  5
2DD
330
1F
100
AcDbEntity
  8
0
  6
Continuous
370
    13
100
AcDbCircle
 10
-242.6390895040113
 20
1379.561754775241
 30
0.0
 40
10.00000000000001
100
AcDbArc
 50
0.0
 51
90.0
  0
ARC
  5
2DE
330
1F
100
AcDbEntity
  8
0
  6
Continuous
370
    13
100
AcDbCircle
 10
-237.6390895040122
 20
1304.561754775241
 30
0.0
 40
5.000000000000782
100
AcDbArc
 50
270.0
 51
0.0
  0
ARC
  5
2DF
330
1F
100
AcDbEntity
  8
0
  6
Continuous
370
    13
100
AcDbCircle
 10
-267.6390895040098
 20
1304.561754775241
 30
0.0
 40
5.000000000000004
100
AcDbArc
 50
180.0
 51
270.0
  0
ARC
  5
2E0
330
1F
100
AcDbEntity
  8
0
  6
Continuous
370
    13
100
AcDbCircle
 10
-271.141225827065
 20
1439.561754775241
 30
0.0
 40
5.000000000000004
100
AcDbArc
 50
19.98310652190085
 51
90.0
  0
ARC
  5
2E1
330
1F
100
AcDbEntity
  8
0
  6
Continuous
370
    13
100
AcDbCircle
 10
-276.7446439439561
 20
1431.561754775238
 30
0.0
 40
5.000000000000004
100
AcDbArc
 50
19.98310652190563
 51
90.0
  0
ARC
  5
2E2
330
1F
100
AcDbEntity
  8
0
  6
Continuous
370
    13
100
AcDbCircle
 10
-261.7919875353566
 20
1390.441949651604
 30
0.0
 40
4.999999999997536
100
AcDbArc
 50
322.277706564747
 51
19.98310652190302
  0
ARC
  5
2E3
330
1F
100
AcDbEntity
  8
0
  6
Continuous
370
    13
100
AcDbCircle
 10
-264.770546516217
 20
1386.591242155421
 30
0.0
 40
4.999999999999334
100
AcDbArc
 50
270.0
 51
322.2777065647308
  0
ARC
  5
2E4
330
1F
100
AcDbEntity
  8
0
  6
Continuous
370
    35
100
AcDbCircle
 10
-1038.639089504012
 20
750.0000000000472
 30
0.0
 40
49.99999999999893
100
AcDbArc
 50
180.0
 51
0.0
  0
CIRCLE
  5
2E5
330
1F
100
AcDbEntity
  8
0
  6
Continuous
370
    13
100
AcDbCircle
 10
-2207.972539759116
 20
728.0000000000484
 30
0.0
 40
5.000000000000004
  0
CIRCLE
  5
2E6
330
1F
100
AcDbEntity
  8
0
  6
Continuous
370
    13
100
AcDbCircle
 10
-2057.972539759116
 20
728.0000000000484
 30
0.0
 40
5.000000000000004
  0
CIRCLE
  5
2E7
330
1F
100
AcDbEntity
  8
0
  6
Continuous
370
    13
100
AcDbCircle
 10
-1907.972539759115
 20
728.0000000000484
 30
0.0
 40
5.000000000000004
  0
CIRCLE
  5
2E8
330
1F
100
AcDbEntity
  8
0
  6
Continuous
370
    13
100
AcDbCircle
 10
-1757.972539759115
 20
728.0000000000484
 30
0.0
 40
5.000000000000004
  0
CIRCLE
  5
2E9
330
1F
100
AcDbEntity
  8
0
  6
Continuous
370
    13
100
AcDbCircle
 10
-317.6390895040105
 20
1099.561754775241
 30
0.0
 40
99.99999999999964
  0
CIRCLE
  5
2EA
330
1F
100
AcDbEntity
  8
0
  6
Continuous
370
    13
100
AcDbCircle
 10
-317.6390895040105
 20
1099.561754775241
 30
0.0
 40
80.00000000000007
  0
CIRCLE
  5
2EB
330
1F
100
AcDbEntity
  8
0
  6
Continuous
370
    13
100
AcDbCircle
 10
-377.6390895040111
 20
1349.561754775241
 30
0.0
 40
20.0246416865475
  0
CIRCLE
  5
2EC
330
1F
100
AcDbEntity
  8
0
  6
Continuous
370
    13
100
AcDbCircle
 10
-257.63908950401
 20
1349.561754775241
 30
0.0
 40
20.0246416865475
  0
CIRCLE
  5
2ED
330
1F
100
AcDbEntity
  8
0
  6
Continuous
370
    13
100
AcDbCircle
 10
-1607.972539759114
 20
728.0000000000484
 30
0.0
 40
5.000000000000004
  0
CIRCLE
  5
2EE
330
1F
100
AcDbEntity
  8
0
  6
Continuous
370
    13
100
AcDbCircle
 10
-1457.972539759114
 20
728.0000000000484
 30
0.0
 40
5.000000000000004
  0
CIRCLE
  5
2EF
330
1F
100
AcDbEntity
  8
0
  6
Continuous
370
    13
100
AcDbCircle
 10
-1271.418472760743
 20
728.0000000000484
 30
0.0
 40
5.000000000000004
  0
CIRCLE
  5
2F0
330
1F
100
AcDbEntity
  8
0
  6
Continuous
370
    13
100
AcDbCircle
 10
-805.8597062472796
 20
728.0000000000484
 30
0.0
 40
5.000000000000004
  0
CIRCLE
  5
2F1
330
1F
100
AcDbEntity
  8
0
  6
Continuous
370
    13
100
AcDbCircle
 10
-319.3056392489084
 20
728.0000000000484
 30
0.0
 40
5.000000000000004
  0
CIRCLE
  5
2F2
330
1F
100
AcDbEntity
  8
0
  6
Continuous
370
    13
100
AcDbCircle
 10
-469.3056392489088
 20
728.0000000000484
 30
0.0
 40
5.000000000000004
  0
CIRCLE
  5
2F3
330
1F
100
AcDbEntity
  8
0
  6
Continuous
370
    13
100
AcDbCircle
 10
-619.3056392489092
 20
728.0000000000484
 30
0.0
 40
5.000000000000004
  0
CIRCLE
  5
2F4
330
1F
100
AcDbEntity
  8
0
  6
Continuous
370
    35
100
AcDbCircle
 10
-2292.48242490497
 20
841.9238592772363
 30
0.0
 40
13.57250779642725
  0
CIRCLE
  5
2F5
330
1F
100
AcDbEntity
  8
0
  6
Continuous
370
    13
100
AcDbCircle
 10
-1765.639089504012
 20
827.5617547752411
 30
0.0
 40
6.999999999999673
  0
CIRCLE
  5
2F6
330
1F
100
AcDbEntity
  8
0
  6
Continuous
370
    13
100
AcDbCircle
 10
-1711.63908950401
 20
827.5617547752411
 30
0.0
 40
6.999999999999673
  0
CIRCLE
  5
2F7
330
1F
100
AcDbEntity
  8
0
  6
Continuous
370
    13
100
AcDbCircle
 10
-344.6390895040116
 20
827.5617547752411
 30
0.0
 40
6.999999999999673
  0
CIRCLE
  5
2F8
330
1F
100
AcDbEntity
  8
0
  6
Continuous
370
    13
100
AcDbCircle
 10
-290.6390895040095
 20
827.5617547752411
 30
0.0
 40
6.999999999999673
  0
CIRCLE
  5
2F9
330
1F
100
AcDbEntity
  8
0
  6
Continuous
370
    13
100
AcDbCircle
 10
-951.6576864198325
 20
827.5617547752411
 30
0.0
 40
6.999999999999673
  0
CIRCLE
  5
2FA
330
1F
100
AcDbEntity
  8
0
  6
Continuous
370
    13
100
AcDbCircle
 10
-1125.620492588191
 20
827.5617547752411
 30
0.0
 40
6.999999999999673
  0
MTEXT
  5
2FB
330
1F
100
AcDbEntity
  8
0
  6
Continuous
370
    13
100
AcDbMText
 10
-2226.614844847097
 20
1336.816384811323
 30
0.0
 40
30.0
 41
0.0
 71
     1
 72
     1
  1
{\LLEGENDA:}
  7
GENERATED_STYLE_1
 73
     1
 44
1.0
  0
MTEXT
  5
2FC
330
1F
100
AcDbEntity
  8
0
  6
Continuous
370
    13
100
AcDbMText
 10
-2163.9993789563
 20
1111.659662016316
 30
0.0
 40
20.0
 41
0.0
 71
     1
 72
     1
  1
{- SZNUR POLIETYLENOWY}
  7
GENERATED_STYLE_1
 73
     1
 44
1.0
  0
MTEXT
  5
2FE
330
1F
100
AcDbEntity
  8
0
  6
Continuous
370
    13
100
AcDbMText
 10
-2163.9993789563
 20
1252.259374321715
 30
0.0
 40
20.0
 41
0.0
 71
     4
 72
     1
  1
\A1;{\fArial|b0|i0|c238|p38;- SILIKON BASENOWY \fArial|b1|i0|c238|p38;BOTAMENT S3}
  7
GENERATED_STYLE_1
 73
     1
 44
1.0
  0
MTEXT
  5
2FF
330
1F
100
AcDbEntity
  8
0
  6
Continuous
370
    13
100
AcDbMText
 10
-2163.9993789563
 20
1167.227510821246
 30
0.0
 40
20.0
 41
0.0
 71
     4
 72
     1
  1
\A1;{\fArial|b0|i0|c238|p38;- TAŚMA USZCZELNIAJĄCA - \fArial|b1|i0|c238|p38;BOTAMENT SB78\P\fArial|b0|i0|c238|p38;  (wtopiona w warstwę izolacji)}
  7
GENERATED_STYLE_1
 73
     1
 44
0.9186980100444315
  0
MTEXT
  5
300
330
1F
100
AcDbEntity
  8
0
  6
Continuous
370
    13
100
AcDbMText
 10
-2163.9993789563
 20
1041.43680079213
 30
0.0
 40
20.0
 41
0.0
 71
     4
 72
     1
  1
{- ODWODNIENIE LINIOWE}
  7
GENERATED_STYLE_1
 73
     1
 44
1.0
  0
MTEXT
  5
301
330
1F
100
AcDbEntity
  8
0
  6
Continuous
370
    50
100
AcDbMText
 10
-2224.23764533086
 20
1715.866992977748
 30
0.0
 40
20.0
 41
0.0
 71
     1
 72
     1
  3
\A1;{\fArial|b1|i0|c238|p38;ŚCIANA\fArial|b0|i0|c238|p38; (krótkotrwałe obciążenie agresywnymi mediami)\P• PŁYTKI CHEMOODPORNE\P• WYPEŁNIENIE\C244; \C256;SPOIN -FUGA CHEMOODPORNA\P  \fArial|b1|i0|c238|p38;BOTAMENT CF200\fArial|b0|i0|c238|p38; / \fAr
  3
ial|b1|i0|c238|p38;MULTIFUGE Diamond MAX\P\fArial|b0|i0|c238|p38;• KLEJ DO PŁYTEK - \fArial|b1|i0|c238|p38;BOTAMENT M21 \fArial|b0|i0|c238|p38;/\fArial|b1|i0|c238|p38; M21 HP\P\fArial|b0|i0|c238|p38;• IZOLACJA PRZECIWWILGOCIOWA - MEMBRANA \P  USZCZE
  3
LNIAJĄCO-KOMPENSUJĄCA \fArial|b1|i0|c238|p38;BOTAMENT AE \P  \fArial|b0|i0|c238|p38;MOCOWANA NA KLEJ ELASTYCZNY\P  \fArial|b1|i0|c238|p38;BOTAMENT M21 / M21 HP Speed\fArial|b0|i0|c238|p38; lub \P  ZAPRAWA USZCZELNIAJĄCA \fArial|b1|i0|c238|p38;BOTAME
  1
NT MD28\P\fArial|b0|i0|c238|p38;• WARSTWA GRUNTUJĄCA - \fArial|b1|i0|c238|p38;BOTAMENT D11 / D1 Speed}
  7
GENERATED_STYLE_2
 73
     1
 44
0.9318980221170465
  0
MTEXT
  5
302
330
1F
100
AcDbEntity
  8
0
  6
Continuous
370
    13
100
AcDbMText
 10
-1304.479763446006
 20
897.0807818181127
 30
0.0
 40
20.0
 41
0.0
 71
     1
 72
     1
  1
{1,5 %}
  7
GENERATED_STYLE_1
 73
     1
 44
1.0
  0
MTEXT
  5
303
330
1F
100
AcDbEntity
  8
0
  6
Continuous
370
    13
100
AcDbMText
 10
-843.0841298477322
 20
897.0807818181125
 30
0.0
 40
20.0
 41
0.0
 71
     1
 72
     1
  1
{1,5 %}
  7
GENERATED_STYLE_1
 73
     1
 44
1.0
  0
MTEXT
  5
304
330
1F
100
AcDbEntity
  8
0
  6
Continuous
370
    13
100
AcDbMText
 10
-1412.940070911089
 20
1710.426992977748
 30
0.0
 40
20.0
 41
0.0
 71
     1
 72
     1
  3
\A1;{\fArial|b1|i0|c238|p38;PODŁOGA\fArial|b0|i0|c238|p38; (krótkotrwałe obciążenie agresywnymi mediami)\P• PŁYTKI CHEMOODPORNE, ANTYPOŚLIZGOWE,\P• WYPEŁNIENIE SPOIN - FUGA CHEMOODPORNA\P  \fArial|b1|i0|c238|p38;BOTAMENT CF200 \fArial|b0|i0|c238|p38
  3
; / \fArial|b1|i0|c238|p38;MULTIFUGE Diamond MAX\P\fArial|b0|i0|c238|p38;• KLEJ DO PŁYTEK - \fArial|b1|i0|c238|p38;BOTAMENT M29 / M29 HP \fArial|b0|i0|c238|p38;(elastyczny, rozpływny)\P• IZOLACJA PRZECIWWILGOCIOWA - MEMBRANA \P  USZCZELNIAJĄCO-KOMPE
  3
NSUJĄCA \fArial|b1|i0|c238|p38;BOTAMENT AE\fArial|b0|i0|c238|p38; \P  MOCOWANA NA KLEJ ELSTYCZNY\P  \fArial|b1|i0|c238|p38;BOTAMENT M21 / M21 HP Speed \fArial|b0|i0|c238|p38;lub \P  ZAPRAWA USZCZELNIAJĄCA \fArial|b1|i0|c238|p38;BOTAMENT MD28\P\fAria
  3
l|b0|i0|c238|p38;• WARSTWA GRUNTUJĄCA - \fArial|b1|i0|c238|p38;BOTAMENT D11 / D1 Speed\P\fArial|b0|i0|c238|p38;• JASTRYCH CEMENTOWY \fArial|b1|i0|c238|p38;BOTAMENT M54FM \fArial|b0|i0|c238|p38;(zbrojony siatką stal.)\P• WARSTWA ROZDZIELAJĄCA - \fAri
  3
al|b1|i0|c238|p38;FOLIA PE\P\fArial|b0|i0|c238|p38;• IZOLACJA PRZECIWWILGOCIOWA \fArial|b1|i0|c238|p38;BOTAMENT BM 92 Schnell\fArial|b0|i0|c238|p38; \P  lub \fArial|b1|i0|c238|p38;BOTAMENT RD 2 The Green 1\fArial|b0|i0|c238|p38; (bez warstwy gruntuj
  1
acej)\P• WARSTWA GRUNTUJĄCA - \fArial|b1|i0|c238|p38;BOTAMENT BE 901 Plus\P\fArial|b0|i0|c238|p38;• CHUDY BETON\P• PODSYPKA PIASKOWA ZAGĘSZCZONA\P• GRUNT RODZIMY}
  7
GENERATED_STYLE_2
 73
     1
 44
0.9257449675474958
  0
MTEXT
  5
305
330
1F
100
AcDbEntity
  8
@__WIDOCZNE
  6
Continuous
370
    13
100
AcDbMText
 10
-888.2185859206402
 20
78.2495978842324
 30
0.0
 40
27.99999999999998
 41
0.0
 71
     5
 72
     1
  1
\A1;{\fArial|b1|i0|c238|p38;OKŁADZINY I IZOLACJE CHEMOODPORNE\P\fArial|b0|i0|c238|p38;(myjnie samochodowe, itp.)}
  7
GENERATED_STYLE_2
 73
     1
 44
0.9222101744933433
  0
MTEXT
  5
306
330
1F
100
AcDbEntity
  8
@__WIDOCZNE
  6
Continuous
370
    13
100
AcDbMText
 10
-409.9999999999455
 20
22.91434621412435
 30
0.0
 40
39.99999999999997
 41
0.0
 71
     7
 72
     1
  1
{ 10.03.00. }
  7
GENERATED_STYLE_2
 73
     1
 44
1.0
  0
MTEXT
  5
307
330
1F
100
AcDbEntity
  8
@__WIDOCZNE
  6
Continuous
370
    13
100
AcDbMText
 10
-409.8744154121667
 20
116.0000130985187
 30
0.0
 40
15.0
 41
0.0
 71
     1
 72
     1
  1
{ nr rys:}
  7
GENERATED_STYLE_1
 73
     1
 44
1.0
  0
MTEXT
  5
308
330
1F
100
AcDbEntity
  8
@__WIDOCZNE
  6
Continuous
370
    13
100
AcDbMText
 10
-384.2857142859431
 20
156.571428571476
 30
0.0
 40
15.0
 41
0.0
 71
     2
 72
     1
  1
{ data:}
  7
GENERATED_STYLE_1
 73
     1
 44
1.0
  0
MTEXT
  5
309
330
1F
100
AcDbEntity
  8
@__WIDOCZNE
  6
Continuous
370
    13
100
AcDbMText
 10
-210.4285714286565
 20
156.571428571476
 30
0.0
 40
15.0
 41
0.0
 71
     2
 72
     1
  1
{ skala:}
  7
GENERATED_STYLE_1
 73
     1
 44
1.0
  0
MTEXT
  5
30A
330
1F
100
AcDbEntity
  8
@__WIDOCZNE
  6
Continuous
370
    13
100
AcDbMText
 10
-178.5716592711405
 20
126.4371586762066
 30
0.0
 40
20.0
 41
0.0
 71
     7
 72
     1
  1
{1:10  }
  7
GENERATED_STYLE_1
 73
     1
 44
1.0
  0
MTEXT
  5
30B
330
1F
100
AcDbEntity
  8
@__WIDOCZNE
  6
Continuous
370
    13
100
AcDbMText
 10
-1353.999999999905
 20
-21.58548328397653
 30
0.0
 40
15.0
 41
0.0
 71
     4
 72
     1
  1
{Rysunek nie wyczerpuje wszystkich aspektów technicznych zagadnienia, a jego integralną częścią są karty techniczne \Pposzczególnych produktów. Szczegółowych informacji udzielają technicy zastosowań i doradcy handlowo-techniczni Botament. }
  7
GENERATED_STYLE_1
 73
     1
 44
0.9278263558916976
  0
MTEXT
  5
30C
330
1F
100
AcDbEntity
  8
@__WIDOCZNE
  6
Continuous
370
    13
100
AcDbMText
 10
-354.1033648816249
 20
126.437226536415
 30
0.0
 40
20.0
 41
0.0
 71
     7
 72
     1
  1
{2023.01. }
  7
GENERATED_STYLE_1
 73
     1
 44
1.0
  0
MTEXT
  5
30D
330
1F
100
AcDbEntity
  8
@__WIDOCZNE
  6
Continuous
370
    13
100
AcDbMText
 10
-1632.384354501668
 20
-19.73042995344108
 30
0.0
 40
15.0
 41
0.0
 71
     5
 72
     1
  1
{ ul. Prądzyńskiego 20, 63-000 Środa Wlkp., botament.pl\P +48 606-318-643, 61-286-45-17, technik@botament.pl  }
  7
GENERATED_STYLE_1
 73
     1
 44
0.9181612291118325
  0
MTEXT
  5
30E
330
1F
100
AcDbEntity
  8
@__WIDOCZNE
  6
Continuous
370
    50
100
AcDbMText
 10
-2802.221558997933
 20
1756.4373369982
 30
0.0
 40
20.0
 41
0.0
 71
     9
 72
     1
  1
{druk: 230131 }
  7
GENERATED_STYLE_1
 73
     1
 44
1.0
  0
WIPEOUT
  5
310
330
1F
100
AcDbEntity
  8
@__WIDOCZNE
  6
Wipeout_Contour
 62
   254
 48
3795.431104784924
370
     0
 92
      140
310
8C000000010000008400000006000000050000009B37F5DA1CBD85C060DD0057AEC0734000000000000000009B37F5DA1CBD85C01D29F8A8F5C88B4000000000000000009D37F5DA1CED85C01D29F8A8F5C88B4000000000000000009D37F5DA1CED85C060DD0057AEC0734000000000000000009B37F5DA1CBD85C060DD00
310
57AEC073400000000000000000
100
AcDbWipeout
 90
        0
 10
-701.6390895040128
 20
316.042563441637
 30
0.0
 11
6.000000000000227
 21
0.0
 31
0.0
 12
0.0
 22
573.0773877481239
 32
0.0
 13
1.0
 23
1.0
340
0
 70
    15
280
     1
281
    50
282
    50
283
     0
360
0
 71
     2
 91
        5
 14
0.5
 24
0.4999999999999999
 14
0.5
 24
-0.5000000000000001
 14
-0.5
 24
-0.5000000000000001
 14
-0.5
 24
0.4999999999999999
 14
0.5
 24
0.4999999999999999
  0
WIPEOUT
  5
311
330
1F
100
AcDbEntity
  8
@__WIDOCZNE
  6
Wipeout_Contour
 62
   254
 48
3855.4312026022
370
     0
 92
      140
310
8C00000001000000840000000600000005000000A737F5DA1C5D86C043EDC5E949AE73400000000000000000A737F5DA1C5D86C003A4F7123BC68B400000000000000000A937F5DA1C8D86C003A4F7123BC68B400000000000000000A937F5DA1C8D86C043EDC5E949AE73400000000000000000A737F5DA1C5D86C043EDC5
310
E949AE73400000000000000000
100
AcDbWipeout
 90
        0
 10
-721.6390895040141
 20
314.8930452090755
 30
0.0
 11
6.000000000000227
 21
0.0
 31
0.0
 12
0.0
 22
573.8857995620167
 32
0.0
 13
1.0
 23
1.0
340
0
 70
    15
280
     1
281
    50
282
    50
283
     0
360
0
 71
     2
 91
        5
 14
0.5
 24
0.4999999999999999
 14
0.5
 24
-0.5
 14
-0.5
 24
-0.5
 14
-0.5
 24
0.4999999999999999
 14
0.5
 24
0.4999999999999999
  0
WIPEOUT
  5
312
330
1F
100
AcDbEntity
  8
@__WIDOCZNE
  6
Wipeout_Contour
 62
   254
 48
6037.387651671715
370
     0
 92
      140
310
8C00000001000000840000000600000005000000CE9B7A6D8E2E95C062DD0057AEC073400000000000000000CE9B7A6D8E2E95C01E29F8A8F5C88B400000000000000000CF9B7A6D8E4695C01E29F8A8F5C88B400000000000000000CF9B7A6D8E4695C062DD0057AEC073400000000000000000CE9B7A6D8E2E95C062DD00
310
57AEC073400000000000000000
100
AcDbWipeout
 90
        0
 10
-1361.639089504013
 20
316.0425634416371
 30
0.0
 11
6.000000000000227
 21
0.0
 31
0.0
 12
0.0
 22
573.0773877481239
 32
0.0
 13
1.0
 23
1.0
340
0
 70
    15
280
     1
281
    50
282
    50
283
     0
360
0
 71
     2
 91
        5
 14
0.4999999999999811
 24
0.5000000000000001
 14
0.4999999999999811
 24
-0.4999999999999999
 14
-0.500000000000019
 24
-0.4999999999999999
 14
-0.500000000000019
 24
0.5000000000000001
 14
0.4999999999999811
 24
0.5000000000000001
  0
WIPEOUT
  5
313
330
1F
100
AcDbEntity
  8
@__WIDOCZNE
  6
Wipeout_Contour
 62
   254
 48
6109.019632691895
370
     0
 92
      140
310
8C00000001000000840000000600000005000000D49B7A6D8E7E95C047EDC5E949AE73400000000000000000D49B7A6D8E7E95C005A4F7123BC68B400000000000000000D59B7A6D8E9695C005A4F7123BC68B400000000000000000D59B7A6D8E9695C047EDC5E949AE73400000000000000000D49B7A6D8E7E95C047EDC5
310
E949AE73400000000000000000
100
AcDbWipeout
 90
        0
 10
-1381.639089504014
 20
314.8930452090756
 30
0.0
 11
6.000000000000227
 21
0.0
 31
0.0
 12
0.0
 22
573.8857995620167
 32
0.0
 13
1.0
 23
1.0
340
0
 70
    15
280
     1
281
    50
282
    50
283
     0
360
0
 71
     2
 91
        5
 14
0.4999999999999811
 24
0.4999999999999999
 14
0.4999999999999811
 24
-0.5
 14
-0.500000000000019
 24
-0.5
 14
-0.500000000000019
 24
0.4999999999999999
 14
0.4999999999999811
 24
0.4999999999999999
  0
WIPEOUT
  5
314
330
1F
100
AcDbEntity
  8
@__WIDOCZNE
  6
Wipeout_Contour
 62
   254
 48
12225.1023007317
370
     0
 92
      140
310
8C00000001000000840000000600000005000000BCB1E01AB2D3A5C058F53762FEBF9A400000000000000000248B9B0B0CA1A1C058F53762FEBF9A400000000000000000248B9B0B0CA1A1C059F53762FED79A400000000000000000BCB1E01AB2D3A5C059F53762FED79A400000000000000000BCB1E01AB2D3A5C058F537
310
62FEBF9A400000000000000000
100
AcDbWipeout
 90
        0
 10
-2793.847861310669
 20
1711.998421549177
 30
0.0
 11
537.3243352517711
 21
0.0
 31
0.0
 12
0.0
 22
6.000000000000227
 32
0.0
 13
1.0
 23
1.0
340
0
 70
    15
280
     1
281
    50
282
    50
283
     0
360
0
 71
     2
 91
        5
 14
-0.5
 24
0.4999999999999811
 14
0.5
 24
0.4999999999999811
 14
0.5
 24
-0.500000000000019
 14
-0.5
 24
-0.500000000000019
 14
-0.5
 24
0.4999999999999811
  0
WIPEOUT
  5
315
330
1F
100
AcDbEntity
  8
@__WIDOCZNE
  6
Wipeout_Contour
 62
   254
 48
7054.571328912085
370
     0
 92
      140
310
8C0000000100000084000000060000000500000078C93E89CE517FC057F53762FECB9A400000000000000000CA0CD4810AFF61C057F53762FECB9A400000000000000000CA0CD4810AFF61C05F81505ED11B9B40000000000000000078C93E89CE517FC05F81505ED11B9B40000000000000000078C93E89CE517FC057F537
310
62FECB9A400000000000000000
100
AcDbWipeout
 90
        0
 10
-501.1129238560311
 20
1714.998421549177
 30
0.0
 11
357.1428912459389
 21
0.0
 31
0.0
 12
0.0
 22
19.9560397944897
 32
0.0
 13
1.0
 23
1.0
340
0
 70
    15
280
     1
281
    50
282
    50
283
     0
360
0
 71
     2
 91
        5
 14
-0.5000000000000001
 24
0.5
 14
0.4999999999999999
 24
0.5
 14
0.4999999999999999
 24
-0.5
 14
-0.5000000000000001
 24
-0.5
 14
-0.5000000000000001
 24
0.5
  0
WIPEOUT
  5
316
330
1F
100
AcDbEntity
  8
@__WIDOCZNE
  6
Wipeout_Contour
 62
   254
 48
2525.390921368421
370
     0
 92
      140
310
8C0000000100000084000000060000000500000073DED46B739464C060DD0057AEC07340000000000000000073DED46B739464C01D29F8A8F5C88B4000000000000000007BDED46B735465C01D29F8A8F5C88B4000000000000000007BDED46B735465C060DD0057AEC07340000000000000000073DED46B739464C060DD00
310
57AEC073400000000000000000
100
AcDbWipeout
 90
        0
 10
-170.639089504013
 20
316.042563441637
 30
0.0
 11
6.000000000000227
 21
0.0
 31
0.0
 12
0.0
 22
573.0773877481239
 32
0.0
 13
1.0
 23
1.0
340
0
 70
    15
280
     1
281
    50
282
    50
283
     0
360
0
 71
     2
 91
        5
 14
0.5
 24
0.4999999999999999
 14
0.5
 24
-0.5000000000000001
 14
-0.5
 24
-0.5000000000000001
 14
-0.5
 24
0.4999999999999999
 14
0.5
 24
0.4999999999999999
  0
WIPEOUT
  5
317
330
1F
100
AcDbEntity
  8
@__WIDOCZNE
  6
Wipeout_Contour
 62
   254
 48
11889.96956355714
370
     0
 92
      140
310
8C00000001000000840000000600000005000000E44DBD3647A5A6C000EFA697B28F3FC00000000000000000E44DBD3647A5A6C0228B691C99A98C400000000000000000E44DBD3647B1A6C0228B691C99A98C400000000000000000E44DBD3647B1A6C000EFA697B28F3FC00000000000000000E44DBD3647A5A6C000EFA6
310
97B28F3FC00000000000000000
100
AcDbWipeout
 90
        0
 10
-2904.639089504011
 20
-31.56131885362174
 30
0.0
 11
6.0
 21
0.0
 31
0.0
 12
0.0
 22
948.7610800769937
 32
0.0
 13
1.0
 23
1.0
340
0
 70
    15
280
     1
281
    50
282
    50
283
     0
360
0
 71
     2
 91
        5
 14
0.5
 24
0.5
 14
0.5
 24
-0.5
 14
-0.5
 24
-0.5
 14
-0.5
 24
0.5
 14
0.5
 24
0.5
  0
WIPEOUT
  5
318
330
1F
100
AcDbEntity
  8
@__WIDOCZNE
  6
Wipeout_Contour
 62
   254
 48
7839.740457510904
370
     0
 92
      140
310
8C0000000100000084000000060000000500000044EB6D0BC9D29DC0B067D97277B58F400000000000000000BEF3AAA0DA5F96C0B067D97277B58F400000000000000000BEF3AAA0DA5F96C0B267D97277E58F40000000000000000044EB6D0BC9D29DC0B267D97277E58F40000000000000000044EB6D0BC9D29DC0B067D9
310
7277B58F400000000000000000
100
AcDbWipeout
 90
        0
 10
-1908.696332662091
 20
1014.683324526288
 30
0.0
 11
476.7328291381432
 21
0.0
 31
0.0
 12
0.0
 22
6.000000000000227
 32
0.0
 13
1.0
 23
1.0
340
0
 70
    15
280
     1
281
    50
282
    50
283
     0
360
0
 71
     2
 91
        5
 14
-0.5
 24
0.5
 14
0.5
 24
0.5
 14
0.5
 24
-0.5
 14
-0.5
 24
-0.5
 14
-0.5
 24
0.5
  0
WIPEOUT
  5
319
330
1F
100
AcDbEntity
  8
@__WIDOCZNE
  6
Wipeout_Contour
 62
   254
 48
11516.0426956615
370
     0
 92
      140
310
8C00000001000000840000000600000005000000E936BBF0F133A5C0A901000000E085400000000000000000ED36BBF0F147A5C0A901000000E085400000000000000000ED36BBF0F147A5C030EA0153E3E591400000000000000000E936BBF0F133A5C030EA0153E3E591400000000000000000E936BBF0F133A5C0A90100
310
0000E085400000000000000000
100
AcDbWipeout
 90
        0
 10
-2723.972539759116
 20
700.0000000000483
 30
0.0
 11
10.00000000000182
 21
0.0
 31
0.0
 12
0.0
 22
445.4719963358574
 32
0.0
 13
1.0
 23
1.0
340
0
 70
    15
280
     1
281
    50
282
    50
283
     0
360
0
 71
     2
 91
        5
 14
0.5
 24
0.4999999999999999
 14
-0.5
 24
0.4999999999999999
 14
-0.5
 24
-0.5000000000000001
 14
0.5
 24
-0.5000000000000001
 14
0.5
 24
0.4999999999999999
  0
WIPEOUT
  5
31A
330
1F
100
AcDbEntity
  8
@__WIDOCZNE
  6
Wipeout_Contour
 62
   254
 48
21668.45716020419
370
     0
 92
      236
310
EC00000001000000E40000000600000009000000EC36BBF0F10FA4C095D05C1AB32C7840000000000000000053B4F5C3290EA4C030EA0153E3E59140000000000000000056B4F5C32922A4C030EA0153E3E59140000000000000000056B4F5C32922A4C088E74F9E8C9378400000000000000000F336BBF0F123A5C0E46B41
310
16646470400000000000000000B8CC72430822A5C0201ADA5F86AD4A400000000000000000A0F38A88AE15A5C0807A0FF0CEA74A400000000000000000C66CD091B112A5C02EC6E5CA5B3E70400000000000000000EC36BBF0F10FA4C095D05C1AB32C78400000000000000000
100
AcDbWipeout
 90
        0
 10
-2705.972539759119
 20
53.31100273853098
 30
0.0
 11
138.8909665796236
 21
0.0
 31
0.0
 12
0.0
 22
1092.160993597375
 32
0.0
 13
1.0
 23
1.0
340
0
 70
    15
280
     1
281
    50
282
    50
283
     0
360
0
 71
     2
 91
        9
 14
0.4935851365890691
 24
0.1946579070946232
 14
0.5
 24
-0.5
 14
0.428001077058755
 24
-0.5
 14
0.428001077058755
 24
0.188772232372468
 14
-0.5
 24
0.3086697531100875
 14
-0.493114021797525
 24
0.4999591080951949
 14
-0.4486528573743358
 24
0.5
 14
-0.4378957150865477
 24
0.3108461950503523
 14
0.4935851365890691
 24
0.1946579070946232
  0
WIPEOUT
  5
31B
330
1F
100
AcDbEntity
  8
@__WIDOCZNE
  6
Wipeout_Contour
 62
   254
 48
9504.414890442498
370
     0
 92
      140
310
8C00000001000000840000000600000005000000EB36BBF0F12FA2C0FC195CD44EB283400000000000000000ED36BBF0F11FA2C0FC195CD44EB283400000000000000000ED36BBF0F11FA2C053030000004073400000000000000000EB36BBF0F12FA2C053030000004073400000000000000000EB36BBF0F12FA2C0FC195C
310
D44EB283400000000000000000
100
AcDbWipeout
 90
        0
 10
-2327.972539759115
 20
308.0000000000484
 30
0.0
 11
7.999999999999091
 21
0.0
 31
0.0
 12
0.0
 22
322.2884909815714
 32
0.0
 13
1.0
 23
1.0
340
0
 70
    15
280
     1
281
    50
282
    50
283
     0
360
0
 71
     2
 91
        5
 14
-0.5
 24
-0.4999999999999999
 14
0.5
 24
-0.4999999999999999
 14
0.5
 24
0.5000000000000001
 14
-0.5
 24
0.5000000000000001
 14
-0.5
 24
-0.4999999999999999
  0
LINE
  5
31C
330
1F
100
AcDbEntity
  8
Linia Izolacji - ARCHICAD
  6
IZOLACJA CIENKA
370
    35
100
AcDbLine
 10
-2719.972539759116
 20
1150.000000000048
 30
0.0
 11
-2719.972539759116
 21
700.0000000000483
 31
0.0
  0
LINE
  5
31D
330
1F
100
AcDbEntity
  8
Linia Izolacji - ARCHICAD
  6
IZOLACJA CIENKA
370
    35
100
AcDbLine
 10
-2571.972539759115
 20
392.5853946336823
 30
0.0
 11
-2571.972539759115
 21
1150.000000000048
 31
0.0
  0
LINE
  5
31E
330
1F
100
AcDbEntity
  8
Linia Izolacji - ARCHICAD
  6
IZOLACJA CIENKA
370
    35
100
AcDbLine
 10
-2701.972539759116
 20
49.68515385774855
 30
0.0
 11
-2701.972539759116
 21
258.9700665061708
 31
0.0
  0
LINE
  5
31F
330
1F
100
AcDbEntity
  8
Linia Izolacji - ARCHICAD
  6
IZOLACJA CIENKA
370
    35
100
AcDbLine
 10
-2700.800966883863
 20
262.1001132594449
 30
0.0
 11
-2573.144112634369
 21
389.756967508936
 31
0.0
  0
LINE
  5
320
330
1F
100
AcDbEntity
  8
Linia Izolacji - ARCHICAD
  6
IZOLACJA CIENKA
370
    35
100
AcDbLine
 10
-2323.972539759116
 20
308.0000000000484
 30
0.0
 11
-2323.972539759116
 21
636.0406833351765
 31
0.0
  0
LINE
  5
321
330
1F
100
AcDbEntity
  8
0
  6
Continuous
 62
    22
370
    50
100
AcDbLine
 10
-2289.972539759115
 20
813.0000000000483
 30
0.0
 11
-2198.181542184692
 21
813.0000000000483
 31
0.0
  0
LINE
  5
322
330
1F
100
AcDbEntity
  8
0
  6
Continuous
 62
    22
370
    50
100
AcDbLine
 10
-1126.657686419831
 20
782.9542882074359
 30
0.0
 11
-1126.657686419831
 21
813.0000000000483
 31
0.0
  0
LINE
  5
323
330
1F
100
AcDbEntity
  8
0
  6
Continuous
 62
    22
370
    50
100
AcDbLine
 10
-950.6204925881918
 20
782.9542882074359
 30
0.0
 11
-950.6204925881918
 21
813.0000000000483
 31
0.0
  0
LINE
  5
324
330
1F
100
AcDbEntity
  8
0
  6
Continuous
 62
    22
370
    50
100
AcDbLine
 10
-2319.972539759114
 20
843.0000000000484
 30
0.0
 11
-2319.972539759114
 21
938.4938775510687
 31
0.0
  0
LINE
  5
325
330
1F
100
AcDbEntity
  8
0
  6
Continuous
 62
    22
370
    50
100
AcDbLine
 10
-1126.657686419831
 20
813.0000000000483
 30
0.0
 11
-1197.678745457913
 21
813.0000000000483
 31
0.0
  0
LINE
  5
326
330
1F
100
AcDbEntity
  8
0
  6
Continuous
 62
    22
370
    50
100
AcDbLine
 10
-950.6204925881918
 20
813.0000000000483
 30
0.0
 11
-878.7512312592729
 21
813.0000000000483
 31
0.0
  0
LINE
  5
327
330
1F
100
AcDbEntity
  8
0
  6
Continuous
 62
    22
370
    50
100
AcDbLine
 10
-1126.657686419831
 20
723.9646116038521
 30
0.0
 11
-1126.657686419831
 21
662.0000000000482
 31
0.0
  0
LINE
  5
328
330
1F
100
AcDbEntity
  8
0
  6
Continuous
 62
    22
370
    50
100
AcDbLine
 10
-1126.657686419831
 20
662.0000000000482
 30
0.0
 11
-1087.782325960897
 21
662.0000000000482
 31
0.0
  0
LINE
  5
329
330
1F
100
AcDbEntity
  8
0
  6
Continuous
 62
    22
370
    50
100
AcDbLine
 10
-950.6204925881918
 20
725.2022438295171
 30
0.0
 11
-950.6204925881918
 21
662.0000000000482
 31
0.0
  0
LINE
  5
32A
330
1F
100
AcDbEntity
  8
0
  6
Continuous
 62
    22
370
    50
100
AcDbLine
 10
-950.6204925881918
 20
662.0000000000482
 30
0.0
 11
-990.0946392422303
 21
662.0000000000482
 31
0.0
  0
LINE
  5
32B
330
1F
100
AcDbEntity
  8
0
  6
Continuous
370
    13
100
AcDbLine
 10
-1131.657686419831
 20
709.8556042312694
 30
0.0
 11
-1167.198426980513
 21
709.8556042312694
 31
0.0
  0
CIRCLE
  5
32C
330
1F
100
AcDbEntity
  8
0
  6
Continuous
370
    13
100
AcDbCircle
 10
-1126.657686419831
 20
709.8556042312694
 30
0.0
 40
5.0
  0
HATCH
  5
32D
330
1F
100
AcDbEntity
  8
0
  6
Continuous
370
    13
100
AcDbHatch
 10
0.0
 20
0.0
 30
0.0
210
0.0
220
0.0
230
1.0
  2
SOLID
 70
     1
 71
     0
 91
        1
 92
        2
 72
     0
 73
     1
 93
       16
 10
-1121.657686419832
 20
709.8556042312694
 10
-1122.038288757275
 20
711.7690213930948
 10
-1123.122152513899
 20
713.3911381372021
 10
-1124.744269258006
 20
714.4750018938258
 10
-1126.657686419831
 20
714.8556042312694
 10
-1128.571103581657
 20
714.4750018938258
 10
-1130.193220325764
 20
713.3911381372021
 10
-1131.277084082388
 20
711.7690213930948
 10
-1131.657686419831
 20
709.8556042312694
 10
-1131.277084082388
 20
707.9421870694439
 10
-1130.193220325764
 20
706.3200703253366
 10
-1128.571103581657
 20
705.2362065687129
 10
-1126.657686419831
 20
704.8556042312694
 10
-1124.744269258006
 20
705.2362065687129
 10
-1123.122152513899
 20
706.3200703253366
 10
-1122.038288757275
 20
707.9421870694439
 97
        0
 75
     0
 76
     1
 98
        0
  0
LINE
  5
32E
330
1F
100
AcDbEntity
  8
0
  6
Continuous
370
    13
100
AcDbLine
 10
-881.7185367287431
 20
912.9489301204009
 30
0.0
 11
-897.9811062072642
 21
817.9283414895882
 31
0.0
  0
CIRCLE
  5
32F
330
1F
100
AcDbEntity
  8
0
  6
Continuous
370
    13
100
AcDbCircle
 10
-898.8245812587494
 20
813.0000000000481
 30
0.0
 40
5.0
  0
HATCH
  5
330
330
1F
100
AcDbEntity
  8
0
  6
Continuous
370
    13
100
AcDbHatch
 10
0.0
 20
0.0
 30
0.0
210
0.0
220
0.0
230
1.0
  2
SOLID
 70
     1
 71
     0
 91
        1
 92
        2
 72
     0
 73
     1
 93
       16
 10
-893.8245812587494
 20
813.0000000000481
 10
-894.2051835961929
 20
814.9134171618736
 10
-895.2890473528166
 20
816.5355339059809
 10
-896.9111640969239
 20
817.6193976626046
 10
-898.8245812587494
 20
818.0000000000481
 10
-900.7379984205749
 20
817.6193976626046
 10
-902.3601151646822
 20
816.5355339059809
 10
-903.4439789213059
 20
814.9134171618736
 10
-903.8245812587494
 20
813.0000000000481
 10
-903.4439789213059
 20
811.0865828382226
 10
-902.3601151646822
 20
809.4644660941153
 10
-900.7379984205749
 20
808.3806023374916
 10
-898.8245812587494
 20
808.0000000000481
 10
-896.9111640969239
 20
808.3806023374916
 10
-895.2890473528166
 20
809.4644660941153
 10
-894.2051835961929
 20
811.0865828382226
 97
        0
 75
     0
 76
     1
 98
        0
  0
LINE
  5
331
330
1F
100
AcDbEntity
  8
@__WIDOCZNE
  6
Przerywana gęsta
370
    13
100
AcDbLine
 10
-698.6390895040117
 20
877.7765520620361
 30
0.0
 11
-698.6390895040122
 21
316.042563441637
 31
0.0
  0
LINE
  5
332
330
1F
100
AcDbEntity
  8
@__WIDOCZNE
  6
Przerywana gęsta
370
    13
100
AcDbLine
 10
-718.6390895040122
 20
877.7765520620361
 30
0.0
 11
-718.6390895040126
 21
316.042563441637
 31
0.0
  0
LINE
  5
333
330
1F
100
AcDbEntity
  8
@__WIDOCZNE
  6
Przerywana gęsta
370
    13
100
AcDbLine
 10
-1358.639089504012
 20
877.7765520620362
 30
0.0
 11
-1358.639089504012
 21
316.0425634416371
 31
0.0
  0
LINE
  5
334
330
1F
100
AcDbEntity
  8
@__WIDOCZNE
  6
Przerywana gęsta
370
    13
100
AcDbLine
 10
-1378.639089504012
 20
877.7765520620362
 30
0.0
 11
-1378.639089504013
 21
316.0425634416371
 31
0.0
  0
LINE
  5
335
330
1F
100
AcDbEntity
  8
@__WIDOCZNE
  6
Przerywana gęsta
370
    13
100
AcDbLine
 10
-2260.500476938568
 20
1714.998421549177
 30
0.0
 11
-2792.465636561938
 21
1714.998421549177
 31
0.0
  0
LINE
  5
336
330
1F
100
AcDbEntity
  8
@__WIDOCZNE
  6
Przerywana gęsta
370
    13
100
AcDbLine
 10
-147.9469834897621
 20
1717.998421549176
 30
0.0
 11
-499.1286035122629
 21
1717.998421549176
 31
0.0
  0
LINE
  5
337
330
1F
100
AcDbEntity
  8
@__WIDOCZNE
  6
Przerywana gęsta
370
    13
100
AcDbLine
 10
-167.639089504012
 20
877.7765520620361
 30
0.0
 11
-167.6390895040124
 21
316.042563441637
 31
0.0
  0
LINE
  5
338
330
1F
100
AcDbEntity
  8
@__WIDOCZNE
  6
Przerywana gęsta
370
    13
100
AcDbLine
 10
-2901.63908950401
 20
905.8563620956472
 30
0.0
 11
-2901.63908950401
 21
-17.28194749371625
 31
0.0
  0
LINE
  5
339
330
1F
100
AcDbEntity
  8
@__WIDOCZNE
  6
Przerywana gęsta
370
    13
100
AcDbLine
 10
-1435.940454403617
 20
1017.683324526287
 30
0.0
 11
-1905.827572354438
 21
1017.683324526287
 31
0.0
  0
LINE
  5
33B
330
1F
100
AcDbEntity
  8
@__WIDOCZNE
  6
Kropki i Kreski
370
    25
100
AcDbLine
 10
-2447.972539759115
 20
-19.99999999995128
 30
0.0
 11
-2447.972539759115
 21
1740.335857973543
 31
0.0
  0
LINE
  5
33C
330
1F
100
AcDbEntity
  8
Linia Izolacji - ARCHICAD
  6
IZOLACJA CIENKA
370
    35
100
AcDbLine
 10
-2719.972539759116
 20
1150.000000000048
 30
0.0
 11
-2719.972539759116
 21
700.0000000000483
 31
0.0
  0
ARC
  5
33D
330
1F
100
AcDbEntity
  8
0
  6
Continuous
 62
    22
370
    50
100
AcDbCircle
 10
-2289.972539759115
 20
843.0000000000484
 30
0.0
 40
29.99999999999936
100
AcDbArc
 50
180.0
 51
270.0
  0
VIEWPORT
  5
5D
330
1B
100
AcDbEntity
 67
     1
  8
0
  6
Continuous
370
     0
100
AcDbViewport
 10
148.516614905612
 20
105.0345828568829
 30
0.0
 40
356.4398757734688
 41
252.082998856519
 68
     1
 69
     1
 12
148.516614905612
 22
105.0345828568829
 13
0.0
 23
0.0
 14
0.5
 24
0.5
 15
0.0
 25
0.0
 16
0.0
 26
0.0
 36
1.0
 17
0.0
 27
0.0
 37
0.0
 42
50.0
 43
0.0
 44
0.0
 45
252.082998856519
 50
0.0
 51
0.0
 72
   100
 90
   557152
  1

281
     0
 71
     1
 74
     0
110
0.0
120
0.0
130
0.0
111
1.0
121
0.0
131
0.0
112
0.0
122
1.0
132
0.0
 79
     0
146
0.0
170
     0
  0
INSERT
  5
344
102
{ACAD_XDICTIONARY
360
345
102
}
330
1B
100
AcDbEntity
 67
     1
  8
0
370
    13
100
AcDbBlockReference
  2
Rysunek_1
 10
0.0
 20
0.0
 30
0.0
  0
VIEWPORT
  5
348
330
1B
100
AcDbEntity
 67
     1
  8
NonPlottable_0
  6
Continuous
 62
    65
370
    20
100
AcDbViewport
 10
148.516614905612
 20
105.0345828568829
 30
0.0
 40
297.033229811224
 41
210.0691657137658
 68
     2
 69
     2
 12
0.0
 22
0.0
 13
0.0
 23
0.0
 14
0.5
 24
0.5
 15
0.0
 25
0.0
 16
0.0
 26
0.0
 36
1.0
 17
-1534.951592708637
 27
949.9242271157977
 37
0.0
 42
50.0
 43
0.0
 44
0.0
 45
2100.691657137658
 50
0.0
 51
0.0
 72
   100
 90
   622688
340
34A
  1

281
     0
 71
     1
 74
     0
110
0.0
120
0.0
130
0.0
111
1.0
121
0.0
131
0.0
112
0.0
122
1.0
132
0.0
 79
     0
146
0.0
170
     0
  0
LWPOLYLINE
  5
34A
102
{ACAD_REACTORS
330
348
102
}
330
1B
100
AcDbEntity
 67
     1
  8
NonPlottable_0
  6
Continuous
 62
    65
370
    20
100
AcDbPolyline
 90
        4
 70
   129
 43
0.0
 10
0.0
 20
0.0
 10
297.033229811224
 20
0.0
 10
297.033229811224
 20
210.0691657137658
 10
0.0
 20
210.0691657137658
  0
ENDSEC
  0
SECTION
  2
OBJECTS
  0
DICTIONARY
  5
C
330
0
100
AcDbDictionary
281
     1
  3
ACAD_GROUP
350
D
  3
ACAD_LAYOUT
350
1A
  3
ACAD_MLEADERSTYLE
350
351
  3
ACAD_MLINESTYLE
350
17
  3
ACAD_PLOTSETTINGS
350
19
  3
ACAD_PLOTSTYLENAME
350
E
  3
ACAD_SCALELIST
350
3B
  3
ACAD_TABLESTYLE
350
350
  3
ACAD_VISUALSTYLE
350
2A
  3
WATERMARKS
350
34E
  0
DICTIONARY
  5
345
330
344
100
AcDbDictionary
280
     1
281
     1
  3
ACAD_FILTER
360
346
  0
DICTIONARY
  5
D
102
{ACAD_REACTORS
330
C
102
}
330
C
100
AcDbDictionary
281
     1
  0
DICTIONARY
  5
1A
102
{ACAD_REACTORS
330
C
102
}
330
C
100
AcDbDictionary
281
     1
  3
02.04.2-20 ŚCIANA+PIWICA 10.03.
350
1E
  3
Layout2
350
26
  3
Model
350
22
  0
DICTIONARY
  5
351
102
{ACAD_REACTORS
330
C
102
}
330
C
100
AcDbDictionary
281
     1
  0
DICTIONARY
  5
17
102
{ACAD_REACTORS
330
C
102
}
330
C
100
AcDbDictionary
281
     1
  3
Standard
350
18
  0
DICTIONARY
  5
19
102
{ACAD_REACTORS
330
C
102
}
330
C
100
AcDbDictionary
281
     1
  0
ACDBDICTIONARYWDFLT
  5
E
102
{ACAD_REACTORS
330
C
102
}
330
C
100
AcDbDictionary
281
     1
  3
Normal
350
F
100
AcDbDictionaryWithDefault
340
F
  0
DICTIONARY
  5
3B
102
{ACAD_REACTORS
330
C
102
}
330
C
100
AcDbDictionary
281
     1
  3
A0
350
3C
  3
A1
350
3D
  3
A2
350
3E
  3
A3
350
3F
  3
A4
350
40
  3
A5
350
41
  3
A6
350
42
  3
A7
350
43
  3
A8
350
44
  3
A9
350
45
  3
B0
350
46
  3
B1
350
47
  3
B2
350
48
  3
B3
350
49
  3
B4
350
4A
  3
B5
350
4B
  3
B6
350
4C
  3
B7
350
4D
  3
B8
350
4E
  3
B9
350
4F
  3
C0
350
50
  3
C1
350
51
  3
C2
350
52
  3
C3
350
53
  3
C4
350
54
  3
C5
350
55
  3
C6
350
56
  3
C7
350
57
  3
C8
350
58
  3
C9
350
59
  3
D0
350
5A
  3
D1
350
5B
  3
D2
350
5C
  0
DICTIONARY
  5
350
102
{ACAD_REACTORS
330
C
102
}
330
C
100
AcDbDictionary
281
     1
  0
DICTIONARY
  5
2A
102
{ACAD_REACTORS
330
C
102
}
330
C
100
AcDbDictionary
281
     1
  3
2dWireframe
350
2F
  3
3D Hidden
350
31
  3
3dWireframe
350
30
  3
Basic
350
32
  3
Brighten
350
36
  3
ColorChange
350
3A
  3
Conceptual
350
34
  3
Dim
350
35
  3
Facepattern
350
39
  3
Flat
350
2B
  3
FlatWithEdges
350
2C
  3
Gouraud
350
2D
  3
GouraudWithEdges
350
2E
  3
Linepattern
350
38
  3
Realistic
350
33
  3
Thicken
350
37
  0
DICTIONARY
  5
34E
102
{ACAD_REACTORS
330
C
102
}
330
C
100
AcDbDictionary
281
     1
  3
AC_WATERMARK
350
34F
  0
DICTIONARY
  5
346
102
{ACAD_REACTORS
330
345
102
}
330
345
100
AcDbDictionary
280
     1
281
     1
  3
SPATIAL
360
347
  0
LAYOUT
  5
1E
102
{ACAD_REACTORS
330
1A
102
}
330
1A
100
AcDbPlotSettings
  1

  2
none_device
  4

  6

 40
0.0
 41
0.0
 42
0.0
 43
0.0
 44
297.0
 45
210.0
 46
0.0
 47
0.0
 48
0.0
 49
0.0
140
0.0
141
0.0
142
1.0
143
1.0
 70
   688
 72
     1
 73
     0
 74
     5
  7

 75
    16
 76
     0
 77
     2
 78
   300
147
1.0
148
0.0
149
0.0
100
AcDbLayout
  1
02.04.2-20 ŚCIANA+PIWICA 10.03.
 70
     0
 71
     1
 10
0.0
 20
0.0
 11
297.033229811224
 21
210.0691657137658
 12
0.0
 22
0.0
 32
0.0
 14
0.0
 24
0.0
 34
0.0
 15
297.033229811224
 25
210.0691657137658
 35
0.0
146
0.0
 13
0.0
 23
0.0
 33
0.0
 16
1.0
 26
0.0
 36
0.0
 17
0.0
 27
1.0
 37
0.0
 76
     0
330
1B
331
5D
  0
LAYOUT
  5
26
102
{ACAD_REACTORS
330
1A
102
}
330
1A
100
AcDbPlotSettings
  1

  2
none_device
  4

  6

 40
0.0
 41
0.0
 42
0.0
 43
0.0
 44
0.0
 45
0.0
 46
0.0
 47
0.0
 48
0.0
 49
0.0
140
0.0
141
0.0
142
1.0
143
1.0
 70
   688
 72
     0
 73
     0
 74
     5
  7

 75
    16
 76
     0
 77
     2
 78
   300
147
1.0
148
0.0
149
0.0
100
AcDbLayout
  1
Layout2
 70
     1
 71
     2
 10
0.0
 20
0.0
 11
0.0
 21
0.0
 12
0.0
 22
0.0
 32
0.0
 14
0.0
 24
0.0
 34
0.0
 15
0.0
 25
0.0
 35
0.0
146
0.0
 13
0.0
 23
0.0
 33
0.0
 16
1.0
 26
0.0
 36
0.0
 17
0.0
 27
1.0
 37
0.0
 76
     0
330
23
  0
LAYOUT
  5
22
102
{ACAD_REACTORS
330
1A
102
}
330
1A
100
AcDbPlotSettings
  1

  2
none_device
  4

  6

 40
0.0
 41
0.0
 42
0.0
 43
0.0
 44
0.0
 45
0.0
 46
0.0
 47
0.0
 48
0.0
 49
0.0
140
0.0
141
0.0
142
1.0
143
1.0
 70
  1712
 72
     0
 73
     0
 74
     0
  7

 75
     0
 76
     0
 77
     2
 78
   300
147
1.0
148
0.0
149
0.0
100
AcDbLayout
  1
Model
 70
     1
 71
     0
 10
0.0
 20
0.0
 11
12.0
 21
9.0
 12
0.0
 22
0.0
 32
0.0
 14
1.000000000000000E+20
 24
1.000000000000000E+20
 34
1.000000000000000E+20
 15
-1.000000000000000E+20
 25
-1.000000000000000E+20
 35
-1.000000000000000E+20
146
0.0
 13
0.0
 23
0.0
 33
0.0
 16
1.0
 26
0.0
 36
0.0
 17
0.0
 27
1.0
 37
0.0
 76
     0
330
1F
331
29
  0
MLINESTYLE
  5
18
102
{ACAD_REACTORS
330
17
102
}
330
17
100
AcDbMlineStyle
  2
Standard
 70
     0
  3

 62
   256
 51
90.0
 52
90.0
 71
     2
 49
0.5
 62
   256
  6
BYLAYER
 49
-0.5
 62
   256
  6
BYLAYER
  0
ACDBPLACEHOLDER
  5
F
102
{ACAD_REACTORS
330
E
102
}
330
E
  0
SCALE
  5
3C
102
{ACAD_REACTORS
330
3B
102
}
330
3B
100
AcDbScale
 70
     0
300
1:1
140
1.0
141
1.0
290
     1
  0
SCALE
  5
3D
102
{ACAD_REACTORS
330
3B
102
}
330
3B
100
AcDbScale
 70
     0
300
1:2
140
1.0
141
2.0
290
     0
  0
SCALE
  5
3E
102
{ACAD_REACTORS
330
3B
102
}
330
3B
100
AcDbScale
 70
     0
300
1:4
140
1.0
141
4.0
290
     0
  0
SCALE
  5
3F
102
{ACAD_REACTORS
330
3B
102
}
330
3B
100
AcDbScale
 70
     0
300
1:5
140
1.0
141
5.0
290
     0
  0
SCALE
  5
40
102
{ACAD_REACTORS
330
3B
102
}
330
3B
100
AcDbScale
 70
     0
300
1:8
140
1.0
141
8.0
290
     0
  0
SCALE
  5
41
102
{ACAD_REACTORS
330
3B
102
}
330
3B
100
AcDbScale
 70
     0
300
1:10
140
1.0
141
10.0
290
     0
  0
SCALE
  5
42
102
{ACAD_REACTORS
330
3B
102
}
330
3B
100
AcDbScale
 70
     0
300
1:16
140
1.0
141
16.0
290
     0
  0
SCALE
  5
43
102
{ACAD_REACTORS
330
3B
102
}
330
3B
100
AcDbScale
 70
     0
300
1:20
140
1.0
141
20.0
290
     0
  0
SCALE
  5
44
102
{ACAD_REACTORS
330
3B
102
}
330
3B
100
AcDbScale
 70
     0
300
1:30
140
1.0
141
30.0
290
     0
  0
SCALE
  5
45
102
{ACAD_REACTORS
330
3B
102
}
330
3B
100
AcDbScale
 70
     0
300
1:40
140
1.0
141
40.0
290
     0
  0
SCALE
  5
46
102
{ACAD_REACTORS
330
3B
102
}
330
3B
100
AcDbScale
 70
     0
300
1:50
140
1.0
141
50.0
290
     0
  0
SCALE
  5
47
102
{ACAD_REACTORS
330
3B
102
}
330
3B
100
AcDbScale
 70
     0
300
1:100
140
1.0
141
100.0
290
     0
  0
SCALE
  5
48
102
{ACAD_REACTORS
330
3B
102
}
330
3B
100
AcDbScale
 70
     0
300
2:1
140
2.0
141
1.0
290
     0
  0
SCALE
  5
49
102
{ACAD_REACTORS
330
3B
102
}
330
3B
100
AcDbScale
 70
     0
300
4:1
140
4.0
141
1.0
290
     0
  0
SCALE
  5
4A
102
{ACAD_REACTORS
330
3B
102
}
330
3B
100
AcDbScale
 70
     0
300
8:1
140
8.0
141
1.0
290
     0
  0
SCALE
  5
4B
102
{ACAD_REACTORS
330
3B
102
}
330
3B
100
AcDbScale
 70
     0
300
10:1
140
10.0
141
1.0
290
     0
  0
SCALE
  5
4C
102
{ACAD_REACTORS
330
3B
102
}
330
3B
100
AcDbScale
 70
     0
300
100:1
140
100.0
141
1.0
290
     0
  0
SCALE
  5
4D
102
{ACAD_REACTORS
330
3B
102
}
330
3B
100
AcDbScale
 70
     0
300
1/128" = 1'-0"
140
0.0078125
141
12.0
290
     0
  0
SCALE
  5
4E
102
{ACAD_REACTORS
330
3B
102
}
330
3B
100
AcDbScale
 70
     0
300
1/64" = 1'-0"
140
0.015625
141
12.0
290
     0
  0
SCALE
  5
4F
102
{ACAD_REACTORS
330
3B
102
}
330
3B
100
AcDbScale
 70
     0
300
1/32" = 1'-0"
140
0.03125
141
12.0
290
     0
  0
SCALE
  5
50
102
{ACAD_REACTORS
330
3B
102
}
330
3B
100
AcDbScale
 70
     0
300
1/16" = 1'-0"
140
0.0625
141
12.0
290
     0
  0
SCALE
  5
51
102
{ACAD_REACTORS
330
3B
102
}
330
3B
100
AcDbScale
 70
     0
300
3/32" = 1'-0"
140
0.09375
141
12.0
290
     0
  0
SCALE
  5
52
102
{ACAD_REACTORS
330
3B
102
}
330
3B
100
AcDbScale
 70
     0
300
1/8" = 1'-0"
140
0.125
141
12.0
290
     0
  0
SCALE
  5
53
102
{ACAD_REACTORS
330
3B
102
}
330
3B
100
AcDbScale
 70
     0
300
3/16" = 1'-0"
140
0.1875
141
12.0
290
     0
  0
SCALE
  5
54
102
{ACAD_REACTORS
330
3B
102
}
330
3B
100
AcDbScale
 70
     0
300
1/4" = 1'-0"
140
0.25
141
12.0
290
     0
  0
SCALE
  5
55
102
{ACAD_REACTORS
330
3B
102
}
330
3B
100
AcDbScale
 70
     0
300
3/8" = 1'-0"
140
0.375
141
12.0
290
     0
  0
SCALE
  5
56
102
{ACAD_REACTORS
330
3B
102
}
330
3B
100
AcDbScale
 70
     0
300
1/2" = 1'-0"
140
0.5
141
12.0
290
     0
  0
SCALE
  5
57
102
{ACAD_REACTORS
330
3B
102
}
330
3B
100
AcDbScale
 70
     0
300
3/4" = 1'-0"
140
0.75
141
12.0
290
     0
  0
SCALE
  5
58
102
{ACAD_REACTORS
330
3B
102
}
330
3B
100
AcDbScale
 70
     0
300
1" = 1'-0"
140
1.0
141
12.0
290
     0
  0
SCALE
  5
59
102
{ACAD_REACTORS
330
3B
102
}
330
3B
100
AcDbScale
 70
     0
300
1-1/2" = 1'-0"
140
1.5
141
12.0
290
     0
  0
SCALE
  5
5A
102
{ACAD_REACTORS
330
3B
102
}
330
3B
100
AcDbScale
 70
     0
300
3" = 1'-0"
140
3.0
141
12.0
290
     0
  0
SCALE
  5
5B
102
{ACAD_REACTORS
330
3B
102
}
330
3B
100
AcDbScale
 70
     0
300
6" = 1'-0"
140
6.0
141
12.0
290
     0
  0
SCALE
  5
5C
102
{ACAD_REACTORS
330
3B
102
}
330
3B
100
AcDbScale
 70
     0
300
1'-0" = 1'-0"
140
12.0
141
12.0
290
     0
  0
VISUALSTYLE
  5
2F
102
{ACAD_REACTORS
330
2A
102
}
330
2A
100
AcDbVisualStyle
  2
2dWireframe
 70
     4
 71
     0
 72
     2
 73
     0
 90
        0
 40
-0.6
 41
-30.0
 62
     5
 63
     7
421
 16777215
 74
     1
 91
        4
 64
     7
 65
   257
 75
     1
175
     1
 42
1.0
 92
        0
 66
   257
 43
1.0
 76
     1
 77
     6
 78
     2
 67
     7
 79
     5
170
     0
171
     0
290
     0
174
     0
 93
        1
 44
0.0
173
     0
291
     0
 45
0.0
1001
ACAD
1000
AcDbSavedByObjectVersion
1070
     0
  0
VISUALSTYLE
  5
31
102
{ACAD_REACTORS
330
2A
102
}
330
2A
100
AcDbVisualStyle
  2
3D Hidden
 70
     6
 71
     1
 72
     2
 73
     2
 90
        0
 40
-0.6
 41
-30.0
 62
     5
 63
     7
421
 16777215
 74
     2
 91
        2
 64
     7
 65
   257
 75
     2
175
     1
 42
40.0
 92
        0
 66
   257
 43
1.0
 76
     1
 77
     6
 78
     2
 67
     7
 79
     3
170
     0
171
     0
290
     0
174
     0
 93
        1
 44
0.0
173
     0
291
     0
 45
0.0
1001
ACAD
1000
AcDbSavedByObjectVersion
1070
     0
  0
VISUALSTYLE
  5
30
102
{ACAD_REACTORS
330
2A
102
}
330
2A
100
AcDbVisualStyle
  2
3dWireframe
 70
     5
 71
     0
 72
     2
 73
     0
 90
        0
 40
-0.6
 41
-30.0
 62
     5
 63
     7
421
 16777215
 74
     1
 91
        4
 64
     7
 65
   257
 75
     1
175
     1
 42
1.0
 92
        0
 66
   257
 43
1.0
 76
     1
 77
     6
 78
     2
 67
     7
 79
     5
170
     0
171
     0
290
     0
174
     0
 93
        1
 44
0.0
173
     0
291
     0
 45
0.0
1001
ACAD
1000
AcDbSavedByObjectVersion
1070
     0
  0
VISUALSTYLE
  5
32
102
{ACAD_REACTORS
330
2A
102
}
330
2A
100
AcDbVisualStyle
  2
Basic
 70
     7
 71
     1
 72
     0
 73
     1
 90
        0
 40
-0.6
 41
-30.0
 62
     5
 63
     7
421
 16777215
 74
     0
 91
        4
 64
     7
 65
   257
 75
     1
175
     1
 42
1.0
 92
        8
 66
     7
 43
1.0
 76
     1
 77
     6
 78
     2
 67
     7
 79
     5
170
     0
171
     0
290
     0
174
     0
 93
        1
 44
0.0
173
     0
291
     1
 45
0.0
1001
ACAD
1000
AcDbSavedByObjectVersion
1070
     0
  0
VISUALSTYLE
  5
36
102
{ACAD_REACTORS
330
2A
102
}
330
2A
100
AcDbVisualStyle
  2
Brighten
 70
    12
 71
     2
 72
     2
 73
     0
 90
        0
 40
-0.6
 41
-30.0
 62
     5
 63
     7
421
 16777215
 74
     1
 91
        4
 64
     7
 65
   257
 75
     1
175
     1
 42
1.0
 92
        8
 66
     7
 43
1.0
 76
     1
 77
     6
 78
     2
 67
     7
 79
     5
170
     0
171
     0
290
     0
174
     0
 93
        1
 44
50.0
173
     0
291
     1
 45
0.0
1001
ACAD
1000
AcDbSavedByObjectVersion
1070
     0
  0
VISUALSTYLE
  5
3A
102
{ACAD_REACTORS
330
2A
102
}
330
2A
100
AcDbVisualStyle
  2
ColorChange
 70
    16
 71
     2
 72
     2
 73
     3
 90
        0
 40
-0.6
 41
-30.0
 62
     5
 63
     8
421
  8421504
 74
     1
 91
        4
 64
     7
 65
   257
 75
     1
175
     1
 42
1.0
 92
        8
 66
     8
424
  8421504
 43
1.0
 76
     1
 77
     6
 78
     2
 67
     7
 79
     5
170
     0
171
     0
290
     0
174
     0
 93
        1
 44
0.0
173
     0
291
     1
 45
0.0
1001
ACAD
1000
AcDbSavedByObjectVersion
1070
     0
  0
VISUALSTYLE
  5
34
102
{ACAD_REACTORS
330
2A
102
}
330
2A
100
AcDbVisualStyle
  2
Conceptual
 70
     9
 71
     3
 72
     2
 73
     0
 90
        0
 40
-0.6
 41
-30.0
 62
     5
 63
     7
421
 16777215
 74
     2
 91
        2
 64
     7
 65
   257
 75
     1
175
     1
 42
40.0
 92
        8
 66
     7
 43
1.0
 76
     1
 77
     6
 78
     2
 67
     7
 79
     3
170
     0
171
     0
290
     0
174
     0
 93
        1
 44
0.0
173
     0
291
     0
 45
0.0
1001
ACAD
1000
AcDbSavedByObjectVersion
1070
     0
  0
VISUALSTYLE
  5
35
102
{ACAD_REACTORS
330
2A
102
}
330
2A
100
AcDbVisualStyle
  2
Dim
 70
    11
 71
     2
 72
     2
 73
     0
 90
        0
 40
-0.6
 41
-30.0
 62
     5
 63
     7
421
 16777215
 74
     1
 91
        4
 64
     7
 65
   257
 75
     1
175
     1
 42
1.0
 92
        8
 66
     7
 43
1.0
 76
     1
 77
     6
 78
     2
 67
     7
 79
     5
170
     0
171
     0
290
     0
174
     0
 93
        1
 44
-50.0
173
     0
291
     1
 45
0.0
1001
ACAD
1000
AcDbSavedByObjectVersion
1070
     0
  0
VISUALSTYLE
  5
39
102
{ACAD_REACTORS
330
2A
102
}
330
2A
100
AcDbVisualStyle
  2
Facepattern
 70
    15
 71
     2
 72
     2
 73
     0
 90
        0
 40
-0.6
 41
-30.0
 62
     5
 63
     7
421
 16777215
 74
     1
 91
        4
 64
     7
 65
   257
 75
     1
175
     1
 42
1.0
 92
        8
 66
     7
 43
1.0
 76
     1
 77
     6
 78
     2
 67
     7
 79
     5
170
     0
171
     0
290
     0
174
     0
 93
        1
 44
0.0
173
     0
291
     1
 45
0.0
1001
ACAD
1000
AcDbSavedByObjectVersion
1070
     0
  0
VISUALSTYLE
  5
2B
102
{ACAD_REACTORS
330
2A
102
}
330
2A
100
AcDbVisualStyle
  2
Flat
 70
     0
 71
     2
 72
     1
 73
     1
 90
        2
 40
-0.6
 41
30.0
 62
     5
 63
     7
421
 16777215
 74
     0
 91
        4
 64
     7
 65
   257
 75
     1
175
     1
 42
1.0
 92
        8
 66
     7
 43
1.0
 76
     1
 77
     6
 78
     2
 67
     7
 79
     5
170
     0
171
     0
290
     0
174
     0
 93
       13
 44
0.0
173
     0
291
     1
 45
0.0
1001
ACAD
1000
AcDbSavedByObjectVersion
1070
     0
  0
VISUALSTYLE
  5
2C
102
{ACAD_REACTORS
330
2A
102
}
330
2A
100
AcDbVisualStyle
  2
FlatWithEdges
 70
     1
 71
     2
 72
     1
 73
     1
 90
        2
 40
-0.6
 41
30.0
 62
     5
 63
     7
421
 16777215
 74
     1
 91
        4
 64
     7
 65
   257
 75
     1
175
     1
 42
1.0
 92
        0
 66
   257
 43
1.0
 76
     1
 77
     6
 78
     2
 67
     7
 79
     5
170
     0
171
     0
290
     0
174
     0
 93
       13
 44
0.0
173
     0
291
     1
 45
0.0
1001
ACAD
1000
AcDbSavedByObjectVersion
1070
     0
  0
VISUALSTYLE
  5
2D
102
{ACAD_REACTORS
330
2A
102
}
330
2A
100
AcDbVisualStyle
  2
Gouraud
 70
     2
 71
     2
 72
     2
 73
     1
 90
        2
 40
-0.6
 41
30.0
 62
     5
 63
     7
421
 16777215
 74
     0
 91
        4
 64
     7
 65
   257
 75
     1
175
     1
 42
1.0
 92
        0
 66
     7
 43
1.0
 76
     1
 77
     6
 78
     2
 67
     7
 79
     5
170
     0
171
     0
290
     0
174
     0
 93
       13
 44
0.0
173
     0
291
     1
 45
0.0
1001
ACAD
1000
AcDbSavedByObjectVersion
1070
     0
  0
VISUALSTYLE
  5
2E
102
{ACAD_REACTORS
330
2A
102
}
330
2A
100
AcDbVisualStyle
  2
GouraudWithEdges
 70
     3
 71
     2
 72
     2
 73
     1
 90
        2
 40
-0.6
 41
30.0
 62
     5
 63
     7
421
 16777215
 74
     1
 91
        4
 64
     7
 65
   257
 75
     1
175
     1
 42
1.0
 92
        0
 66
   257
 43
1.0
 76
     1
 77
     6
 78
     2
 67
     7
 79
     5
170
     0
171
     0
290
     0
174
     0
 93
       13
 44
0.0
173
     0
291
     1
 45
0.0
1001
ACAD
1000
AcDbSavedByObjectVersion
1070
     0
  0
VISUALSTYLE
  5
38
102
{ACAD_REACTORS
330
2A
102
}
330
2A
100
AcDbVisualStyle
  2
Linepattern
 70
    14
 71
     2
 72
     2
 73
     0
 90
        0
 40
-0.6
 41
-30.0
 62
     5
 63
     7
421
 16777215
 74
     1
 91
        4
 64
     7
 65
   257
 75
     7
175
     7
 42
1.0
 92
        8
 66
     7
 43
1.0
 76
     1
 77
     6
 78
     2
 67
     7
 79
     5
170
     0
171
     0
290
     0
174
     0
 93
        1
 44
0.0
173
     0
291
     1
 45
0.0
1001
ACAD
1000
AcDbSavedByObjectVersion
1070
     0
  0
VISUALSTYLE
  5
33
102
{ACAD_REACTORS
330
2A
102
}
330
2A
100
AcDbVisualStyle
  2
Realistic
 70
     8
 71
     2
 72
     2
 73
     0
 90
        0
 40
-0.6
 41
-30.0
 62
     5
 63
     7
421
 16777215
 74
     1
 91
        0
 64
     7
 65
   257
 75
     1
175
     1
 42
1.0
 92
        8
 66
     8
424
  7895160
 43
1.0
 76
     1
 77
     6
 78
     2
 67
     7
 79
     5
170
     0
171
     0
290
     0
174
     0
 93
       13
 44
0.0
173
     0
291
     0
 45
0.0
1001
ACAD
1000
AcDbSavedByObjectVersion
1070
     0
  0
VISUALSTYLE
  5
37
102
{ACAD_REACTORS
330
2A
102
}
330
2A
100
AcDbVisualStyle
  2
Thicken
 70
    13
 71
     2
 72
     2
 73
     0
 90
        0
 40
-0.6
 41
-30.0
 62
     5
 63
     7
421
 16777215
 74
     1
 91
        4
 64
     7
 65
   257
 75
     1
175
     1
 42
1.0
 92
       12
 66
     7
 43
1.0
 76
     1
 77
     6
 78
     2
 67
     7
 79
     5
170
     0
171
     0
290
     0
174
     0
 93
        1
 44
0.0
173
     0
291
     1
 45
0.0
1001
ACAD
1000
AcDbSavedByObjectVersion
1070
     0
  0
XRECORD
  5
34F
102
{ACAD_REACTORS
330
34E
102
}
330
34E
100
AcDbXrecord
280
     1
1000
Ten plik DWG został utworzony w programie ArchiCAD(TM)®
  0
SPATIAL_FILTER
  5
347
102
{ACAD_REACTORS
330
346
102
}
330
346
100
AcDbFilter
100
AcDbSpatialFilter
 70
     4
 10
0.0
 20
0.0
 10
297.0
 20
0.0
 10
297.0
 20
210.0
 10
0.0
 20
210.0
210
0.0
220
0.0
230
1.0
 11
0.0
 21
0.0
 31
0.0
 71
     1
 72
     0
 73
     0
 40
1.0
 40
0.0
 40
0.0
 40
0.0
 40
0.0
 40
1.0
 40
0.0
 40
0.0
 40
0.0
 40
0.0
 40
1.0
 40
0.0
 40
1.0
 40
0.0
 40
0.0
 40
0.0
 40
0.0
 40
1.0
 40
0.0
 40
0.0
 40
0.0
 40
0.0
 40
1.0
 40
0.0
  0
ENDSEC
  0
EOF
