  0
SECTION
  2
HEADER
  9
$ACADVER
  1
AC1018
  9
$ACADMAINTVER
 70
     0
  9
$DWGCODEPAGE
  3
ANSI_1250
  9
$INSBASE
 10
0.0
 20
0.0
 30
0.0
  9
$EXTMIN
 10
1.000000000000000E+20
 20
1.000000000000000E+20
 30
1.000000000000000E+20
  9
$EXTMAX
 10
-1.000000000000000E+20
 20
-1.000000000000000E+20
 30
-1.000000000000000E+20
  9
$LIMMIN
 10
0.0
 20
0.0
  9
$LIMMAX
 10
12.0
 20
9.0
  9
$ORTHOMODE
 70
     0
  9
$REGENMODE
 70
     1
  9
$FILLMODE
 70
     1
  9
$QTEXTMODE
 70
     0
  9
$MIRRTEXT
 70
     1
  9
$LTSCALE
 40
1.0
  9
$ATTMODE
 70
     1
  9
$TEXTSIZE
 40
0.2
  9
$TRACEWID
 40
0.05
  9
$TEXTSTYLE
  7
Standard
  9
$CLAYER
  8
0
  9
$CELTYPE
  6
ByLayer
  9
$CECOLOR
 62
   256
  9
$CELTSCALE
 40
1.0
  9
$DISPSILH
 70
     0
  9
$DIMSCALE
 40
1.0
  9
$DIMASZ
 40
0.18
  9
$DIMEXO
 40
0.0625
  9
$DIMDLI
 40
0.38
  9
$DIMRND
 40
0.0
  9
$DIMDLE
 40
0.0
  9
$DIMEXE
 40
0.18
  9
$DIMTP
 40
0.0
  9
$DIMTM
 40
0.0
  9
$DIMTXT
 40
0.18
  9
$DIMCEN
 40
0.09
  9
$DIMTSZ
 40
0.0
  9
$DIMTOL
 70
     0
  9
$DIMLIM
 70
     0
  9
$DIMTIH
 70
     1
  9
$DIMTOH
 70
     1
  9
$DIMSE1
 70
     0
  9
$DIMSE2
 70
     0
  9
$DIMTAD
 70
     0
  9
$DIMZIN
 70
     0
  9
$DIMBLK
  1

  9
$DIMASO
 70
     1
  9
$DIMSHO
 70
     1
  9
$DIMPOST
  1

  9
$DIMAPOST
  1

  9
$DIMALT
 70
     0
  9
$DIMALTD
 70
     2
  9
$DIMALTF
 40
25.4
  9
$DIMLFAC
 40
1.0
  9
$DIMTOFL
 70
     0
  9
$DIMTVP
 40
0.0
  9
$DIMTIX
 70
     0
  9
$DIMSOXD
 70
     0
  9
$DIMSAH
 70
     0
  9
$DIMBLK1
  1

  9
$DIMBLK2
  1

  9
$DIMSTYLE
  2
Standard
  9
$DIMCLRD
 70
     0
  9
$DIMCLRE
 70
     0
  9
$DIMCLRT
 70
     0
  9
$DIMTFAC
 40
1.0
  9
$DIMGAP
 40
0.09
  9
$DIMJUST
 70
     0
  9
$DIMSD1
 70
     0
  9
$DIMSD2
 70
     0
  9
$DIMTOLJ
 70
     1
  9
$DIMTZIN
 70
     0
  9
$DIMALTZ
 70
     0
  9
$DIMALTTZ
 70
     0
  9
$DIMUPT
 70
     0
  9
$DIMDEC
 70
     4
  9
$DIMTDEC
 70
     4
  9
$DIMALTU
 70
     2
  9
$DIMALTTD
 70
     2
  9
$DIMTXSTY
  7
Standard
  9
$DIMAUNIT
 70
     0
  9
$DIMADEC
 70
     0
  9
$DIMALTRND
 40
0.0
  9
$DIMAZIN
 70
     0
  9
$DIMDSEP
 70
    46
  9
$DIMATFIT
 70
     3
  9
$DIMFRAC
 70
     0
  9
$DIMLDRBLK
  1

  9
$DIMLUNIT
 70
     2
  9
$DIMLWD
 70
    -2
  9
$DIMLWE
 70
    -2
  9
$DIMTMOVE
 70
     0
  9
$LUNITS
 70
     2
  9
$LUPREC
 70
     4
  9
$SKETCHINC
 40
0.1
  9
$FILLETRAD
 40
0.5
  9
$AUNITS
 70
     0
  9
$AUPREC
 70
     0
  9
$MENU
  1
.
  9
$ELEVATION
 40
0.0
  9
$PELEVATION
 40
0.0
  9
$THICKNESS
 40
0.0
  9
$LIMCHECK
 70
     0
  9
$CHAMFERA
 40
0.5
  9
$CHAMFERB
 40
0.5
  9
$CHAMFERC
 40
1.0
  9
$CHAMFERD
 40
0.0
  9
$SKPOLY
 70
     0
  9
$TDCREATE
 40
2459976.585258299
  9
$TDUCREATE
 40
2459976.543591632
  9
$TDUPDATE
 40
2459976.58525831
  9
$TDUUPDATE
 40
2459976.543591644
  9
$TDINDWG
 40
0.0000000116
  9
$TDUSRTIMER
 40
0.0000000116
  9
$USRTIMER
 70
     1
  9
$ANGBASE
 50
0.0
  9
$ANGDIR
 70
     0
  9
$PDMODE
 70
     0
  9
$PDSIZE
 40
0.0
  9
$PLINEWID
 40
0.0
  9
$SPLFRAME
 70
     0
  9
$SPLINETYPE
 70
     6
  9
$SPLINESEGS
 70
     8
  9
$HANDSEED
  5
3D7
  9
$SURFTAB1
 70
     6
  9
$SURFTAB2
 70
     6
  9
$SURFTYPE
 70
     6
  9
$SURFU
 70
     6
  9
$SURFV
 70
     6
  9
$UCSBASE
  2

  9
$UCSNAME
  2

  9
$UCSORG
 10
0.0
 20
0.0
 30
0.0
  9
$UCSXDIR
 10
1.0
 20
0.0
 30
0.0
  9
$UCSYDIR
 10
0.0
 20
1.0
 30
0.0
  9
$UCSORTHOREF
  2

  9
$UCSORTHOVIEW
 70
     0
  9
$UCSORGTOP
 10
0.0
 20
0.0
 30
0.0
  9
$UCSORGBOTTOM
 10
0.0
 20
0.0
 30
0.0
  9
$UCSORGLEFT
 10
0.0
 20
0.0
 30
0.0
  9
$UCSORGRIGHT
 10
0.0
 20
0.0
 30
0.0
  9
$UCSORGFRONT
 10
0.0
 20
0.0
 30
0.0
  9
$UCSORGBACK
 10
0.0
 20
0.0
 30
0.0
  9
$PUCSBASE
  2

  9
$PUCSNAME
  2

  9
$PUCSORG
 10
0.0
 20
0.0
 30
0.0
  9
$PUCSXDIR
 10
1.0
 20
0.0
 30
0.0
  9
$PUCSYDIR
 10
0.0
 20
1.0
 30
0.0
  9
$PUCSORTHOREF
  2

  9
$PUCSORTHOVIEW
 70
     0
  9
$PUCSORGTOP
 10
0.0
 20
0.0
 30
0.0
  9
$PUCSORGBOTTOM
 10
0.0
 20
0.0
 30
0.0
  9
$PUCSORGLEFT
 10
0.0
 20
0.0
 30
0.0
  9
$PUCSORGRIGHT
 10
0.0
 20
0.0
 30
0.0
  9
$PUCSORGFRONT
 10
0.0
 20
0.0
 30
0.0
  9
$PUCSORGBACK
 10
0.0
 20
0.0
 30
0.0
  9
$USERI1
 70
     0
  9
$USERI2
 70
     0
  9
$USERI3
 70
     0
  9
$USERI4
 70
     0
  9
$USERI5
 70
     0
  9
$USERR1
 40
0.0
  9
$USERR2
 40
0.0
  9
$USERR3
 40
0.0
  9
$USERR4
 40
0.0
  9
$USERR5
 40
0.0
  9
$WORLDVIEW
 70
     1
  9
$SHADEDGE
 70
     3
  9
$SHADEDIF
 70
    70
  9
$TILEMODE
 70
     0
  9
$MAXACTVP
 70
    64
  9
$PINSBASE
 10
0.0
 20
0.0
 30
0.0
  9
$PLIMCHECK
 70
     0
  9
$PEXTMIN
 10
-0.000000000000222
 20
0.0
 30
0.0
  9
$PEXTMAX
 10
297.0
 20
210.0
 30
0.0
  9
$PLIMMIN
 10
0.0
 20
0.0
  9
$PLIMMAX
 10
297.0
 20
210.0
  9
$UNITMODE
 70
     0
  9
$VISRETAIN
 70
     1
  9
$PLINEGEN
 70
     0
  9
$PSLTSCALE
 70
     0
  9
$TREEDEPTH
 70
  3020
  9
$CMLSTYLE
  2
Standard
  9
$CMLJUST
 70
     0
  9
$CMLSCALE
 40
1.0
  9
$PROXYGRAPHICS
 70
     1
  9
$MEASUREMENT
 70
     0
  9
$CELWEIGHT
370
    -1
  9
$ENDCAPS
280
     0
  9
$JOINSTYLE
280
     0
  9
$LWDISPLAY
290
     1
  9
$INSUNITS
 70
     0
  9
$HYPERLINKBASE
  1

  9
$STYLESHEET
  1

  9
$XEDIT
290
     1
  9
$CEPSNTYPE
380
     0
  9
$PSTYLEMODE
290
     1
  9
$FINGERPRINTGUID
  2
{73EDCFD6-0384-46AA-BDA1-D33DFE09E4CB}
  9
$VERSIONGUID
  2
{FAEB1C32-E019-11D5-929B-00C0DF256EC4}
  9
$EXTNAMES
290
     1
  9
$PSVPSCALE
 40
0.0
  9
$OLESTARTUP
290
     0
  9
$SORTENTS
280
   127
  9
$INDEXCTL
280
     0
  9
$HIDETEXT
280
     1
  9
$XCLIPFRAME
290
     0
  9
$HALOGAP
280
     0
  9
$OBSCOLOR
 70
   257
  9
$OBSLTYPE
280
     0
  9
$INTERSECTIONDISPLAY
280
     0
  9
$INTERSECTIONCOLOR
 70
   257
  9
$DIMASSOC
280
     2
  9
$PROJECTNAME
  1

  0
ENDSEC
  0
SECTION
  2
CLASSES
  0
CLASS
  1
ACDBDICTIONARYWDFLT
  2
AcDbDictionaryWithDefault
  3
ObjectDBX Classes
 90
        0
 91
        3
280
     0
281
     0
  0
CLASS
  1
VISUALSTYLE
  2
AcDbVisualStyle
  3
ObjectDBX Classes
 90
     4095
 91
        3
280
     0
281
     0
  0
CLASS
  1
SCALE
  2
AcDbScale
  3
ObjectDBX Classes
 90
     1153
 91
        3
280
     0
281
     0
  0
CLASS
  1
WIPEOUT
  2
AcDbWipeout
  3
WipeOut|AutoCAD Express Tool|expresstools@autodesk.com
 90
      127
 91
        3
280
     0
281
     1
  0
CLASS
  1
SPATIAL_FILTER
  2
AcDbSpatialFilter
  3
ObjectDBX Classes
 90
        0
 91
        3
280
     0
281
     0
  0
ENDSEC
  0
SECTION
  2
TABLES
  0
TABLE
  2
VPORT
  5
8
330
0
100
AcDbSymbolTable
 70
     1
  0
VPORT
  5
29
330
8
100
AcDbSymbolTableRecord
100
AcDbViewportTableRecord
  2
*Active
 70
     0
 10
0.0
 20
0.0
 11
1.0
 21
1.0
 12
10.42990654205607
 22
4.5
 13
0.0
 23
0.0
 14
0.5
 24
0.5
 15
0.5
 25
0.5
 16
0.0
 26
0.0
 36
1.0
 17
0.0
 27
0.0
 37
0.0
 40
9.0
 41
1.972972972850329
 42
50.0
 43
0.0
 44
0.0
 50
0.0
 51
0.0
 71
     0
 72
   100
 73
     1
 74
     3
 75
     0
 76
     0
 77
     0
 78
     0
281
     0
 65
     1
110
0.0
120
0.0
130
0.0
111
1.0
121
0.0
131
0.0
112
0.0
122
1.0
132
0.0
 79
     0
146
0.0
  0
ENDTAB
  0
TABLE
  2
LTYPE
  5
5
330
0
100
AcDbSymbolTable
 70
     6
  0
LTYPE
  5
14
330
5
100
AcDbSymbolTableRecord
100
AcDbLinetypeTableRecord
  2
ByBlock
 70
     0
  3

 72
    65
 73
     0
 40
0.0
  0
LTYPE
  5
15
330
5
100
AcDbSymbolTableRecord
100
AcDbLinetypeTableRecord
  2
ByLayer
 70
     0
  3

 72
    65
 73
     0
 40
0.0
  0
LTYPE
  5
16
330
5
100
AcDbSymbolTableRecord
100
AcDbLinetypeTableRecord
  2
Continuous
 70
     0
  3
Solid line
 72
    65
 73
     0
 40
0.0
  0
LTYPE
  5
7B
330
5
100
AcDbSymbolTableRecord
100
AcDbLinetypeTableRecord
  2
Wipeout_Contour
 70
     0
  3
- - - - - 
 72
    65
 73
     2
 40
1000.0
 49
0.0
 74
     0
 49
-1000.0
 74
     0
  0
LTYPE
  5
27A
330
5
100
AcDbSymbolTableRecord
100
AcDbLinetypeTableRecord
  2
Przerywana
 70
     0
  3
- - - - - 
 72
    65
 73
     2
 40
56.44444465637207
 49
28.22222232818604
 74
     0
 49
-28.22222232818603
 74
     0
  0
LTYPE
  5
28B
330
5
100
AcDbSymbolTableRecord
100
AcDbLinetypeTableRecord
  2
Kropki i Kreski
 70
     0
  3
- - - - - 
 72
    65
 73
     4
 40
67.02777624130249
 49
35.27777671813965
 74
     0
 49
-17.63888835906982
 74
     0
 49
0.0
 74
     0
 49
-14.11111116409302
 74
     0
  0
LTYPE
  5
2E9
330
5
100
AcDbSymbolTableRecord
100
AcDbLinetypeTableRecord
  2
Przerywana gęsta
 70
     0
  3
- - - - - 
 72
    65
 73
     2
 40
30.0
 49
20.0
 74
     0
 49
-10.0
 74
     0
  0
LTYPE
  5
2F9
330
5
100
AcDbSymbolTableRecord
100
AcDbLinetypeTableRecord
  2
Kreski i kropki
 70
     0
  3
- - - - - 
 72
    65
 73
     4
 40
67.02777624130249
 49
35.27777671813965
 74
     0
 49
-17.63888835906982
 74
     0
 49
0.0
 74
     0
 49
-14.11111116409302
 74
     0
  0
ENDTAB
  0
TABLE
  2
LAYER
  5
2
330
0
100
AcDbSymbolTable
 70
     4
  0
LAYER
  5
10
330
2
100
AcDbSymbolTableRecord
100
AcDbLayerTableRecord
  2
0
 70
     0
 62
     7
  6
Continuous
370
    -3
390
F
  0
LAYER
  5
62
330
2
100
AcDbSymbolTableRecord
100
AcDbLayerTableRecord
  2
2D - Ogólne
 70
     0
 62
     7
  6
Continuous
370
    -3
390
F
  0
LAYER
  5
CA
330
2
100
AcDbSymbolTableRecord
100
AcDbLayerTableRecord
  2
@__WIDOCZNE
 70
     0
 62
     7
  6
Continuous
370
    -3
390
F
  0
LAYER
  5
3CE
330
2
100
AcDbSymbolTableRecord
100
AcDbLayerTableRecord
  2
NonPlottable_0
 70
     0
 62
     7
  6
Continuous
290
     0
370
    -3
390
F
  0
ENDTAB
  0
TABLE
  2
STYLE
  5
3
330
0
100
AcDbSymbolTable
 70
     3
  0
STYLE
  5
11
330
3
100
AcDbSymbolTableRecord
100
AcDbTextStyleTableRecord
  2
Standard
 70
     0
 40
0.0
 41
1.0
 50
0.0
 71
     0
 42
0.2
  3
txt
  4
BIGFONT.SHX
  0
STYLE
  5
1EB
330
3
100
AcDbSymbolTableRecord
100
AcDbTextStyleTableRecord
  2
GENERATED_STYLE_1
 70
     0
 40
0.0
 41
1.0
 50
0.0
 71
     0
 42
0.2
  3

  4

1001
ACAD
1000
Arial
1071
    60966
  0
STYLE
  5
34F
330
3
100
AcDbSymbolTableRecord
100
AcDbTextStyleTableRecord
  2
GENERATED_STYLE_2
 70
     0
 40
0.0
 41
1.0
 50
0.0
 71
     0
 42
0.2
  3

  4

1001
ACAD
1000
Arial
1071
 33615398
  0
ENDTAB
  0
TABLE
  2
VIEW
  5
6
330
0
100
AcDbSymbolTable
 70
     0
  0
ENDTAB
  0
TABLE
  2
UCS
  5
7
330
0
100
AcDbSymbolTable
 70
     0
  0
ENDTAB
  0
TABLE
  2
APPID
  5
9
330
0
100
AcDbSymbolTable
 70
     1
  0
APPID
  5
12
330
9
100
AcDbSymbolTableRecord
100
AcDbRegAppTableRecord
  2
ACAD
 70
     0
  0
ENDTAB
  0
TABLE
  2
DIMSTYLE
  5
A
330
0
100
AcDbSymbolTable
 70
     1
100
AcDbDimStyleTable
  0
DIMSTYLE
105
27
330
A
100
AcDbSymbolTableRecord
100
AcDbDimStyleTableRecord
  2
Standard
 70
     0
340
11
  0
ENDTAB
  0
TABLE
  2
BLOCK_RECORD
  5
1
330
0
100
AcDbSymbolTable
 70
    23
  0
BLOCK_RECORD
  5
1F
330
1
100
AcDbSymbolTableRecord
100
AcDbBlockTableRecord
  2
*Model_Space
340
22
  0
BLOCK_RECORD
  5
1B
330
1
100
AcDbSymbolTableRecord
100
AcDbBlockTableRecord
  2
*Paper_Space
340
1E
  0
BLOCK_RECORD
  5
23
330
1
100
AcDbSymbolTableRecord
100
AcDbBlockTableRecord
  2
*Paper_Space0
340
26
  0
BLOCK_RECORD
  5
5E
330
1
100
AcDbSymbolTableRecord
100
AcDbBlockTableRecord
  2
*X1
340
0
102
{BLKREFS
331
7C
102
}
  0
BLOCK_RECORD
  5
81
330
1
100
AcDbSymbolTableRecord
100
AcDbBlockTableRecord
  2
*X2
340
0
102
{BLKREFS
331
A3
102
}
  0
BLOCK_RECORD
  5
A8
330
1
100
AcDbSymbolTableRecord
100
AcDbBlockTableRecord
  2
*X3
340
0
102
{BLKREFS
331
BE
102
}
  0
BLOCK_RECORD
  5
F4
330
1
100
AcDbSymbolTableRecord
100
AcDbBlockTableRecord
  2
*X4
340
0
102
{BLKREFS
331
FF
102
}
  0
BLOCK_RECORD
  5
104
330
1
100
AcDbSymbolTableRecord
100
AcDbBlockTableRecord
  2
*X5
340
0
102
{BLKREFS
331
114
102
}
  0
BLOCK_RECORD
  5
119
330
1
100
AcDbSymbolTableRecord
100
AcDbBlockTableRecord
  2
*X6
340
0
102
{BLKREFS
331
123
102
}
  0
BLOCK_RECORD
  5
128
330
1
100
AcDbSymbolTableRecord
100
AcDbBlockTableRecord
  2
*X7
340
0
102
{BLKREFS
331
133
102
}
  0
BLOCK_RECORD
  5
138
330
1
100
AcDbSymbolTableRecord
100
AcDbBlockTableRecord
  2
*X8
340
0
102
{BLKREFS
331
143
102
}
  0
BLOCK_RECORD
  5
148
330
1
100
AcDbSymbolTableRecord
100
AcDbBlockTableRecord
  2
*X9
340
0
102
{BLKREFS
331
154
102
}
  0
BLOCK_RECORD
  5
15D
330
1
100
AcDbSymbolTableRecord
100
AcDbBlockTableRecord
  2
*X10
340
0
102
{BLKREFS
331
169
102
}
  0
BLOCK_RECORD
  5
172
330
1
100
AcDbSymbolTableRecord
100
AcDbBlockTableRecord
  2
Izolacja cieplna 12_24_2
340
0
102
{BLKREFS
331
1E6
102
}
  0
BLOCK_RECORD
  5
1E7
330
1
100
AcDbSymbolTableRecord
100
AcDbBlockTableRecord
  2
Sygnał termostatu 12
340
0
102
{BLKREFS
331
1ED
331
220
331
223
331
226
331
229
331
22C
331
22F
102
}
  0
BLOCK_RECORD
  5
1F0
330
1
100
AcDbSymbolTableRecord
100
AcDbBlockTableRecord
  2
Sygnał termostatu 12_2
340
0
102
{BLKREFS
331
1F5
331
232
331
235
102
}
  0
BLOCK_RECORD
  5
1F8
330
1
100
AcDbSymbolTableRecord
100
AcDbBlockTableRecord
  2
Sygnał termostatu 12_3
340
0
102
{BLKREFS
331
1FD
331
238
102
}
  0
BLOCK_RECORD
  5
200
330
1
100
AcDbSymbolTableRecord
100
AcDbBlockTableRecord
  2
Sygnał termostatu 12_4
340
0
102
{BLKREFS
331
205
331
23B
331
23E
102
}
  0
BLOCK_RECORD
  5
208
330
1
100
AcDbSymbolTableRecord
100
AcDbBlockTableRecord
  2
Sygnał termostatu 12_5
340
0
102
{BLKREFS
331
20D
331
241
102
}
  0
BLOCK_RECORD
  5
210
330
1
100
AcDbSymbolTableRecord
100
AcDbBlockTableRecord
  2
Sygnał termostatu 12_6
340
0
102
{BLKREFS
331
215
331
244
331
247
331
24A
102
}
  0
BLOCK_RECORD
  5
218
330
1
100
AcDbSymbolTableRecord
100
AcDbBlockTableRecord
  2
Sygnał termostatu 12_7
340
0
102
{BLKREFS
331
21D
331
24D
102
}
  0
BLOCK_RECORD
  5
368
330
1
100
AcDbSymbolTableRecord
100
AcDbBlockTableRecord
  2
*X19
340
0
102
{BLKREFS
331
38A
102
}
  0
BLOCK_RECORD
  5
3C3
330
1
100
AcDbSymbolTableRecord
100
AcDbBlockTableRecord
  2
Bez nazwy_STORY_MARKER
340
0
  0
BLOCK_RECORD
  5
3C6
330
1
100
AcDbSymbolTableRecord
100
AcDbBlockTableRecord
  2
Rysunek_1
340
0
102
{BLKREFS
331
3C9
102
}
  0
BLOCK_RECORD
  5
3D0
330
1
100
AcDbSymbolTableRecord
100
AcDbBlockTableRecord
  2
02.04.2-20 \U+FF8CCIANA+PIWICA 10.01._STORY_MARKER
340
0
  0
ENDTAB
  0
ENDSEC
  0
SECTION
  2
BLOCKS
  0
BLOCK
  5
20
330
1F
100
AcDbEntity
  8
0
100
AcDbBlockBegin
  2
*Model_Space
 70
     0
 10
0.0
 20
0.0
 30
0.0
  3
*Model_Space
  1

  0
ENDBLK
  5
21
330
1F
100
AcDbEntity
  8
0
100
AcDbBlockEnd
  0
BLOCK
  5
1C
330
1B
100
AcDbEntity
 67
     1
  8
0
100
AcDbBlockBegin
  2
*Paper_Space
 70
     0
 10
0.0
 20
0.0
 30
0.0
  3
*Paper_Space
  1

  0
ENDBLK
  5
1D
330
1B
100
AcDbEntity
 67
     1
  8
0
100
AcDbBlockEnd
  0
BLOCK
  5
24
330
23
100
AcDbEntity
  8
0
100
AcDbBlockBegin
  2
*Paper_Space0
 70
     0
 10
0.0
 20
0.0
 30
0.0
  3
*Paper_Space0
  1

  0
ENDBLK
  5
25
330
23
100
AcDbEntity
  8
0
100
AcDbBlockEnd
  0
BLOCK
  5
5F
330
5E
100
AcDbEntity
  8
0
100
AcDbBlockBegin
  2
*X1
 70
     1
 10
0.0
 20
0.0
 30
0.0
  3
*X1
  1

  0
HATCH
  5
61
330
5E
100
AcDbEntity
  8
2D - Ogólne
  6
Continuous
370
    13
100
AcDbHatch
 10
0.0
 20
0.0
 30
0.0
210
0.0
220
0.0
230
1.0
  2
SOLID
 70
     1
 71
     0
 91
        1
 92
        2
 72
     0
 73
     1
 93
        4
 10
-2790.640659085993
 20
976.152722042464
 10
-2804.82762697992
 20
976.1716626135964
 10
-2804.82762697992
 20
951.1716450898139
 10
-2790.674035140996
 20
951.1527445283376
 97
        0
 75
     0
 76
     1
 98
        0
  0
HATCH
  5
63
330
5E
100
AcDbEntity
  8
2D - Ogólne
  6
Continuous
370
    13
100
AcDbHatch
 10
0.0
 20
0.0
 30
0.0
210
0.0
220
0.0
230
1.0
  2
SOLID
 70
     1
 71
     0
 91
        1
 92
        2
 72
     0
 73
     1
 93
        4
 10
-2790.774173009794
 20
876.1528119859585
 10
-2804.827628681778
 20
876.1715765146046
 10
-2804.827628681778
 20
851.1715509888911
 10
-2790.807549064798
 20
851.1528344718322
 97
        0
 75
     0
 76
     1
 98
        0
  0
HATCH
  5
64
330
5E
100
AcDbEntity
  8
2D - Ogólne
  6
Continuous
370
    13
100
AcDbHatch
 10
0.0
 20
0.0
 30
0.0
210
0.0
220
0.0
230
1.0
  2
SOLID
 70
     1
 71
     0
 91
        1
 92
        2
 72
     0
 73
     1
 93
        4
 10
-2790.907686933595
 20
776.152893927522
 10
-2804.827622381703
 20
776.1714824136817
 10
-2804.827622381703
 20
751.1714568879681
 10
-2790.941062988598
 20
751.1529164133956
 97
        0
 75
     0
 76
     1
 98
        0
  0
HATCH
  5
65
330
5E
100
AcDbEntity
  8
2D - Ogólne
  6
Continuous
370
    13
100
AcDbHatch
 10
0.0
 20
0.0
 30
0.0
210
0.0
220
0.0
230
1.0
  2
SOLID
 70
     1
 71
     0
 91
        1
 92
        2
 72
     0
 73
     1
 93
        4
 10
-2791.041200857396
 20
676.1529838710164
 10
-2804.82762408356
 20
676.1713883127588
 10
-2804.82762408356
 20
651.1713707889764
 10
-2791.0745769124
 20
651.1530063568902
 97
        0
 75
     0
 76
     1
 98
        0
  0
HATCH
  5
66
330
5E
100
AcDbEntity
  8
2D - Ogólne
  6
Continuous
370
    13
100
AcDbHatch
 10
0.0
 20
0.0
 30
0.0
210
0.0
220
0.0
230
1.0
  2
SOLID
 70
     1
 71
     0
 91
        1
 92
        2
 72
     0
 73
     1
 93
        4
 10
-2791.174714781198
 20
576.153073814511
 10
-2804.827625785418
 20
576.1713022137671
 10
-2804.827625785418
 20
551.1712846899848
 10
-2791.208090836201
 20
551.1530963003845
 97
        0
 75
     0
 76
     1
 98
        0
  0
HATCH
  5
67
330
5E
100
AcDbEntity
  8
2D - Ogólne
  6
Continuous
370
    13
100
AcDbHatch
 10
0.0
 20
0.0
 30
0.0
210
0.0
220
0.0
230
1.0
  2
SOLID
 70
     1
 71
     0
 91
        1
 92
        2
 72
     0
 73
     1
 93
        4
 10
-2791.308228704999
 20
476.1531637580055
 10
-2804.827627487275
 20
476.1712161147754
 10
-2804.827627487275
 20
451.1711905890618
 10
-2791.341604760002
 20
451.1531862438791
 97
        0
 75
     0
 76
     1
 98
        0
  0
HATCH
  5
68
330
5E
100
AcDbEntity
  8
2D - Ogólne
  6
Continuous
370
    13
100
AcDbHatch
 10
0.0
 20
0.0
 30
0.0
210
0.0
220
0.0
230
1.0
  2
SOLID
 70
     1
 71
     0
 91
        1
 92
        2
 72
     0
 73
     1
 93
        4
 10
-2790.674033915583
 20
951.1527445283376
 10
-2790.494982703223
 20
951.1525044704019
 10
-2790.494982703223
 20
976.1525299961154
 10
-2790.64065786058
 20
976.152722042464
 97
        0
 75
     0
 76
     1
 98
        0
  0
HATCH
  5
69
330
5E
100
AcDbEntity
  8
2D - Ogólne
  6
Continuous
370
    13
100
AcDbHatch
 10
0.0
 20
0.0
 30
0.0
210
0.0
220
0.0
230
1.0
  2
SOLID
 70
     1
 71
     0
 91
        1
 92
        2
 72
     0
 73
     1
 93
        4
 10
-2790.807546137527
 20
851.1528344718322
 10
-2790.494982703223
 20
851.1524183714104
 10
-2790.494982703223
 20
876.1524358951925
 10
-2790.774170082524
 20
876.1528119859585
 97
        0
 75
     0
 76
     1
 98
        0
  0
HATCH
  5
6A
330
5E
100
AcDbEntity
  8
2D - Ogólne
  6
Continuous
370
    13
100
AcDbHatch
 10
0.0
 20
0.0
 30
0.0
210
0.0
220
0.0
230
1.0
  2
SOLID
 70
     1
 71
     0
 91
        1
 92
        2
 72
     0
 73
     1
 93
        4
 10
-2790.941066361402
 20
751.1529164133956
 10
-2790.494982703223
 20
751.1523242704873
 10
-2790.494982703223
 20
776.1523417942697
 10
-2790.907682304468
 20
776.152893927522
 97
        0
 75
     0
 76
     1
 98
        0
  0
HATCH
  5
6B
330
5E
100
AcDbEntity
  8
2D - Ogólne
  6
Continuous
370
    13
100
AcDbHatch
 10
0.0
 20
0.0
 30
0.0
210
0.0
220
0.0
230
1.0
  2
SOLID
 70
     1
 71
     0
 91
        1
 92
        2
 72
     0
 73
     1
 93
        4
 10
-2791.074578583346
 20
651.1530063568902
 10
-2790.494982703223
 20
651.1522301695645
 10
-2790.494982703223
 20
676.152255695278
 10
-2791.041194526412
 20
676.1529838710164
 97
        0
 75
     0
 76
     1
 98
        0
  0
HATCH
  5
6C
330
5E
100
AcDbEntity
  8
2D - Ogólne
  6
Continuous
370
    13
100
AcDbHatch
 10
0.0
 20
0.0
 30
0.0
210
0.0
220
0.0
230
1.0
  2
SOLID
 70
     1
 71
     0
 91
        1
 92
        2
 72
     0
 73
     1
 93
        4
 10
-2791.20809080529
 20
551.1530963003845
 10
-2790.494982703223
 20
551.1521440705727
 10
-2790.494982703223
 20
576.1521695962863
 10
-2791.174714750287
 20
576.153073814511
 97
        0
 75
     0
 76
     1
 98
        0
  0
HATCH
  5
6D
330
5E
100
AcDbEntity
  8
2D - Ogólne
  6
Continuous
370
    13
100
AcDbHatch
 10
0.0
 20
0.0
 30
0.0
210
0.0
220
0.0
230
1.0
  2
SOLID
 70
     1
 71
     0
 91
        1
 92
        2
 72
     0
 73
     1
 93
        4
 10
-2791.341603027235
 20
451.1531862438791
 10
-2790.494982703223
 20
451.152057971581
 10
-2790.494982703223
 20
476.1520754953633
 10
-2791.308226972231
 20
476.1531637580055
 97
        0
 75
     0
 76
     1
 98
        0
  0
HATCH
  5
6E
330
5E
100
AcDbEntity
  8
2D - Ogólne
  6
Continuous
370
    13
100
AcDbHatch
 10
0.0
 20
0.0
 30
0.0
210
0.0
220
0.0
230
1.0
  2
SOLID
 70
     1
 71
     0
 91
        1
 92
        2
 72
     0
 73
     1
 93
        4
 10
-2790.674037566943
 20
951.1527445283376
 10
-2804.827629405868
 20
951.1716370878828
 10
-2804.827629405868
 20
926.1716195641004
 10
-2790.707413621947
 20
926.1527670142113
 97
        0
 75
     0
 76
     1
 98
        0
  0
HATCH
  5
6F
330
5E
100
AcDbEntity
  8
2D - Ogólne
  6
Continuous
370
    13
100
AcDbHatch
 10
0.0
 20
0.0
 30
0.0
210
0.0
220
0.0
230
1.0
  2
SOLID
 70
     1
 71
     0
 91
        1
 92
        2
 72
     0
 73
     1
 93
        4
 10
-2790.807551490744
 20
851.1528344718322
 10
-2804.827623105793
 20
851.1715509888911
 10
-2804.827623105793
 20
826.1715334651087
 10
-2790.840927545747
 20
826.1528569577059
 97
        0
 75
     0
 76
     1
 98
        0
  0
HATCH
  5
70
330
5E
100
AcDbEntity
  8
2D - Ogólne
  6
Continuous
370
    13
100
AcDbHatch
 10
0.0
 20
0.0
 30
0.0
210
0.0
220
0.0
230
1.0
  2
SOLID
 70
     1
 71
     0
 91
        1
 92
        2
 72
     0
 73
     1
 93
        4
 10
-2790.941065414545
 20
751.1529164133956
 10
-2804.82762480765
 20
751.1714568879681
 10
-2804.82762480765
 20
726.1714393641859
 10
-2790.974441469549
 20
726.1529388992691
 97
        0
 75
     0
 76
     1
 98
        0
  0
HATCH
  5
71
330
5E
100
AcDbEntity
  8
2D - Ogólne
  6
Continuous
370
    13
100
AcDbHatch
 10
0.0
 20
0.0
 30
0.0
210
0.0
220
0.0
230
1.0
  2
SOLID
 70
     1
 71
     0
 91
        1
 92
        2
 72
     0
 73
     1
 93
        4
 10
-2791.074579338347
 20
651.1530063568902
 10
-2804.827626509507
 20
651.1713707889764
 10
-2804.827626509507
 20
626.1713452632629
 10
-2791.10795539335
 20
626.1530288427637
 97
        0
 75
     0
 76
     1
 98
        0
  0
HATCH
  5
72
330
5E
100
AcDbEntity
  8
2D - Ogólne
  6
Continuous
370
    13
100
AcDbHatch
 10
0.0
 20
0.0
 30
0.0
210
0.0
220
0.0
230
1.0
  2
SOLID
 70
     1
 71
     0
 91
        1
 92
        2
 72
     0
 73
     1
 93
        4
 10
-2791.208093262148
 20
551.1530963003845
 10
-2804.827628211365
 20
551.1712846899848
 10
-2804.827628211365
 20
526.1712591642712
 10
-2791.241469317151
 20
526.1531187862582
 97
        0
 75
     0
 76
     1
 98
        0
  0
HATCH
  5
73
330
5E
100
AcDbEntity
  8
2D - Ogólne
  6
Continuous
370
    13
100
AcDbHatch
 10
0.0
 20
0.0
 30
0.0
210
0.0
220
0.0
230
1.0
  2
SOLID
 70
     1
 71
     0
 91
        1
 92
        2
 72
     0
 73
     1
 93
        4
 10
-2804.827623714763
 20
451.1711956208437
 10
-2804.827623714763
 20
442.727270811883
 10
-2791.352857202855
 20
442.727270811883
 10
-2791.341605697505
 20
451.1531882629412
 97
        0
 75
     0
 76
     1
 98
        0
  0
HATCH
  5
74
330
5E
100
AcDbEntity
  8
2D - Ogólne
  6
Continuous
370
    13
100
AcDbHatch
 10
0.0
 20
0.0
 30
0.0
210
0.0
220
0.0
230
1.0
  2
SOLID
 70
     1
 71
     0
 91
        1
 92
        2
 72
     0
 73
     1
 93
        4
 10
-2790.707409970586
 20
926.1527670142113
 10
-2790.494982703223
 20
926.1524869466195
 10
-2790.494982703223
 20
951.1525044704019
 10
-2790.674033915583
 20
951.1527445283376
 97
        0
 75
     0
 76
     1
 98
        0
  0
HATCH
  5
75
330
5E
100
AcDbEntity
  8
2D - Ogólne
  6
Continuous
370
    13
100
AcDbHatch
 10
0.0
 20
0.0
 30
0.0
210
0.0
220
0.0
230
1.0
  2
SOLID
 70
     1
 71
     0
 91
        1
 92
        2
 72
     0
 73
     1
 93
        4
 10
-2790.840930194462
 20
826.1528569577059
 10
-2790.494982703223
 20
826.1523928456967
 10
-2790.494982703223
 20
851.1524183714104
 10
-2790.807546137527
 20
851.1528344718322
 97
        0
 75
     0
 76
     1
 98
        0
  0
HATCH
  5
76
330
5E
100
AcDbEntity
  8
2D - Ogólne
  6
Continuous
370
    13
100
AcDbHatch
 10
0.0
 20
0.0
 30
0.0
210
0.0
220
0.0
230
1.0
  2
SOLID
 70
     1
 71
     0
 91
        1
 92
        2
 72
     0
 73
     1
 93
        4
 10
-2790.974442416406
 20
726.1529388992691
 10
-2790.494982703223
 20
726.1522987447738
 10
-2790.494982703223
 20
751.1523242704873
 10
-2790.941066361402
 20
751.1529164133956
 97
        0
 75
     0
 76
     1
 98
        0
  0
HATCH
  5
77
330
5E
100
AcDbEntity
  8
2D - Ogólne
  6
Continuous
370
    13
100
AcDbHatch
 10
0.0
 20
0.0
 30
0.0
210
0.0
220
0.0
230
1.0
  2
SOLID
 70
     1
 71
     0
 91
        1
 92
        2
 72
     0
 73
     1
 93
        4
 10
-2791.107954638349
 20
626.1530288427637
 10
-2790.494982703223
 20
626.1522126457821
 10
-2790.494982703223
 20
651.1522301695645
 10
-2791.074578583346
 20
651.1530063568902
 97
        0
 75
     0
 76
     1
 98
        0
  0
HATCH
  5
78
330
5E
100
AcDbEntity
  8
2D - Ogólne
  6
Continuous
370
    13
100
AcDbHatch
 10
0.0
 20
0.0
 30
0.0
210
0.0
220
0.0
230
1.0
  2
SOLID
 70
     1
 71
     0
 91
        1
 92
        2
 72
     0
 73
     1
 93
        4
 10
-2791.241466860294
 20
526.1531187862582
 10
-2790.494982703223
 20
526.1521265467903
 10
-2790.494982703223
 20
551.1521440705727
 10
-2791.20809080529
 20
551.1530963003845
 97
        0
 75
     0
 76
     1
 98
        0
  0
HATCH
  5
79
330
5E
100
AcDbEntity
  8
2D - Ogólne
  6
Continuous
370
    13
100
AcDbHatch
 10
0.0
 20
0.0
 30
0.0
210
0.0
220
0.0
230
1.0
  2
SOLID
 70
     1
 71
     0
 91
        1
 92
        2
 72
     0
 73
     1
 93
        4
 10
-2791.341606652729
 20
451.1531848341302
 10
-2791.352859514927
 20
442.7272742668511
 10
-2790.494985520353
 20
442.7272742668511
 10
-2790.494985520353
 20
451.152054597971
 97
        0
 75
     0
 76
     1
 98
        0
  0
ENDBLK
  5
60
330
5E
100
AcDbEntity
  8
0
100
AcDbBlockEnd
  0
BLOCK
  5
82
330
81
100
AcDbEntity
  8
0
100
AcDbBlockBegin
  2
*X2
 70
     1
 10
0.0
 20
0.0
 30
0.0
  3
*X2
  1

  0
HATCH
  5
84
330
81
100
AcDbEntity
  8
2D - Ogólne
  6
Continuous
370
    13
100
AcDbHatch
 10
0.0
 20
0.0
 30
0.0
210
0.0
220
0.0
230
1.0
  2
SOLID
 70
     1
 71
     0
 91
        1
 92
        2
 72
     0
 73
     1
 93
        4
 10
-2790.640652729965
 20
1726.425447042085
 10
-2804.827627788648
 20
1726.444392220389
 10
-2804.827627788648
 20
1701.444366681129
 10
-2790.674034345815
 20
1701.425463838418
 97
        0
 75
     0
 76
     1
 98
        0
  0
HATCH
  5
85
330
81
100
AcDbEntity
  8
2D - Ogólne
  6
Continuous
370
    13
100
AcDbHatch
 10
0.0
 20
0.0
 30
0.0
210
0.0
220
0.0
230
1.0
  2
SOLID
 70
     1
 71
     0
 91
        1
 92
        2
 72
     0
 73
     1
 93
        4
 10
-2790.774166653766
 20
1626.425535395217
 10
-2804.827625832944
 20
1626.444300647248
 10
-2804.827625832944
 20
1601.444285691886
 10
-2790.807548269617
 20
1601.42556277545
 97
        0
 75
     0
 76
     1
 98
        0
  0
HATCH
  5
86
330
81
100
AcDbEntity
  8
2D - Ogólne
  6
Continuous
370
    13
100
AcDbHatch
 10
0.0
 20
0.0
 30
0.0
210
0.0
220
0.0
230
1.0
  2
SOLID
 70
     1
 71
     0
 91
        1
 92
        2
 72
     0
 73
     1
 93
        4
 10
-2790.907680577567
 20
1526.425623748351
 10
-2804.82762387724
 20
1526.444209074106
 10
-2804.82762387724
 20
1501.444194118745
 10
-2790.941062193418
 20
1501.425651128583
 97
        0
 75
     0
 76
     1
 98
        0
  0
HATCH
  5
87
330
81
100
AcDbEntity
  8
2D - Ogólne
  6
Continuous
370
    13
100
AcDbHatch
 10
0.0
 20
0.0
 30
0.0
210
0.0
220
0.0
230
1.0
  2
SOLID
 70
     1
 71
     0
 91
        1
 92
        2
 72
     0
 73
     1
 93
        4
 10
-2791.041194501368
 20
1426.425712101483
 10
-2804.827621921535
 20
1426.444117500965
 10
-2804.827621921535
 20
1401.444102545604
 10
-2791.074576117219
 20
1401.425739481716
 97
        0
 75
     0
 76
     1
 98
        0
  0
HATCH
  5
88
330
81
100
AcDbEntity
  8
2D - Ogólne
  6
Continuous
370
    13
100
AcDbHatch
 10
0.0
 20
0.0
 30
0.0
210
0.0
220
0.0
230
1.0
  2
SOLID
 70
     1
 71
     0
 91
        1
 92
        2
 72
     0
 73
     1
 93
        4
 10
-2791.174708425169
 20
1326.425800454616
 10
-2804.82763054973
 20
1326.444025927823
 10
-2804.82763054973
 20
1301.444010972462
 10
-2791.20809004102
 20
1301.425827834849
 97
        0
 75
     0
 76
     1
 98
        0
  0
HATCH
  5
89
330
81
100
AcDbEntity
  8
2D - Ogólne
  6
Continuous
370
    13
100
AcDbHatch
 10
0.0
 20
0.0
 30
0.0
210
0.0
220
0.0
230
1.0
  2
SOLID
 70
     1
 71
     0
 91
        1
 92
        2
 72
     0
 73
     1
 93
        4
 10
-2791.30822234897
 20
1226.425888807749
 10
-2804.827628594026
 20
1226.443944938581
 10
-2804.827628594026
 20
1201.443919399321
 10
-2791.341603964821
 20
1201.425916187982
 97
        0
 75
     0
 76
     1
 98
        0
  0
HATCH
  5
8A
330
81
100
AcDbEntity
  8
2D - Ogólne
  6
Continuous
370
    13
100
AcDbHatch
 10
0.0
 20
0.0
 30
0.0
210
0.0
220
0.0
230
1.0
  2
SOLID
 70
     1
 71
     0
 91
        1
 92
        2
 72
     0
 73
     1
 93
        4
 10
-2791.441736272771
 20
1126.425977160882
 10
-2804.827626638322
 20
1126.443853365439
 10
-2804.827626638322
 20
1101.443827826179
 10
-2791.475117888623
 20
1101.426004541115
 97
        0
 75
     0
 76
     1
 98
        0
  0
HATCH
  5
8B
330
81
100
AcDbEntity
  8
2D - Ogólne
  6
Continuous
370
    13
100
AcDbHatch
 10
0.0
 20
0.0
 30
0.0
210
0.0
220
0.0
230
1.0
  2
SOLID
 70
     1
 71
     0
 91
        1
 92
        2
 72
     0
 73
     1
 93
        4
 10
-2804.827627927493
 20
1026.443766155593
 10
-2804.827627927493
 20
1019.727271588809
 10
-2791.584195162396
 20
1019.727271588809
 10
-2791.575249317744
 20
1026.426069885225
 97
        0
 75
     0
 76
     1
 98
        0
  0
HATCH
  5
8C
330
81
100
AcDbEntity
  8
2D - Ogólne
  6
Continuous
370
    13
100
AcDbHatch
 10
0.0
 20
0.0
 30
0.0
210
0.0
220
0.0
230
1.0
  2
SOLID
 70
     1
 71
     0
 91
        1
 92
        2
 72
     0
 73
     1
 93
        4
 10
-2790.674032311675
 20
1701.425463838418
 10
-2790.494984500847
 20
1701.425230992652
 10
-2790.494984500847
 20
1726.425256531912
 10
-2790.640661279722
 20
1726.425447042085
 97
        0
 75
     0
 76
     1
 98
        0
  0
HATCH
  5
8D
330
81
100
AcDbEntity
  8
2D - Ogólne
  6
Continuous
370
    13
100
AcDbHatch
 10
0.0
 20
0.0
 30
0.0
210
0.0
220
0.0
230
1.0
  2
SOLID
 70
     1
 71
     0
 91
        1
 92
        2
 72
     0
 73
     1
 93
        4
 10
-2790.80754819118
 20
1601.42556277545
 10
-2790.494984500847
 20
1601.425150003409
 10
-2790.494984500847
 20
1626.42516495877
 10
-2790.774166575329
 20
1626.425535395217
 97
        0
 75
     0
 76
     1
 98
        0
  0
HATCH
  5
8E
330
81
100
AcDbEntity
  8
2D - Ogólne
  6
Continuous
370
    13
100
AcDbHatch
 10
0.0
 20
0.0
 30
0.0
210
0.0
220
0.0
230
1.0
  2
SOLID
 70
     1
 71
     0
 91
        1
 92
        2
 72
     0
 73
     1
 93
        4
 10
-2790.941064070685
 20
1501.425651128583
 10
-2790.494984500847
 20
1501.425058430267
 10
-2790.494984500847
 20
1526.425073385629
 10
-2790.907682454834
 20
1526.425623748351
 97
        0
 75
     0
 76
     1
 98
        0
  0
HATCH
  5
8F
330
81
100
AcDbEntity
  8
2D - Ogólne
  6
Continuous
370
    13
100
AcDbHatch
 10
0.0
 20
0.0
 30
0.0
210
0.0
220
0.0
230
1.0
  2
SOLID
 70
     1
 71
     0
 91
        1
 92
        2
 72
     0
 73
     1
 93
        4
 10
-2791.074579950191
 20
1401.425739481716
 10
-2790.494984500847
 20
1401.424966857126
 10
-2790.494984500847
 20
1426.424981812487
 10
-2791.04119833434
 20
1426.425712101483
 97
        0
 75
     0
 76
     1
 98
        0
  0
HATCH
  5
90
330
81
100
AcDbEntity
  8
2D - Ogólne
  6
Continuous
370
    13
100
AcDbHatch
 10
0.0
 20
0.0
 30
0.0
210
0.0
220
0.0
230
1.0
  2
SOLID
 70
     1
 71
     0
 91
        1
 92
        2
 72
     0
 73
     1
 93
        4
 10
-2791.208085245797
 20
1301.425827834849
 10
-2790.494984500847
 20
1301.424875283984
 10
-2790.494984500847
 20
1326.424890239346
 10
-2791.174714213845
 20
1326.425800454616
 97
        0
 75
     0
 76
     1
 98
        0
  0
HATCH
  5
91
330
81
100
AcDbEntity
  8
2D - Ogólne
  6
Continuous
370
    13
100
AcDbHatch
 10
0.0
 20
0.0
 30
0.0
210
0.0
220
0.0
230
1.0
  2
SOLID
 70
     1
 71
     0
 91
        1
 92
        2
 72
     0
 73
     1
 93
        4
 10
-2791.341601125303
 20
1201.425916187982
 10
-2790.494984500847
 20
1201.424783710843
 10
-2790.494984500847
 20
1226.424798666204
 10
-2791.30823009335
 20
1226.425888807749
 97
        0
 75
     0
 76
     1
 98
        0
  0
HATCH
  5
92
330
81
100
AcDbEntity
  8
2D - Ogólne
  6
Continuous
370
    13
100
AcDbHatch
 10
0.0
 20
0.0
 30
0.0
210
0.0
220
0.0
230
1.0
  2
SOLID
 70
     1
 71
     0
 91
        1
 92
        2
 72
     0
 73
     1
 93
        4
 10
-2791.475117004808
 20
1101.426004541115
 10
-2790.494984500847
 20
1101.424692137702
 10
-2790.494984500847
 20
1126.424717676962
 10
-2791.441735388957
 20
1126.425977160882
 97
        0
 75
     0
 76
     1
 98
        0
  0
HATCH
  5
93
330
81
100
AcDbEntity
  8
2D - Ogólne
  6
Continuous
370
    13
100
AcDbHatch
 10
0.0
 20
0.0
 30
0.0
210
0.0
220
0.0
230
1.0
  2
SOLID
 70
     1
 71
     0
 91
        1
 92
        2
 72
     0
 73
     1
 93
        4
 10
-2791.575248921972
 20
1026.426065178619
 10
-2791.584195586303
 20
1019.727271975475
 10
-2790.49498263433
 20
1019.727271975475
 10
-2790.49498263433
 20
1026.424621117507
 97
        0
 75
     0
 76
     1
 98
        0
  0
HATCH
  5
94
330
81
100
AcDbEntity
  8
2D - Ogólne
  6
Continuous
370
    13
100
AcDbHatch
 10
0.0
 20
0.0
 30
0.0
210
0.0
220
0.0
230
1.0
  2
SOLID
 70
     1
 71
     0
 91
        1
 92
        2
 72
     0
 73
     1
 93
        4
 10
-2790.674031210915
 20
1701.425463838418
 10
-2804.827624653748
 20
1701.444366681129
 10
-2804.827624653748
 20
1676.444341141869
 10
-2790.707412826766
 20
1676.425491218651
 97
        0
 75
     0
 76
     1
 98
        0
  0
HATCH
  5
95
330
81
100
AcDbEntity
  8
2D - Ogólne
  6
Continuous
370
    13
100
AcDbHatch
 10
0.0
 20
0.0
 30
0.0
210
0.0
220
0.0
230
1.0
  2
SOLID
 70
     1
 71
     0
 91
        1
 92
        2
 72
     0
 73
     1
 93
        4
 10
-2790.807545134716
 20
1601.42556277545
 10
-2804.827622698043
 20
1601.444275107988
 10
-2804.827622698043
 20
1576.444249568728
 10
-2790.840926750567
 20
1576.425579571784
 97
        0
 75
     0
 76
     1
 98
        0
  0
HATCH
  5
96
330
81
100
AcDbEntity
  8
2D - Ogólne
  6
Continuous
370
    13
100
AcDbHatch
 10
0.0
 20
0.0
 30
0.0
210
0.0
220
0.0
230
1.0
  2
SOLID
 70
     1
 71
     0
 91
        1
 92
        2
 72
     0
 73
     1
 93
        4
 10
-2790.941059058517
 20
1501.425651128583
 10
-2804.827620742339
 20
1501.444194118745
 10
-2804.827620742339
 20
1476.444168579485
 10
-2790.974440674368
 20
1476.425667924917
 97
        0
 75
     0
 76
     1
 98
        0
  0
HATCH
  5
97
330
81
100
AcDbEntity
  8
2D - Ogólne
  6
Continuous
370
    13
100
AcDbHatch
 10
0.0
 20
0.0
 30
0.0
210
0.0
220
0.0
230
1.0
  2
SOLID
 70
     1
 71
     0
 91
        1
 92
        2
 72
     0
 73
     1
 93
        4
 10
-2791.074572982318
 20
1401.425739481716
 10
-2804.827629370533
 20
1401.444102545604
 10
-2804.827629370533
 20
1376.444077006344
 10
-2791.107954598169
 20
1376.42575627805
 97
        0
 75
     0
 76
     1
 98
        0
  0
HATCH
  5
98
330
81
100
AcDbEntity
  8
2D - Ogólne
  6
Continuous
370
    13
100
AcDbHatch
 10
0.0
 20
0.0
 30
0.0
210
0.0
220
0.0
230
1.0
  2
SOLID
 70
     1
 71
     0
 91
        1
 92
        2
 72
     0
 73
     1
 93
        4
 10
-2791.208086906119
 20
1301.425827834849
 10
-2804.827627414829
 20
1301.444010972462
 10
-2804.827627414829
 20
1276.443985433202
 10
-2791.241468521971
 20
1276.425844631183
 97
        0
 75
     0
 76
     1
 98
        0
  0
HATCH
  5
99
330
81
100
AcDbEntity
  8
2D - Ogólne
  6
Continuous
370
    13
100
AcDbHatch
 10
0.0
 20
0.0
 30
0.0
210
0.0
220
0.0
230
1.0
  2
SOLID
 70
     1
 71
     0
 91
        1
 92
        2
 72
     0
 73
     1
 93
        4
 10
-2791.34160082992
 20
1201.425916187982
 10
-2804.827625459126
 20
1201.443919399321
 10
-2804.827625459126
 20
1176.443893860061
 10
-2791.374982445772
 20
1176.425932984316
 97
        0
 75
     0
 76
     1
 98
        0
  0
HATCH
  5
9A
330
81
100
AcDbEntity
  8
2D - Ogólne
  6
Continuous
370
    13
100
AcDbHatch
 10
0.0
 20
0.0
 30
0.0
210
0.0
220
0.0
230
1.0
  2
SOLID
 70
     1
 71
     0
 91
        1
 92
        2
 72
     0
 73
     1
 93
        4
 10
-2791.475114753721
 20
1101.426004541115
 10
-2804.827623503421
 20
1101.443827826179
 10
-2804.827623503421
 20
1076.443802286919
 10
-2791.508496369573
 20
1076.426021337449
 97
        0
 75
     0
 76
     1
 98
        0
  0
HATCH
  5
9B
330
81
100
AcDbEntity
  8
2D - Ogólne
  6
Continuous
370
    13
100
AcDbHatch
 10
0.0
 20
0.0
 30
0.0
210
0.0
220
0.0
230
1.0
  2
SOLID
 70
     1
 71
     0
 91
        1
 92
        2
 72
     0
 73
     1
 93
        4
 10
-2790.707413927526
 20
1676.425491218651
 10
-2790.494984500847
 20
1676.425205453392
 10
-2790.494984500847
 20
1701.425220408753
 10
-2790.674032311675
 20
1701.425463838418
 97
        0
 75
     0
 76
     1
 98
        0
  0
HATCH
  5
9C
330
81
100
AcDbEntity
  8
2D - Ogólne
  6
Continuous
370
    13
100
AcDbHatch
 10
0.0
 20
0.0
 30
0.0
210
0.0
220
0.0
230
1.0
  2
SOLID
 70
     1
 71
     0
 91
        1
 92
        2
 72
     0
 73
     1
 93
        4
 10
-2790.840929807031
 20
1576.425579571784
 10
-2790.494984500847
 20
1576.42511388025
 10
-2790.494984500847
 20
1601.425150003409
 10
-2790.80754819118
 20
1601.42556277545
 97
        0
 75
     0
 76
     1
 98
        0
  0
HATCH
  5
9D
330
81
100
AcDbEntity
  8
2D - Ogólne
  6
Continuous
370
    13
100
AcDbHatch
 10
0.0
 20
0.0
 30
0.0
210
0.0
220
0.0
230
1.0
  2
SOLID
 70
     1
 71
     0
 91
        1
 92
        2
 72
     0
 73
     1
 93
        4
 10
-2790.974445686536
 20
1476.425667924917
 10
-2790.494984500847
 20
1476.425032891007
 10
-2790.494984500847
 20
1501.425058430267
 10
-2790.941064070685
 20
1501.425651128583
 97
        0
 75
     0
 76
     1
 98
        0
  0
HATCH
  5
9E
330
81
100
AcDbEntity
  8
2D - Ogólne
  6
Continuous
370
    13
100
AcDbHatch
 10
0.0
 20
0.0
 30
0.0
210
0.0
220
0.0
230
1.0
  2
SOLID
 70
     1
 71
     0
 91
        1
 92
        2
 72
     0
 73
     1
 93
        4
 10
-2791.107950982143
 20
1376.42575627805
 10
-2790.494984500847
 20
1376.424941317866
 10
-2790.494984500847
 20
1401.424966857126
 10
-2791.074579950191
 20
1401.425739481716
 97
        0
 75
     0
 76
     1
 98
        0
  0
HATCH
  5
9F
330
81
100
AcDbEntity
  8
2D - Ogólne
  6
Continuous
370
    13
100
AcDbHatch
 10
0.0
 20
0.0
 30
0.0
210
0.0
220
0.0
230
1.0
  2
SOLID
 70
     1
 71
     0
 91
        1
 92
        2
 72
     0
 73
     1
 93
        4
 10
-2791.241466861648
 20
1276.425844631183
 10
-2790.494984500847
 20
1276.424849744724
 10
-2790.494984500847
 20
1301.424875283984
 10
-2791.208085245797
 20
1301.425827834849
 97
        0
 75
     0
 76
     1
 98
        0
  0
HATCH
  5
A0
330
81
100
AcDbEntity
  8
2D - Ogólne
  6
Continuous
370
    13
100
AcDbHatch
 10
0.0
 20
0.0
 30
0.0
210
0.0
220
0.0
230
1.0
  2
SOLID
 70
     1
 71
     0
 91
        1
 92
        2
 72
     0
 73
     1
 93
        4
 10
-2791.374982741153
 20
1176.425932984316
 10
-2790.494984500847
 20
1176.424758171583
 10
-2790.494984500847
 20
1201.424783710843
 10
-2791.341601125303
 20
1201.425916187982
 97
        0
 75
     0
 76
     1
 98
        0
  0
HATCH
  5
A1
330
81
100
AcDbEntity
  8
2D - Ogólne
  6
Continuous
370
    13
100
AcDbHatch
 10
0.0
 20
0.0
 30
0.0
210
0.0
220
0.0
230
1.0
  2
SOLID
 70
     1
 71
     0
 91
        1
 92
        2
 72
     0
 73
     1
 93
        4
 10
-2791.508498620659
 20
1076.426021337449
 10
-2790.494984500847
 20
1076.424666598441
 10
-2790.494984500847
 20
1101.424692137702
 10
-2791.475117004808
 20
1101.426004541115
 97
        0
 75
     0
 76
     1
 98
        0
  0
ENDBLK
  5
83
330
81
100
AcDbEntity
  8
0
100
AcDbBlockEnd
  0
BLOCK
  5
A9
330
A8
100
AcDbEntity
  8
0
100
AcDbBlockBegin
  2
*X3
 70
     1
 10
0.0
 20
0.0
 30
0.0
  3
*X3
  1

  0
HATCH
  5
AB
330
A8
100
AcDbEntity
  8
2D - Ogólne
  6
Continuous
370
    13
100
AcDbHatch
 10
0.0
 20
0.0
 30
0.0
210
0.0
220
0.0
230
1.0
  2
SOLID
 70
     1
 71
     0
 91
        1
 92
        2
 72
     0
 73
     1
 93
        4
 10
-253.634477774539
 20
875.7802948198042
 10
-267.8214471436828
 20
875.799233647499
 10
-267.8214471436828
 20
850.7992122345098
 10
-253.6678540083562
 20
850.7803128353253
 97
        0
 75
     0
 76
     1
 98
        0
  0
HATCH
  5
AC
330
A8
100
AcDbEntity
  8
2D - Ogólne
  6
Continuous
370
    13
100
AcDbHatch
 10
0.0
 20
0.0
 30
0.0
210
0.0
220
0.0
230
1.0
  2
SOLID
 70
     1
 71
     0
 91
        1
 92
        2
 72
     0
 73
     1
 93
        4
 10
-253.7679916983401
 20
775.780380024725
 10
-267.8214495607963
 20
775.7991414241242
 10
-267.8214495607963
 20
750.7991265825535
 10
-253.8013679321573
 20
750.7804046116644
 97
        0
 75
     0
 76
     1
 98
        0
  0
HATCH
  5
AD
330
A8
100
AcDbEntity
  8
2D - Ogólne
  6
Continuous
370
    13
100
AcDbHatch
 10
0.0
 20
0.0
 30
0.0
210
0.0
220
0.0
230
1.0
  2
SOLID
 70
     1
 71
     0
 91
        1
 92
        2
 72
     0
 73
     1
 93
        4
 10
-253.9015056221413
 20
675.7804718010642
 10
-267.8214454064914
 20
675.7990557721678
 10
-267.8214454064914
 20
650.7990343591787
 10
-253.9348818559586
 20
650.7804963880035
 97
        0
 75
     0
 76
     1
 98
        0
  0
HATCH
  5
AE
330
A8
100
AcDbEntity
  8
2D - Ogólne
  6
Continuous
370
    13
100
AcDbHatch
 10
0.0
 20
0.0
 30
0.0
210
0.0
220
0.0
230
1.0
  2
SOLID
 70
     1
 71
     0
 91
        1
 92
        2
 72
     0
 73
     1
 93
        4
 10
-254.0350195459424
 20
575.7805570059849
 10
-267.8214478236049
 20
575.798963548793
 10
-267.8214478236049
 20
550.7989421358038
 10
-254.0683957797597
 20
550.7805815929242
 97
        0
 75
     0
 76
     1
 98
        0
  0
HATCH
  5
AF
330
A8
100
AcDbEntity
  8
2D - Ogólne
  6
Continuous
370
    13
100
AcDbHatch
 10
0.0
 20
0.0
 30
0.0
210
0.0
220
0.0
230
1.0
  2
SOLID
 70
     1
 71
     0
 91
        1
 92
        2
 72
     0
 73
     1
 93
        4
 10
-267.8214498853991
 20
475.7988772188939
 10
-267.8214498853991
 20
458.7272754286059
 10
-254.1912983980759
 20
458.7272754286059
 10
-254.1685328995999
 20
475.7806474265498
 97
        0
 75
     0
 76
     1
 98
        0
  0
HATCH
  5
B0
330
A8
100
AcDbEntity
  8
2D - Ogólne
  6
Continuous
370
    13
100
AcDbHatch
 10
0.0
 20
0.0
 30
0.0
210
0.0
220
0.0
230
1.0
  2
SOLID
 70
     1
 71
     0
 91
        1
 92
        2
 72
     0
 73
     1
 93
        4
 10
-253.6678538558277
 20
850.7803128353253
 10
-253.4888024199505
 20
850.7800762642646
 10
-253.4888024199505
 20
875.7800976772536
 10
-253.6344776220104
 20
875.7802948198042
 97
        0
 75
     0
 76
     1
 98
        0
  0
HATCH
  5
B1
330
A8
100
AcDbEntity
  8
2D - Ogólne
  6
Continuous
370
    13
100
AcDbHatch
 10
0.0
 20
0.0
 30
0.0
210
0.0
220
0.0
230
1.0
  2
SOLID
 70
     1
 71
     0
 91
        1
 92
        2
 72
     0
 73
     1
 93
        4
 10
-253.8013719339338
 20
750.7804046116644
 10
-253.4888024199505
 20
750.7799906123081
 10
-253.4888024199505
 20
775.7800054538789
 10
-253.7679891286981
 20
775.780380024725
 97
        0
 75
     0
 76
     1
 98
        0
  0
HATCH
  5
B2
330
A8
100
AcDbEntity
  8
2D - Ogólne
  6
Continuous
370
    13
100
AcDbHatch
 10
0.0
 20
0.0
 30
0.0
210
0.0
220
0.0
230
1.0
  2
SOLID
 70
     1
 71
     0
 91
        1
 92
        2
 72
     0
 73
     1
 93
        4
 10
-253.9348834406214
 20
650.7804963880035
 10
-253.4888024199505
 20
650.7798983889334
 10
-253.4888024199505
 20
675.7799198019225
 10
-253.901507206804
 20
675.7804718010642
 97
        0
 75
     0
 76
     1
 98
        0
  0
HATCH
  5
B3
330
A8
100
AcDbEntity
  8
2D - Ogólne
  6
Continuous
370
    13
100
AcDbHatch
 10
0.0
 20
0.0
 30
0.0
210
0.0
220
0.0
230
1.0
  2
SOLID
 70
     1
 71
     0
 91
        1
 92
        2
 72
     0
 73
     1
 93
        4
 10
-254.068394947309
 20
550.7805815929242
 10
-253.4888024199505
 20
550.7798061655585
 10
-253.4888024199505
 20
575.7798275785476
 10
-254.0350187134917
 20
575.7805570059849
 97
        0
 75
     0
 76
     1
 98
        0
  0
HATCH
  5
B4
330
A8
100
AcDbEntity
  8
2D - Ogólne
  6
Continuous
370
    13
100
AcDbHatch
 10
0.0
 20
0.0
 30
0.0
210
0.0
220
0.0
230
1.0
  2
SOLID
 70
     1
 71
     0
 91
        1
 92
        2
 72
     0
 73
     1
 93
        4
 10
-254.1685338704553
 20
475.7806488534479
 10
-254.1913027540901
 20
458.7272702047144
 10
-253.4888060839923
 20
458.7272702047144
 10
-253.4888060839923
 20
475.7797389010017
 97
        0
 75
     0
 76
     1
 98
        0
  0
HATCH
  5
B5
330
A8
100
AcDbEntity
  8
2D - Ogólne
  6
Continuous
370
    13
100
AcDbHatch
 10
0.0
 20
0.0
 30
0.0
210
0.0
220
0.0
230
1.0
  2
SOLID
 70
     1
 71
     0
 91
        1
 92
        2
 72
     0
 73
     1
 93
        4
 10
-253.6678562554892
 20
850.7803128353253
 10
-267.8214493908158
 20
850.7992122345098
 10
-267.8214493908158
 20
825.7991908215207
 10
-253.7012324893065
 20
825.7803374222647
 97
        0
 75
     0
 76
     1
 98
        0
  0
HATCH
  5
B6
330
A8
100
AcDbEntity
  8
2D - Ogólne
  6
Continuous
370
    13
100
AcDbHatch
 10
0.0
 20
0.0
 30
0.0
210
0.0
220
0.0
230
1.0
  2
SOLID
 70
     1
 71
     0
 91
        1
 92
        2
 72
     0
 73
     1
 93
        4
 10
-253.8013701792904
 20
750.7804046116644
 10
-267.8214452365109
 20
750.7991265825535
 10
-267.8214452365109
 20
725.7991051695642
 10
-253.8347464131077
 20
725.7804291986038
 97
        0
 75
     0
 76
     1
 98
        0
  0
HATCH
  5
B7
330
A8
100
AcDbEntity
  8
2D - Ogólne
  6
Continuous
370
    13
100
AcDbHatch
 10
0.0
 20
0.0
 30
0.0
210
0.0
220
0.0
230
1.0
  2
SOLID
 70
     1
 71
     0
 91
        1
 92
        2
 72
     0
 73
     1
 93
        4
 10
-253.9348841030915
 20
650.7804963880035
 10
-267.8214476536244
 20
650.7990343591787
 10
-267.8214476536244
 20
625.7990129461896
 10
-253.9682603369088
 20
625.7805144035244
 97
        0
 75
     0
 76
     1
 98
        0
  0
HATCH
  5
B8
330
A8
100
AcDbEntity
  8
2D - Ogólne
  6
Continuous
370
    13
100
AcDbHatch
 10
0.0
 20
0.0
 30
0.0
210
0.0
220
0.0
230
1.0
  2
SOLID
 70
     1
 71
     0
 91
        1
 92
        2
 72
     0
 73
     1
 93
        4
 10
-254.0683980268927
 20
550.7805815929242
 10
-267.8214500707379
 20
550.7989421358038
 10
-267.8214500707379
 20
525.7989207228147
 10
-254.10177426071
 20
525.7806061798635
 97
        0
 75
     0
 76
     1
 98
        0
  0
HATCH
  5
B9
330
A8
100
AcDbEntity
  8
2D - Ogólne
  6
Continuous
370
    13
100
AcDbHatch
 10
0.0
 20
0.0
 30
0.0
210
0.0
220
0.0
230
1.0
  2
SOLID
 70
     1
 71
     0
 91
        1
 92
        2
 72
     0
 73
     1
 93
        4
 10
-253.7012366610634
 20
825.7803374222647
 10
-253.4888024199505
 20
825.7800548512755
 10
-253.4888024199505
 20
850.7800762642646
 10
-253.6678538558277
 20
850.7803128353253
 97
        0
 75
     0
 76
     1
 98
        0
  0
HATCH
  5
BA
330
A8
100
AcDbEntity
  8
2D - Ogólne
  6
Continuous
370
    13
100
AcDbHatch
 10
0.0
 20
0.0
 30
0.0
210
0.0
220
0.0
230
1.0
  2
SOLID
 70
     1
 71
     0
 91
        1
 92
        2
 72
     0
 73
     1
 93
        4
 10
-253.8347481677511
 20
725.7804291986038
 10
-253.4888024199505
 20
725.779969199319
 10
-253.4888024199505
 20
750.7799840408898
 10
-253.8013719339338
 20
750.7804046116644
 97
        0
 75
     0
 76
     1
 98
        0
  0
HATCH
  5
BB
330
A8
100
AcDbEntity
  8
2D - Ogólne
  6
Continuous
370
    13
100
AcDbHatch
 10
0.0
 20
0.0
 30
0.0
210
0.0
220
0.0
230
1.0
  2
SOLID
 70
     1
 71
     0
 91
        1
 92
        2
 72
     0
 73
     1
 93
        4
 10
-253.9682596744387
 20
625.7805144035244
 10
-253.4888024199505
 20
625.7798769759441
 10
-253.4888024199505
 20
650.7798983889334
 10
-253.9348834406214
 20
650.7804963880035
 97
        0
 75
     0
 76
     1
 98
        0
  0
HATCH
  5
BC
330
A8
100
AcDbEntity
  8
2D - Ogólne
  6
Continuous
370
    13
100
AcDbHatch
 10
0.0
 20
0.0
 30
0.0
210
0.0
220
0.0
230
1.0
  2
SOLID
 70
     1
 71
     0
 91
        1
 92
        2
 72
     0
 73
     1
 93
        4
 10
-254.1017777525447
 20
525.7806061798635
 10
-253.4888024199505
 20
525.7797913239878
 10
-253.4888024199505
 20
550.7798061655585
 10
-254.068394947309
 20
550.7805815929242
 97
        0
 75
     0
 76
     1
 98
        0
  0
ENDBLK
  5
AA
330
A8
100
AcDbEntity
  8
0
100
AcDbBlockEnd
  0
BLOCK
  5
F5
330
F4
100
AcDbEntity
  8
0
100
AcDbBlockBegin
  2
*X4
 70
     1
 10
0.0
 20
0.0
 30
0.0
  3
*X4
  1

  0
HATCH
  5
F7
330
F4
100
AcDbEntity
  8
2D - Ogólne
  6
Continuous
370
    13
100
AcDbHatch
 10
0.0
 20
0.0
 30
0.0
210
0.0
220
0.0
230
1.0
  2
SOLID
 70
     1
 71
     0
 91
        1
 92
        2
 72
     0
 73
     1
 93
        4
 10
-2703.787352109394
 20
458.7272726061859
 10
-2728.787351733818
 20
458.7272726061859
 10
-2728.787351733818
 20
442.7272723086565
 10
-2703.787352109394
 20
442.7272723086565
 97
        0
 75
     0
 76
     1
 98
        0
  0
HATCH
  5
F8
330
F4
100
AcDbEntity
  8
2D - Ogólne
  6
Continuous
370
    13
100
AcDbHatch
 10
0.0
 20
0.0
 30
0.0
210
0.0
220
0.0
230
1.0
  2
SOLID
 70
     1
 71
     0
 91
        1
 92
        2
 72
     0
 73
     1
 93
        4
 10
-2603.787349129215
 20
458.7272726061859
 10
-2628.787353236122
 20
458.7272726061859
 10
-2628.787353236122
 20
442.7272723086565
 10
-2603.787349129215
 20
442.7272723086565
 97
        0
 75
     0
 76
     1
 98
        0
  0
HATCH
  5
F9
330
F4
100
AcDbEntity
  8
2D - Ogólne
  6
Continuous
370
    13
100
AcDbHatch
 10
0.0
 20
0.0
 30
0.0
210
0.0
220
0.0
230
1.0
  2
SOLID
 70
     1
 71
     0
 91
        1
 92
        2
 72
     0
 73
     1
 93
        4
 10
-2503.787350631518
 20
458.7272726061859
 10
-2528.787350255942
 20
458.7272726061859
 10
-2528.787350255942
 20
442.7272723086565
 10
-2503.787350631518
 20
442.7272723086565
 97
        0
 75
     0
 76
     1
 98
        0
  0
HATCH
  5
FA
330
F4
100
AcDbEntity
  8
2D - Ogólne
  6
Continuous
370
    13
100
AcDbHatch
 10
0.0
 20
0.0
 30
0.0
210
0.0
220
0.0
230
1.0
  2
SOLID
 70
     1
 71
     0
 91
        1
 92
        2
 72
     0
 73
     1
 93
        4
 10
-2789.934141107864
 20
458.7272738908637
 10
-2789.934141107864
 20
442.7272739389277
 10
-2778.787351844024
 20
442.7272739389277
 10
-2778.787351844024
 20
458.7272738908637
 97
        0
 75
     0
 76
     1
 98
        0
  0
HATCH
  5
FB
330
F4
100
AcDbEntity
  8
2D - Ogólne
  6
Continuous
370
    13
100
AcDbHatch
 10
0.0
 20
0.0
 30
0.0
210
0.0
220
0.0
230
1.0
  2
SOLID
 70
     1
 71
     0
 91
        1
 92
        2
 72
     0
 73
     1
 93
        4
 10
-2678.78735248497
 20
458.7272726061859
 10
-2703.787352109394
 20
458.7272726061859
 10
-2703.787352109394
 20
442.7272723086565
 10
-2678.78735248497
 20
442.7272723086565
 97
        0
 75
     0
 76
     1
 98
        0
  0
HATCH
  5
FC
330
F4
100
AcDbEntity
  8
2D - Ogólne
  6
Continuous
370
    13
100
AcDbHatch
 10
0.0
 20
0.0
 30
0.0
210
0.0
220
0.0
230
1.0
  2
SOLID
 70
     1
 71
     0
 91
        1
 92
        2
 72
     0
 73
     1
 93
        4
 10
-2578.787349504791
 20
458.7272726061859
 10
-2603.787349129215
 20
458.7272726061859
 10
-2603.787349129215
 20
442.7272723086565
 10
-2578.787349504791
 20
442.7272723086565
 97
        0
 75
     0
 76
     1
 98
        0
  0
HATCH
  5
FD
330
F4
100
AcDbEntity
  8
2D - Ogólne
  6
Continuous
370
    13
100
AcDbHatch
 10
0.0
 20
0.0
 30
0.0
210
0.0
220
0.0
230
1.0
  2
SOLID
 70
     1
 71
     0
 91
        1
 92
        2
 72
     0
 73
     1
 93
        4
 10
-2503.787350905981
 20
458.7272727678144
 10
-2503.787350905981
 20
442.7272725740685
 10
-2489.120145460437
 20
442.7272725740685
 10
-2489.120145460437
 20
458.7272727678144
 97
        0
 75
     0
 76
     1
 98
        0
  0
ENDBLK
  5
F6
330
F4
100
AcDbEntity
  8
0
100
AcDbBlockEnd
  0
BLOCK
  5
105
330
104
100
AcDbEntity
  8
0
100
AcDbBlockBegin
  2
*X5
 70
     1
 10
0.0
 20
0.0
 30
0.0
  3
*X5
  1

  0
HATCH
  5
107
330
104
100
AcDbEntity
  8
2D - Ogólne
  6
Continuous
370
    13
100
AcDbHatch
 10
0.0
 20
0.0
 30
0.0
210
0.0
220
0.0
230
1.0
  2
SOLID
 70
     1
 71
     0
 91
        1
 92
        2
 72
     0
 73
     1
 93
        4
 10
-1769.120145211432
 20
458.7272728021864
 10
-1769.120145211432
 20
442.7272733621298
 10
-1744.760775626632
 20
442.7272733621298
 10
-1744.760775626632
 20
458.7272728021864
 97
        0
 75
     0
 76
     1
 98
        0
  0
HATCH
  5
108
330
104
100
AcDbEntity
  8
2D - Ogólne
  6
Continuous
370
    13
100
AcDbHatch
 10
0.0
 20
0.0
 30
0.0
210
0.0
220
0.0
230
1.0
  2
SOLID
 70
     1
 71
     0
 91
        1
 92
        2
 72
     0
 73
     1
 93
        4
 10
-1644.760779612165
 20
458.7272689676657
 10
-1669.760774728951
 20
458.7272689676657
 10
-1669.760774728951
 20
442.7272749844889
 10
-1644.760779612165
 20
442.7272749844889
 97
        0
 75
     0
 76
     1
 98
        0
  0
HATCH
  5
109
330
104
100
AcDbEntity
  8
2D - Ogólne
  6
Continuous
370
    13
100
AcDbHatch
 10
0.0
 20
0.0
 30
0.0
210
0.0
220
0.0
230
1.0
  2
SOLID
 70
     1
 71
     0
 91
        1
 92
        2
 72
     0
 73
     1
 93
        4
 10
-1544.76077504863
 20
458.7272689676657
 10
-1569.760778197546
 20
458.7272689676657
 10
-1569.760778197546
 20
442.7272749844889
 10
-1544.76077504863
 20
442.7272749844889
 97
        0
 75
     0
 76
     1
 98
        0
  0
HATCH
  5
10A
330
104
100
AcDbEntity
  8
2D - Ogólne
  6
Continuous
370
    13
100
AcDbHatch
 10
0.0
 20
0.0
 30
0.0
210
0.0
220
0.0
230
1.0
  2
SOLID
 70
     1
 71
     0
 91
        1
 92
        2
 72
     0
 73
     1
 93
        4
 10
-1444.760778517224
 20
458.7272689676657
 10
-1469.760773634011
 20
458.7272689676657
 10
-1469.760773634011
 20
442.7272749844889
 10
-1444.760778517224
 20
442.7272749844889
 97
        0
 75
     0
 76
     1
 98
        0
  0
HATCH
  5
10B
330
104
100
AcDbEntity
  8
2D - Ogólne
  6
Continuous
370
    13
100
AcDbHatch
 10
0.0
 20
0.0
 30
0.0
210
0.0
220
0.0
230
1.0
  2
SOLID
 70
     1
 71
     0
 91
        1
 92
        2
 72
     0
 73
     1
 93
        4
 10
-1344.760773953689
 20
458.7272689676657
 10
-1369.760777102606
 20
458.7272689676657
 10
-1369.760777102606
 20
442.7272749844889
 10
-1344.760773953689
 20
442.7272749844889
 97
        0
 75
     0
 76
     1
 98
        0
  0
HATCH
  5
10C
330
104
100
AcDbEntity
  8
2D - Ogólne
  6
Continuous
370
    13
100
AcDbHatch
 10
0.0
 20
0.0
 30
0.0
210
0.0
220
0.0
230
1.0
  2
SOLID
 70
     1
 71
     0
 91
        1
 92
        2
 72
     0
 73
     1
 93
        4
 10
-1244.760777422284
 20
458.7272689676657
 10
-1269.7607805712
 20
458.7272689676657
 10
-1269.7607805712
 20
442.7272749844889
 10
-1244.760777422284
 20
442.7272749844889
 97
        0
 75
     0
 76
     1
 98
        0
  0
HATCH
  5
10D
330
104
100
AcDbEntity
  8
2D - Ogólne
  6
Continuous
370
    13
100
AcDbHatch
 10
0.0
 20
0.0
 30
0.0
210
0.0
220
0.0
230
1.0
  2
SOLID
 70
     1
 71
     0
 91
        1
 92
        2
 72
     0
 73
     1
 93
        4
 10
-1719.760781026784
 20
458.7272689676657
 10
-1744.76077614357
 20
458.7272689676657
 10
-1744.76077614357
 20
442.7272749844889
 10
-1719.760781026784
 20
442.7272749844889
 97
        0
 75
     0
 76
     1
 98
        0
  0
HATCH
  5
10E
330
104
100
AcDbEntity
  8
2D - Ogólne
  6
Continuous
370
    13
100
AcDbHatch
 10
0.0
 20
0.0
 30
0.0
210
0.0
220
0.0
230
1.0
  2
SOLID
 70
     1
 71
     0
 91
        1
 92
        2
 72
     0
 73
     1
 93
        4
 10
-1619.760776463249
 20
458.7272689676657
 10
-1644.760779612165
 20
458.7272689676657
 10
-1644.760779612165
 20
442.7272749844889
 10
-1619.760776463249
 20
442.7272749844889
 97
        0
 75
     0
 76
     1
 98
        0
  0
HATCH
  5
10F
330
104
100
AcDbEntity
  8
2D - Ogólne
  6
Continuous
370
    13
100
AcDbHatch
 10
0.0
 20
0.0
 30
0.0
210
0.0
220
0.0
230
1.0
  2
SOLID
 70
     1
 71
     0
 91
        1
 92
        2
 72
     0
 73
     1
 93
        4
 10
-1519.760779931843
 20
458.7272689676657
 10
-1544.76077504863
 20
458.7272689676657
 10
-1544.76077504863
 20
442.7272749844889
 10
-1519.760779931843
 20
442.7272749844889
 97
        0
 75
     0
 76
     1
 98
        0
  0
HATCH
  5
110
330
104
100
AcDbEntity
  8
2D - Ogólne
  6
Continuous
370
    13
100
AcDbHatch
 10
0.0
 20
0.0
 30
0.0
210
0.0
220
0.0
230
1.0
  2
SOLID
 70
     1
 71
     0
 91
        1
 92
        2
 72
     0
 73
     1
 93
        4
 10
-1419.760775368308
 20
458.7272689676657
 10
-1444.760778517224
 20
458.7272689676657
 10
-1444.760778517224
 20
442.7272749844889
 10
-1419.760775368308
 20
442.7272749844889
 97
        0
 75
     0
 76
     1
 98
        0
  0
HATCH
  5
111
330
104
100
AcDbEntity
  8
2D - Ogólne
  6
Continuous
370
    13
100
AcDbHatch
 10
0.0
 20
0.0
 30
0.0
210
0.0
220
0.0
230
1.0
  2
SOLID
 70
     1
 71
     0
 91
        1
 92
        2
 72
     0
 73
     1
 93
        4
 10
-1319.760778836903
 20
458.7272689676657
 10
-1344.760773953689
 20
458.7272689676657
 10
-1344.760773953689
 20
442.7272749844889
 10
-1319.760778836903
 20
442.7272749844889
 97
        0
 75
     0
 76
     1
 98
        0
  0
HATCH
  5
112
330
104
100
AcDbEntity
  8
2D - Ogólne
  6
Continuous
370
    13
100
AcDbHatch
 10
0.0
 20
0.0
 30
0.0
210
0.0
220
0.0
230
1.0
  2
SOLID
 70
     1
 71
     0
 91
        1
 92
        2
 72
     0
 73
     1
 93
        4
 10
-1244.760775560258
 20
458.7272703213546
 10
-1244.760775560258
 20
442.7272753415539
 10
-1230.093567755421
 20
442.7272753415539
 10
-1230.093567755421
 20
458.7272703213546
 97
        0
 75
     0
 76
     1
 98
        0
  0
ENDBLK
  5
106
330
104
100
AcDbEntity
  8
0
100
AcDbBlockEnd
  0
BLOCK
  5
11A
330
119
100
AcDbEntity
  8
0
100
AcDbBlockBegin
  2
*X6
 70
     1
 10
0.0
 20
0.0
 30
0.0
  3
*X6
  1

  0
HATCH
  5
11C
330
119
100
AcDbEntity
  8
2D - Ogólne
  6
Continuous
370
    13
100
AcDbHatch
 10
0.0
 20
0.0
 30
0.0
210
0.0
220
0.0
230
1.0
  2
SOLID
 70
     1
 71
     0
 91
        1
 92
        2
 72
     0
 73
     1
 93
        4
 10
-1210.093569873063
 20
458.7272733090596
 10
-1210.093569873063
 20
442.7272745226092
 10
-1185.734201182643
 20
442.7272745226092
 10
-1185.734201182643
 20
458.7272733090596
 97
        0
 75
     0
 76
     1
 98
        0
  0
HATCH
  5
11D
330
119
100
AcDbEntity
  8
2D - Ogólne
  6
Continuous
370
    13
100
AcDbHatch
 10
0.0
 20
0.0
 30
0.0
210
0.0
220
0.0
230
1.0
  2
SOLID
 70
     1
 71
     0
 91
        1
 92
        2
 72
     0
 73
     1
 93
        4
 10
-1085.734204770786
 20
458.7272718617861
 10
-1110.734203131657
 20
458.7272718617861
 10
-1110.734203131657
 20
442.7272739479506
 10
-1085.734204770786
 20
442.7272739479506
 97
        0
 75
     0
 76
     1
 98
        0
  0
HATCH
  5
11E
330
119
100
AcDbEntity
  8
2D - Ogólne
  6
Continuous
370
    13
100
AcDbHatch
 10
0.0
 20
0.0
 30
0.0
210
0.0
220
0.0
230
1.0
  2
SOLID
 70
     1
 71
     0
 91
        1
 92
        2
 72
     0
 73
     1
 93
        4
 10
-985.7342026846212
 20
458.7272718617861
 10
-1010.734205366833
 20
458.7272718617861
 10
-1010.734205366833
 20
442.7272739479506
 10
-985.7342026846212
 20
442.7272739479506
 97
        0
 75
     0
 76
     1
 98
        0
  0
HATCH
  5
11F
330
119
100
AcDbEntity
  8
2D - Ogólne
  6
Continuous
370
    13
100
AcDbHatch
 10
0.0
 20
0.0
 30
0.0
210
0.0
220
0.0
230
1.0
  2
SOLID
 70
     1
 71
     0
 91
        1
 92
        2
 72
     0
 73
     1
 93
        4
 10
-1160.734204174739
 20
458.7272718617861
 10
-1185.73420253561
 20
458.7272718617861
 10
-1185.73420253561
 20
442.7272739479506
 10
-1160.734204174739
 20
442.7272739479506
 97
        0
 75
     0
 76
     1
 98
        0
  0
HATCH
  5
120
330
119
100
AcDbEntity
  8
2D - Ogólne
  6
Continuous
370
    13
100
AcDbHatch
 10
0.0
 20
0.0
 30
0.0
210
0.0
220
0.0
230
1.0
  2
SOLID
 70
     1
 71
     0
 91
        1
 92
        2
 72
     0
 73
     1
 93
        4
 10
-1060.734202088574
 20
458.7272718617861
 10
-1085.734204770786
 20
458.7272718617861
 10
-1085.734204770786
 20
442.7272739479506
 10
-1060.734202088574
 20
442.7272739479506
 97
        0
 75
     0
 76
     1
 98
        0
  0
HATCH
  5
121
330
119
100
AcDbEntity
  8
2D - Ogólne
  6
Continuous
370
    13
100
AcDbHatch
 10
0.0
 20
0.0
 30
0.0
210
0.0
220
0.0
230
1.0
  2
SOLID
 70
     1
 71
     0
 91
        1
 92
        2
 72
     0
 73
     1
 93
        4
 10
-960.7342043237503
 20
458.7272718617861
 10
-985.7342026846212
 20
458.7272718617861
 10
-985.7342026846212
 20
442.7272739479506
 10
-960.7342043237503
 20
442.7272739479506
 97
        0
 75
     0
 76
     1
 98
        0
  0
ENDBLK
  5
11B
330
119
100
AcDbEntity
  8
0
100
AcDbBlockEnd
  0
BLOCK
  5
129
330
128
100
AcDbEntity
  8
0
100
AcDbBlockBegin
  2
*X7
 70
     1
 10
0.0
 20
0.0
 30
0.0
  3
*X7
  1

  0
HATCH
  5
12B
330
128
100
AcDbEntity
  8
2D - Ogólne
  6
Continuous
370
    13
100
AcDbHatch
 10
0.0
 20
0.0
 30
0.0
210
0.0
220
0.0
230
1.0
  2
SOLID
 70
     1
 71
     0
 91
        1
 92
        2
 72
     0
 73
     1
 93
        4
 10
-900.0935713838157
 20
458.7272723790493
 10
-900.0935713838157
 20
442.727271779209
 10
-875.7342026987349
 20
442.727271779209
 10
-875.7342026987349
 20
458.7272723790493
 97
        0
 75
     0
 76
     1
 98
        0
  0
HATCH
  5
12C
330
128
100
AcDbEntity
  8
2D - Ogólne
  6
Continuous
370
    13
100
AcDbHatch
 10
0.0
 20
0.0
 30
0.0
210
0.0
220
0.0
230
1.0
  2
SOLID
 70
     1
 71
     0
 91
        1
 92
        2
 72
     0
 73
     1
 93
        4
 10
-775.7342026846212
 20
458.7272730538801
 10
-800.7342026846212
 20
458.7272730538801
 10
-800.7342026846212
 20
442.72727305388
 10
-775.7342026846212
 20
442.72727305388
 97
        0
 75
     0
 76
     1
 98
        0
  0
HATCH
  5
12D
330
128
100
AcDbEntity
  8
2D - Ogólne
  6
Continuous
370
    13
100
AcDbHatch
 10
0.0
 20
0.0
 30
0.0
210
0.0
220
0.0
230
1.0
  2
SOLID
 70
     1
 71
     0
 91
        1
 92
        2
 72
     0
 73
     1
 93
        4
 10
-675.734202684621
 20
458.7272730538801
 10
-700.7342026846211
 20
458.7272730538801
 10
-700.7342026846211
 20
442.72727305388
 10
-675.734202684621
 20
442.72727305388
 97
        0
 75
     0
 76
     1
 98
        0
  0
HATCH
  5
12E
330
128
100
AcDbEntity
  8
2D - Ogólne
  6
Continuous
370
    13
100
AcDbHatch
 10
0.0
 20
0.0
 30
0.0
210
0.0
220
0.0
230
1.0
  2
SOLID
 70
     1
 71
     0
 91
        1
 92
        2
 72
     0
 73
     1
 93
        4
 10
-600.7342027497192
 20
458.7272719790199
 10
-600.7342027497192
 20
442.7272725544068
 10
-590.0935704245251
 20
442.7272725544068
 10
-590.0935704245251
 20
458.7272719790199
 97
        0
 75
     0
 76
     1
 98
        0
  0
HATCH
  5
12F
330
128
100
AcDbEntity
  8
2D - Ogólne
  6
Continuous
370
    13
100
AcDbHatch
 10
0.0
 20
0.0
 30
0.0
210
0.0
220
0.0
230
1.0
  2
SOLID
 70
     1
 71
     0
 91
        1
 92
        2
 72
     0
 73
     1
 93
        4
 10
-850.7342026846213
 20
458.7272730538801
 10
-875.7342026846213
 20
458.7272730538801
 10
-875.7342026846213
 20
442.72727305388
 10
-850.7342026846213
 20
442.72727305388
 97
        0
 75
     0
 76
     1
 98
        0
  0
HATCH
  5
130
330
128
100
AcDbEntity
  8
2D - Ogólne
  6
Continuous
370
    13
100
AcDbHatch
 10
0.0
 20
0.0
 30
0.0
210
0.0
220
0.0
230
1.0
  2
SOLID
 70
     1
 71
     0
 91
        1
 92
        2
 72
     0
 73
     1
 93
        4
 10
-750.7342026846211
 20
458.7272730538801
 10
-775.7342026846212
 20
458.7272730538801
 10
-775.7342026846212
 20
442.72727305388
 10
-750.7342026846211
 20
442.72727305388
 97
        0
 75
     0
 76
     1
 98
        0
  0
HATCH
  5
131
330
128
100
AcDbEntity
  8
2D - Ogólne
  6
Continuous
370
    13
100
AcDbHatch
 10
0.0
 20
0.0
 30
0.0
210
0.0
220
0.0
230
1.0
  2
SOLID
 70
     1
 71
     0
 91
        1
 92
        2
 72
     0
 73
     1
 93
        4
 10
-650.734202684621
 20
458.7272730538801
 10
-675.734202684621
 20
458.7272730538801
 10
-675.734202684621
 20
442.72727305388
 10
-650.734202684621
 20
442.72727305388
 97
        0
 75
     0
 76
     1
 98
        0
  0
ENDBLK
  5
12A
330
128
100
AcDbEntity
  8
0
100
AcDbBlockEnd
  0
BLOCK
  5
139
330
138
100
AcDbEntity
  8
0
100
AcDbBlockBegin
  2
*X8
 70
     1
 10
0.0
 20
0.0
 30
0.0
  3
*X8
  1

  0
HATCH
  5
13B
330
138
100
AcDbEntity
  8
2D - Ogólne
  6
Continuous
370
    13
100
AcDbHatch
 10
0.0
 20
0.0
 30
0.0
210
0.0
220
0.0
230
1.0
  2
SOLID
 70
     1
 71
     0
 91
        1
 92
        2
 72
     0
 73
     1
 93
        4
 10
-570.093569610011
 20
458.7272726867944
 10
-570.093569610011
 20
442.7272710952773
 10
-545.7342053052217
 20
442.7272710952773
 10
-545.7342053052217
 20
458.7272726867944
 97
        0
 75
     0
 76
     1
 98
        0
  0
HATCH
  5
13C
330
138
100
AcDbEntity
  8
2D - Ogólne
  6
Continuous
370
    13
100
AcDbHatch
 10
0.0
 20
0.0
 30
0.0
210
0.0
220
0.0
230
1.0
  2
SOLID
 70
     1
 71
     0
 91
        1
 92
        2
 72
     0
 73
     1
 93
        4
 10
-445.734202640964
 20
458.7272703844379
 10
-470.7342043770383
 20
458.7272703844379
 10
-470.7342043770383
 20
442.7272743840136
 10
-445.734202640964
 20
442.7272743840136
 97
        0
 75
     0
 76
     1
 98
        0
  0
HATCH
  5
13D
330
138
100
AcDbEntity
  8
2D - Ogólne
  6
Continuous
370
    13
100
AcDbHatch
 10
0.0
 20
0.0
 30
0.0
210
0.0
220
0.0
230
1.0
  2
SOLID
 70
     1
 71
     0
 91
        1
 92
        2
 72
     0
 73
     1
 93
        4
 10
-345.7342051608583
 20
458.7272703844379
 10
-370.7342021648369
 20
458.7272703844379
 10
-370.7342021648369
 20
442.7272743840136
 10
-345.7342051608583
 20
442.7272743840136
 97
        0
 75
     0
 76
     1
 98
        0
  0
HATCH
  5
13E
330
138
100
AcDbEntity
  8
2D - Ogólne
  6
Continuous
370
    13
100
AcDbHatch
 10
0.0
 20
0.0
 30
0.0
210
0.0
220
0.0
230
1.0
  2
SOLID
 70
     1
 71
     0
 91
        1
 92
        2
 72
     0
 73
     1
 93
        4
 10
-270.7342027497191
 20
458.7272719790198
 10
-270.7342027497191
 20
442.7272725544067
 10
-252.5283123532647
 20
442.7272725544067
 10
-252.5283123532647
 20
458.7272719790198
 97
        0
 75
     0
 76
     1
 98
        0
  0
HATCH
  5
13F
330
138
100
AcDbEntity
  8
2D - Ogólne
  6
Continuous
370
    13
100
AcDbHatch
 10
0.0
 20
0.0
 30
0.0
210
0.0
220
0.0
230
1.0
  2
SOLID
 70
     1
 71
     0
 91
        1
 92
        2
 72
     0
 73
     1
 93
        4
 10
-520.7342031170912
 20
458.7272703844379
 10
-545.7342048531654
 20
458.7272703844379
 10
-545.7342048531654
 20
442.7272743840136
 10
-520.7342031170912
 20
442.7272743840136
 97
        0
 75
     0
 76
     1
 98
        0
  0
HATCH
  5
140
330
138
100
AcDbEntity
  8
2D - Ogólne
  6
Continuous
370
    13
100
AcDbHatch
 10
0.0
 20
0.0
 30
0.0
210
0.0
220
0.0
230
1.0
  2
SOLID
 70
     1
 71
     0
 91
        1
 92
        2
 72
     0
 73
     1
 93
        4
 10
-420.7342056369854
 20
458.7272703844379
 10
-445.734202640964
 20
458.7272703844379
 10
-445.734202640964
 20
442.7272743840136
 10
-420.7342056369854
 20
442.7272743840136
 97
        0
 75
     0
 76
     1
 98
        0
  0
HATCH
  5
141
330
138
100
AcDbEntity
  8
2D - Ogólne
  6
Continuous
370
    13
100
AcDbHatch
 10
0.0
 20
0.0
 30
0.0
210
0.0
220
0.0
230
1.0
  2
SOLID
 70
     1
 71
     0
 91
        1
 92
        2
 72
     0
 73
     1
 93
        4
 10
-320.734203424784
 20
458.7272703844379
 10
-345.7342051608583
 20
458.7272703844379
 10
-345.7342051608583
 20
442.7272743840136
 10
-320.734203424784
 20
442.7272743840136
 97
        0
 75
     0
 76
     1
 98
        0
  0
ENDBLK
  5
13A
330
138
100
AcDbEntity
  8
0
100
AcDbBlockEnd
  0
BLOCK
  5
149
330
148
100
AcDbEntity
  8
0
100
AcDbBlockBegin
  2
*X9
 70
     1
 10
0.0
 20
0.0
 30
0.0
  3
*X9
  1

  0
HATCH
  5
14B
330
148
100
AcDbEntity
  8
2D - Ogólne
  6
Continuous
370
    13
100
AcDbHatch
 10
0.0
 20
0.0
 30
0.0
210
0.0
220
0.0
230
1.0
  2
SOLID
 70
     1
 71
     0
 91
        1
 92
        2
 72
     0
 73
     1
 93
        4
 10
-2044.308624656046
 20
408.727271130594
 10
-2044.308624656046
 20
392.7272717952375
 10
-2022.07129646564
 20
392.7272717952375
 10
-2022.07129646564
 20
408.727271130594
 97
        0
 75
     0
 76
     1
 98
        0
  0
HATCH
  5
14C
330
148
100
AcDbEntity
  8
2D - Ogólne
  6
Continuous
370
    13
100
AcDbHatch
 10
0.0
 20
0.0
 30
0.0
210
0.0
220
0.0
230
1.0
  2
SOLID
 70
     1
 71
     0
 91
        1
 92
        2
 72
     0
 73
     1
 93
        6
 10
-1947.071295042541
 20
392.7272717798826
 10
-1943.931663892513
 20
392.7272717798826
 10
-1922.071297731084
 20
411.0016490235415
 10
-1922.071297731084
 20
412.3140166086632
 10
-1945.447896913939
 20
412.3140166086632
 10
-1947.071295042541
 20
410.9569227446896
 97
        0
 75
     0
 76
     1
 98
        0
  0
HATCH
  5
14D
330
148
100
AcDbEntity
  8
2D - Ogólne
  6
Continuous
370
    13
100
AcDbHatch
 10
0.0
 20
0.0
 30
0.0
210
0.0
220
0.0
230
1.0
  2
SOLID
 70
     1
 71
     0
 91
        1
 92
        2
 72
     0
 73
     1
 93
        3
 10
-1922.071297731084
 20
431.8559068173479
 10
-1945.447896913939
 20
412.3140175561015
 10
-1922.071297731084
 20
412.3140175561015
 97
        0
 75
     0
 76
     1
 98
        0
  0
HATCH
  5
14E
330
148
100
AcDbEntity
  8
2D - Ogólne
  6
Continuous
370
    13
100
AcDbHatch
 10
0.0
 20
0.0
 30
0.0
210
0.0
220
0.0
230
1.0
  2
SOLID
 70
     1
 71
     0
 91
        1
 92
        2
 72
     0
 73
     1
 93
        4
 10
-1847.07129438889
 20
458.7272741474086
 10
-1847.07129438889
 20
442.7272711528421
 10
-1822.071297077433
 20
442.7272711528421
 10
-1822.071297077433
 20
458.7272741474086
 97
        0
 75
     0
 76
     1
 98
        0
  0
HATCH
  5
14F
330
148
100
AcDbEntity
  8
2D - Ogólne
  6
Continuous
370
    13
100
AcDbHatch
 10
0.0
 20
0.0
 30
0.0
210
0.0
220
0.0
230
1.0
  2
SOLID
 70
     1
 71
     0
 91
        1
 92
        2
 72
     0
 73
     1
 93
        4
 10
-1997.07129727067
 20
408.7272709718408
 10
-2022.071294582127
 20
408.7272709718408
 10
-2022.071294582127
 20
392.7272717798826
 10
-1997.07129727067
 20
392.7272717798826
 97
        0
 75
     0
 76
     1
 98
        0
  0
HATCH
  5
150
330
148
100
AcDbEntity
  8
2D - Ogólne
  6
Continuous
370
    13
100
AcDbHatch
 10
0.0
 20
0.0
 30
0.0
210
0.0
220
0.0
230
1.0
  2
SOLID
 70
     1
 71
     0
 91
        1
 92
        2
 72
     0
 73
     1
 93
        3
 10
-1922.071297731084
 20
412.3140166086632
 10
-1922.071297731084
 20
411.0016528261498
 10
-1920.501406103905
 20
412.3140166086632
 97
        0
 75
     0
 76
     1
 98
        0
  0
HATCH
  5
151
330
148
100
AcDbEntity
  8
2D - Ogólne
  6
Continuous
370
    13
100
AcDbHatch
 10
0.0
 20
0.0
 30
0.0
210
0.0
220
0.0
230
1.0
  2
SOLID
 70
     1
 71
     0
 91
        1
 92
        2
 72
     0
 73
     1
 93
        5
 10
-1922.071297731084
 20
412.3140175561015
 10
-1920.501402301296
 20
412.3140175561015
 10
-1897.071296617019
 20
431.9006330961997
 10
-1897.071296617019
 20
452.7548937451762
 10
-1922.071297731084
 20
431.8559068173479
 97
        0
 75
     0
 76
     1
 98
        0
  0
HATCH
  5
152
330
148
100
AcDbEntity
  8
2D - Ogólne
  6
Continuous
370
    13
100
AcDbHatch
 10
0.0
 20
0.0
 30
0.0
210
0.0
220
0.0
230
1.0
  2
SOLID
 70
     1
 71
     0
 91
        1
 92
        2
 72
     0
 73
     1
 93
        4
 10
-1822.071297077433
 20
458.7272741474086
 10
-1822.071297077433
 20
442.7272711528421
 10
-1797.071295963369
 20
442.7272711528421
 10
-1797.071295963369
 20
458.7272741474086
 97
        0
 75
     0
 76
     1
 98
        0
  0
ENDBLK
  5
14A
330
148
100
AcDbEntity
  8
0
100
AcDbBlockEnd
  0
BLOCK
  5
15E
330
15D
100
AcDbEntity
  8
0
100
AcDbBlockBegin
  2
*X10
 70
     1
 10
0.0
 20
0.0
 30
0.0
  3
*X10
  1

  0
HATCH
  5
160
330
15D
100
AcDbEntity
  8
2D - Ogólne
  6
Continuous
370
    13
100
AcDbHatch
 10
0.0
 20
0.0
 30
0.0
210
0.0
220
0.0
230
1.0
  2
SOLID
 70
     1
 71
     0
 91
        1
 92
        2
 72
     0
 73
     1
 93
        3
 10
-2316.168995033576
 20
412.314016255445
 10
-2292.792389958527
 20
412.314016255445
 10
-2316.168995033576
 20
431.8559103204912
 97
        0
 75
     0
 76
     1
 98
        0
  0
HATCH
  5
161
330
15D
100
AcDbEntity
  8
2D - Ogólne
  6
Continuous
370
    13
100
AcDbHatch
 10
0.0
 20
0.0
 30
0.0
210
0.0
220
0.0
230
1.0
  2
SOLID
 70
     1
 71
     0
 91
        1
 92
        2
 72
     0
 73
     1
 93
        4
 10
-2416.168995019586
 20
442.7272727203261
 10
-2391.168995023083
 20
442.7272727203261
 10
-2391.168995023083
 20
458.7272715712522
 10
-2416.168995019586
 20
458.7272715712522
 97
        0
 75
     0
 76
     1
 98
        0
  0
HATCH
  5
162
330
15D
100
AcDbEntity
  8
2D - Ogólne
  6
Continuous
370
    13
100
AcDbHatch
 10
0.0
 20
0.0
 30
0.0
210
0.0
220
0.0
230
1.0
  2
SOLID
 70
     1
 71
     0
 91
        1
 92
        2
 72
     0
 73
     1
 93
        4
 10
-2193.931662843879
 20
408.727272910191
 10
-2216.168993270421
 20
408.727272910191
 10
-2216.168993270421
 20
392.7272728530337
 10
-2193.931662843879
 20
392.7272728530337
 97
        0
 75
     0
 76
     1
 98
        0
  0
HATCH
  5
163
330
15D
100
AcDbEntity
  8
2D - Ogólne
  6
Continuous
370
    13
100
AcDbHatch
 10
0.0
 20
0.0
 30
0.0
210
0.0
220
0.0
230
1.0
  2
SOLID
 70
     1
 71
     0
 91
        1
 92
        2
 72
     0
 73
     1
 93
        6
 10
-2316.168995033576
 20
412.3140181761471
 10
-2316.168995033576
 20
411.0016573530207
 10
-2294.308625382035
 20
392.727274648023
 10
-2291.168995037073
 20
392.727274648023
 10
-2291.168995037073
 20
410.9569266693426
 10
-2292.792389958527
 20
412.3140181761471
 97
        0
 75
     0
 76
     1
 98
        0
  0
HATCH
  5
164
330
15D
100
AcDbEntity
  8
2D - Ogólne
  6
Continuous
370
    13
100
AcDbHatch
 10
0.0
 20
0.0
 30
0.0
210
0.0
220
0.0
230
1.0
  2
SOLID
 70
     1
 71
     0
 91
        1
 92
        2
 72
     0
 73
     1
 93
        5
 10
-2316.168995033576
 20
431.8559062246498
 10
-2341.168995030078
 20
452.7548917965004
 10
-2341.168995030078
 20
431.9006369083279
 10
-2317.738881883281
 20
412.314016255445
 10
-2316.168995033576
 20
412.314016255445
 97
        0
 75
     0
 76
     1
 98
        0
  0
HATCH
  5
165
330
15D
100
AcDbEntity
  8
2D - Ogólne
  6
Continuous
370
    13
100
AcDbHatch
 10
0.0
 20
0.0
 30
0.0
210
0.0
220
0.0
230
1.0
  2
SOLID
 70
     1
 71
     0
 91
        1
 92
        2
 72
     0
 73
     1
 93
        4
 10
-2441.168995016089
 20
442.7272727203261
 10
-2416.168995019586
 20
442.7272727203261
 10
-2416.168995019586
 20
458.7272715712522
 10
-2441.168995016089
 20
458.7272715712522
 97
        0
 75
     0
 76
     1
 98
        0
  0
HATCH
  5
166
330
15D
100
AcDbEntity
  8
2D - Ogólne
  6
Continuous
370
    13
100
AcDbHatch
 10
0.0
 20
0.0
 30
0.0
210
0.0
220
0.0
230
1.0
  2
SOLID
 70
     1
 71
     0
 91
        1
 92
        2
 72
     0
 73
     1
 93
        4
 10
-2216.168995047565
 20
408.727273498949
 10
-2241.168995044068
 20
408.727273498949
 10
-2241.168995044068
 20
392.727274648023
 10
-2216.168995047565
 20
392.727274648023
 97
        0
 75
     0
 76
     1
 98
        0
  0
HATCH
  5
167
330
15D
100
AcDbEntity
  8
2D - Ogólne
  6
Continuous
370
    13
100
AcDbHatch
 10
0.0
 20
0.0
 30
0.0
210
0.0
220
0.0
230
1.0
  2
SOLID
 70
     1
 71
     0
 91
        1
 92
        2
 72
     0
 73
     1
 93
        3
 10
-2316.168995033576
 20
412.3140181761471
 10
-2317.738881883281
 20
412.3140181761471
 10
-2316.168995033576
 20
411.0016573530207
 97
        0
 75
     0
 76
     1
 98
        0
  0
ENDBLK
  5
15F
330
15D
100
AcDbEntity
  8
0
100
AcDbBlockEnd
  0
BLOCK
  5
173
330
172
100
AcDbEntity
  8
0
100
AcDbBlockBegin
  2
Izolacja cieplna 12_24_2
 70
     0
 10
-900.0934779067192
 20
190.0000000000483
 30
0.0
  3
Izolacja cieplna 12_24_2
  1

  0
LINE
  5
175
330
172
100
AcDbEntity
  8
0
  6
Continuous
370
    13
100
AcDbLine
 10
-906.0532810835512
 20
194.5374494357808
 30
0.0
 11
-914.1337655853938
 21
198.0201122623637
 31
0.0
  0
LINE
  5
176
330
172
100
AcDbEntity
  8
0
  6
Continuous
370
    13
100
AcDbLine
 10
-914.1337655853938
 20
190.3515960595328
 30
0.0
 11
-906.0532810835512
 21
193.8342557474946
 31
0.0
  0
LINE
  5
177
330
172
100
AcDbEntity
  8
0
  6
Continuous
370
    13
100
AcDbLine
 10
-906.0532810835512
 20
202.9093402026227
 30
0.0
 11
-914.1337655853938
 21
206.3920030292056
 31
0.0
  0
LINE
  5
178
330
172
100
AcDbEntity
  8
0
  6
Continuous
370
    13
100
AcDbLine
 10
-914.1337655853938
 20
198.7234868263747
 30
0.0
 11
-906.0532810835512
 21
202.2061465143365
 31
0.0
  0
LINE
  5
179
330
172
100
AcDbEntity
  8
0
  6
Continuous
370
    13
100
AcDbLine
 10
-906.0532810835512
 20
211.2812309694646
 30
0.0
 11
-914.1337655853938
 21
214.7638937960475
 31
0.0
  0
LINE
  5
17A
330
172
100
AcDbEntity
  8
0
  6
Continuous
370
    13
100
AcDbLine
 10
-914.1337655853938
 20
207.0953775932167
 30
0.0
 11
-906.0532810835512
 21
210.5780372811784
 31
0.0
  0
LINE
  5
17B
330
172
100
AcDbEntity
  8
0
  6
Continuous
370
    13
100
AcDbLine
 10
-906.0532810835512
 20
219.6531217363065
 30
0.0
 11
-914.1337655853938
 21
223.1357845628894
 31
0.0
  0
LINE
  5
17C
330
172
100
AcDbEntity
  8
0
  6
Continuous
370
    13
100
AcDbLine
 10
-914.1337655853938
 20
215.4672683600586
 30
0.0
 11
-906.0532810835512
 21
218.9499280480204
 31
0.0
  0
LINE
  5
17D
330
172
100
AcDbEntity
  8
0
  6
Continuous
370
    13
100
AcDbLine
 10
-906.0532810835512
 20
228.0250125031484
 30
0.0
 11
-914.1337655853938
 21
231.5076753297314
 31
0.0
  0
LINE
  5
17E
330
172
100
AcDbEntity
  8
0
  6
Continuous
370
    13
100
AcDbLine
 10
-914.1337655853938
 20
223.8391591269005
 30
0.0
 11
-906.0532810835512
 21
227.3218188148623
 31
0.0
  0
LINE
  5
17F
330
172
100
AcDbEntity
  8
0
  6
Continuous
370
    13
100
AcDbLine
 10
-906.0532810835512
 20
236.3969032699904
 30
0.0
 11
-914.1337655853938
 21
239.8795660965733
 31
0.0
  0
LINE
  5
180
330
172
100
AcDbEntity
  8
0
  6
Continuous
370
    13
100
AcDbLine
 10
-914.1337655853938
 20
232.2110498937424
 30
0.0
 11
-906.0532810835512
 21
235.6937095817042
 31
0.0
  0
LINE
  5
181
330
172
100
AcDbEntity
  8
0
  6
Continuous
370
    13
100
AcDbLine
 10
-906.0532810835512
 20
244.7687940368323
 30
0.0
 11
-914.1337655853938
 21
248.2514568634152
 31
0.0
  0
LINE
  5
182
330
172
100
AcDbEntity
  8
0
  6
Continuous
370
    13
100
AcDbLine
 10
-914.1337655853938
 20
240.5829406605843
 30
0.0
 11
-906.0532810835512
 21
244.0656003485461
 31
0.0
  0
LINE
  5
183
330
172
100
AcDbEntity
  8
0
  6
Continuous
370
    13
100
AcDbLine
 10
-906.0532810835512
 20
253.1406848036742
 30
0.0
 11
-914.1337655853938
 21
256.6233476302571
 31
0.0
  0
LINE
  5
184
330
172
100
AcDbEntity
  8
0
  6
Continuous
370
    13
100
AcDbLine
 10
-914.1337655853938
 20
248.9548314274263
 30
0.0
 11
-906.0532810835512
 21
252.437491115388
 31
0.0
  0
LINE
  5
185
330
172
100
AcDbEntity
  8
0
  6
Continuous
370
    13
100
AcDbLine
 10
-906.0532810835512
 20
261.5125755705161
 30
0.0
 11
-914.1337655853938
 21
264.9952383970991
 31
0.0
  0
LINE
  5
186
330
172
100
AcDbEntity
  8
0
  6
Continuous
370
    13
100
AcDbLine
 10
-914.1337655853938
 20
257.3267221942681
 30
0.0
 11
-906.0532810835512
 21
260.80938188223
 31
0.0
  0
LINE
  5
187
330
172
100
AcDbEntity
  8
0
  6
Continuous
370
    13
100
AcDbLine
 10
-906.0532810835512
 20
269.884466337358
 30
0.0
 11
-914.1337655853938
 21
273.3671291639409
 31
0.0
  0
LINE
  5
188
330
172
100
AcDbEntity
  8
0
  6
Continuous
370
    13
100
AcDbLine
 10
-914.1337655853938
 20
265.6986129611101
 30
0.0
 11
-906.0532810835512
 21
269.1812726490719
 31
0.0
  0
LINE
  5
189
330
172
100
AcDbEntity
  8
0
  6
Continuous
370
    13
100
AcDbLine
 10
-906.0532810835512
 20
278.2563571041999
 30
0.0
 11
-914.1337655853938
 21
281.7390199307829
 31
0.0
  0
LINE
  5
18A
330
172
100
AcDbEntity
  8
0
  6
Continuous
370
    13
100
AcDbLine
 10
-914.1337655853938
 20
274.070503727952
 30
0.0
 11
-906.0532810835512
 21
277.5531634159138
 31
0.0
  0
LINE
  5
18B
330
172
100
AcDbEntity
  8
0
  6
Continuous
370
    13
100
AcDbLine
 10
-906.0532810835512
 20
286.6282478710419
 30
0.0
 11
-914.1337655853938
 21
290.1109106976248
 31
0.0
  0
LINE
  5
18C
330
172
100
AcDbEntity
  8
0
  6
Continuous
370
    13
100
AcDbLine
 10
-914.1337655853938
 20
282.4423944947939
 30
0.0
 11
-906.0532810835512
 21
285.9250541827557
 31
0.0
  0
LINE
  5
18D
330
172
100
AcDbEntity
  8
0
  6
Continuous
370
    13
100
AcDbLine
 10
-906.0532810835512
 20
295.0001386378838
 30
0.0
 11
-914.1337655853938
 21
298.4828014644667
 31
0.0
  0
LINE
  5
18E
330
172
100
AcDbEntity
  8
0
  6
Continuous
370
    13
100
AcDbLine
 10
-914.1337655853938
 20
290.8142852616358
 30
0.0
 11
-906.0532810835512
 21
294.2969449495976
 31
0.0
  0
LINE
  5
18F
330
172
100
AcDbEntity
  8
0
  6
Continuous
370
    13
100
AcDbLine
 10
-906.0532810835512
 20
303.3720294047258
 30
0.0
 11
-914.1337655853938
 21
306.8546922313086
 31
0.0
  0
LINE
  5
190
330
172
100
AcDbEntity
  8
0
  6
Continuous
370
    13
100
AcDbLine
 10
-914.1337655853938
 20
299.1861760284777
 30
0.0
 11
-906.0532810835512
 21
302.6688357164396
 31
0.0
  0
LINE
  5
191
330
172
100
AcDbEntity
  8
0
  6
Continuous
370
    13
100
AcDbLine
 10
-906.0532810835512
 20
311.7439201715676
 30
0.0
 11
-914.1337655853938
 21
315.2265829981505
 31
0.0
  0
LINE
  5
192
330
172
100
AcDbEntity
  8
0
  6
Continuous
370
    13
100
AcDbLine
 10
-914.1337655853938
 20
307.5580667953197
 30
0.0
 11
-906.0532810835512
 21
311.0407264832814
 31
0.0
  0
LINE
  5
193
330
172
100
AcDbEntity
  8
0
  6
Continuous
370
    13
100
AcDbLine
 10
-906.0532810835512
 20
320.1158109384096
 30
0.0
 11
-914.1337655853938
 21
323.5984737649924
 31
0.0
  0
LINE
  5
194
330
172
100
AcDbEntity
  8
0
  6
Continuous
370
    13
100
AcDbLine
 10
-914.1337655853938
 20
315.9299575621616
 30
0.0
 11
-906.0532810835512
 21
319.4126172501234
 31
0.0
  0
LINE
  5
195
330
172
100
AcDbEntity
  8
0
  6
Continuous
370
    13
100
AcDbLine
 10
-906.0532810835512
 20
328.4877017052514
 30
0.0
 11
-914.1337655853938
 21
331.9703645318344
 31
0.0
  0
LINE
  5
196
330
172
100
AcDbEntity
  8
0
  6
Continuous
370
    13
100
AcDbLine
 10
-914.1337655853938
 20
324.3018483290035
 30
0.0
 11
-906.0532810835512
 21
327.7845080169653
 31
0.0
  0
LINE
  5
197
330
172
100
AcDbEntity
  8
0
  6
Continuous
370
    13
100
AcDbLine
 10
-906.0532810835512
 20
336.8595924720934
 30
0.0
 11
-914.1337655853938
 21
340.3422552986763
 31
0.0
  0
LINE
  5
198
330
172
100
AcDbEntity
  8
0
  6
Continuous
370
    13
100
AcDbLine
 10
-914.1337655853938
 20
332.6737390958454
 30
0.0
 11
-906.0532810835512
 21
336.1563987838072
 31
0.0
  0
LINE
  5
199
330
172
100
AcDbEntity
  8
0
  6
Continuous
370
    13
100
AcDbLine
 10
-906.0532810835512
 20
345.2314832389353
 30
0.0
 11
-914.1337655853938
 21
348.7141460655182
 31
0.0
  0
LINE
  5
19A
330
172
100
AcDbEntity
  8
0
  6
Continuous
370
    13
100
AcDbLine
 10
-914.1337655853938
 20
341.0456298626873
 30
0.0
 11
-906.0532810835512
 21
344.5282895506491
 31
0.0
  0
LINE
  5
19B
330
172
100
AcDbEntity
  8
0
  6
Continuous
370
    13
100
AcDbLine
 10
-906.0532810835512
 20
353.6033740057773
 30
0.0
 11
-914.1337655853938
 21
357.0860368323601
 31
0.0
  0
LINE
  5
19C
330
172
100
AcDbEntity
  8
0
  6
Continuous
370
    13
100
AcDbLine
 10
-914.1337655853938
 20
349.4175206295292
 30
0.0
 11
-906.0532810835512
 21
352.900180317491
 31
0.0
  0
LINE
  5
19D
330
172
100
AcDbEntity
  8
0
  6
Continuous
370
    13
100
AcDbLine
 10
-906.0532810835512
 20
361.9752647726191
 30
0.0
 11
-914.1337655853938
 21
365.457927599202
 31
0.0
  0
LINE
  5
19E
330
172
100
AcDbEntity
  8
0
  6
Continuous
370
    13
100
AcDbLine
 10
-914.1337655853938
 20
357.7894113963712
 30
0.0
 11
-906.0532810835512
 21
361.2720710843329
 31
0.0
  0
LINE
  5
19F
330
172
100
AcDbEntity
  8
0
  6
Continuous
370
    13
100
AcDbLine
 10
-906.0532810835512
 20
370.3471555394611
 30
0.0
 11
-914.1337655853938
 21
373.829818366044
 31
0.0
  0
LINE
  5
1A0
330
172
100
AcDbEntity
  8
0
  6
Continuous
370
    13
100
AcDbLine
 10
-914.1337655853938
 20
366.1613021632131
 30
0.0
 11
-906.0532810835512
 21
369.6439618511749
 31
0.0
  0
LINE
  5
1A1
330
172
100
AcDbEntity
  8
0
  6
Continuous
370
    13
100
AcDbLine
 10
-906.0532810835512
 20
378.7190463063029
 30
0.0
 11
-914.1337655853938
 21
382.2017091328859
 31
0.0
  0
LINE
  5
1A2
330
172
100
AcDbEntity
  8
0
  6
Continuous
370
    13
100
AcDbLine
 10
-914.1337655853938
 20
374.533192930055
 30
0.0
 11
-906.0532810835512
 21
378.0158526180168
 31
0.0
  0
LINE
  5
1A3
330
172
100
AcDbEntity
  8
0
  6
Continuous
370
    13
100
AcDbLine
 10
-906.0532810835512
 20
387.0909370731449
 30
0.0
 11
-914.1337655853938
 21
390.5735998997278
 31
0.0
  0
LINE
  5
1A4
330
172
100
AcDbEntity
  8
0
  6
Continuous
370
    13
100
AcDbLine
 10
-914.1337655853938
 20
382.9050836968969
 30
0.0
 11
-906.0532810835512
 21
386.3877433848587
 31
0.0
  0
LINE
  5
1A5
330
172
100
AcDbEntity
  8
0
  6
Continuous
370
    13
100
AcDbLine
 10
-906.0532810835512
 20
395.4628278399867
 30
0.0
 11
-914.1337655853938
 21
398.9454906665697
 31
0.0
  0
LINE
  5
1A6
330
172
100
AcDbEntity
  8
0
  6
Continuous
370
    13
100
AcDbLine
 10
-914.1337655853938
 20
391.2769744637388
 30
0.0
 11
-906.0532810835512
 21
394.7596341517006
 31
0.0
  0
LINE
  5
1A7
330
172
100
AcDbEntity
  8
0
  6
Continuous
370
    13
100
AcDbLine
 10
-906.0532810835512
 20
403.8347186068287
 30
0.0
 11
-914.1337655853938
 21
407.3173814334116
 31
0.0
  0
LINE
  5
1A8
330
172
100
AcDbEntity
  8
0
  6
Continuous
370
    13
100
AcDbLine
 10
-914.1337655853938
 20
399.6488652305807
 30
0.0
 11
-906.0532810835512
 21
403.1315249185425
 31
0.0
  0
LINE
  5
1A9
330
172
100
AcDbEntity
  8
0
  6
Continuous
370
    13
100
AcDbLine
 10
-906.0532810835512
 20
412.2066093736706
 30
0.0
 11
-914.1337655853938
 21
415.6892722002535
 31
0.0
  0
LINE
  5
1AA
330
172
100
AcDbEntity
  8
0
  6
Continuous
370
    13
100
AcDbLine
 10
-914.1337655853938
 20
408.0207559974227
 30
0.0
 11
-906.0532810835512
 21
411.5034156853845
 31
0.0
  0
LINE
  5
1AB
330
172
100
AcDbEntity
  8
0
  6
Continuous
370
    13
100
AcDbLine
 10
-906.0532810835512
 20
420.5785001405126
 30
0.0
 11
-914.1337655853938
 21
424.0611629670955
 31
0.0
  0
LINE
  5
1AC
330
172
100
AcDbEntity
  8
0
  6
Continuous
370
    13
100
AcDbLine
 10
-914.1337655853938
 20
416.3926467642646
 30
0.0
 11
-906.0532810835512
 21
419.8753064522264
 31
0.0
  0
ELLIPSE
  5
1AD
330
172
100
AcDbEntity
  8
0
  6
Continuous
370
    13
100
AcDbEllipse
 10
-904.3469272754061
 20
190.0000000000483
 30
0.0
 11
-4.253449767354171
 21
5.208973642924340E-16
 31
0.0
210
0.0
220
0.0
230
1.0
 40
0.984108143315691
 41
3.141592653589793
 42
5.125182398198076
  0
ELLIPSE
  5
1AE
330
172
100
AcDbEntity
  8
0
  6
Continuous
370
    13
100
AcDbEllipse
 10
-915.8401209882209
 20
194.1858565149305
 30
0.0
 11
-4.253449767354171
 21
5.208973642924340E-16
 31
0.0
210
0.0
220
0.0
230
1.0
 40
0.984108143315691
 41
4.299595219146289
 42
8.266774944004343
  0
ELLIPSE
  5
1AF
330
172
100
AcDbEntity
  8
0
  6
Continuous
370
    13
100
AcDbEllipse
 10
-904.346928870068
 20
198.3717083218732
 30
0.0
 11
-4.253449767354171
 21
5.208973642924340E-16
 31
0.0
210
0.0
220
0.0
230
1.0
 40
0.984108143315691
 41
1.158003553206705
 42
5.125182741616018
  0
ELLIPSE
  5
1B0
330
172
100
AcDbEntity
  8
0
  6
Continuous
370
    13
100
AcDbEllipse
 10
-915.8401209882209
 20
202.5577472817724
 30
0.0
 11
-4.253449767354171
 21
5.208973642924340E-16
 31
0.0
210
0.0
220
0.0
230
1.0
 40
0.984108143315691
 41
4.299595219146289
 42
8.266774944004343
  0
ELLIPSE
  5
1B1
330
172
100
AcDbEntity
  8
0
  6
Continuous
370
    13
100
AcDbEllipse
 10
-904.346928870068
 20
206.7435990887151
 30
0.0
 11
-4.253449767354171
 21
5.208973642924340E-16
 31
0.0
210
0.0
220
0.0
230
1.0
 40
0.984108143315691
 41
1.158003553206705
 42
5.125182741616018
  0
ELLIPSE
  5
1B2
330
172
100
AcDbEntity
  8
0
  6
Continuous
370
    13
100
AcDbEllipse
 10
-915.8401209882209
 20
210.9296380486144
 30
0.0
 11
-4.253449767354171
 21
5.208973642924340E-16
 31
0.0
210
0.0
220
0.0
230
1.0
 40
0.984108143315691
 41
4.299595219146289
 42
8.266774944004343
  0
ELLIPSE
  5
1B3
330
172
100
AcDbEntity
  8
0
  6
Continuous
370
    13
100
AcDbEllipse
 10
-904.346928870068
 20
215.115489855557
 30
0.0
 11
-4.253449767354171
 21
5.208973642924340E-16
 31
0.0
210
0.0
220
0.0
230
1.0
 40
0.984108143315691
 41
1.158003553206705
 42
5.125182741616018
  0
ELLIPSE
  5
1B4
330
172
100
AcDbEntity
  8
0
  6
Continuous
370
    13
100
AcDbEllipse
 10
-915.8401209882209
 20
219.3015288154563
 30
0.0
 11
-4.253449767354171
 21
5.208973642924340E-16
 31
0.0
210
0.0
220
0.0
230
1.0
 40
0.984108143315691
 41
4.299595219146289
 42
8.266774944004343
  0
ELLIPSE
  5
1B5
330
172
100
AcDbEntity
  8
0
  6
Continuous
370
    13
100
AcDbEllipse
 10
-904.346928870068
 20
223.487380622399
 30
0.0
 11
-4.253449767354171
 21
5.208973642924340E-16
 31
0.0
210
0.0
220
0.0
230
1.0
 40
0.984108143315691
 41
1.158003553206705
 42
5.125182741616028
  0
ELLIPSE
  5
1B6
330
172
100
AcDbEntity
  8
0
  6
Continuous
370
    13
100
AcDbEllipse
 10
-915.8401209882209
 20
227.6734195822982
 30
0.0
 11
-4.253449767354171
 21
5.208973642924340E-16
 31
0.0
210
0.0
220
0.0
230
1.0
 40
0.984108143315691
 41
4.299595219146289
 42
8.266774944004343
  0
ELLIPSE
  5
1B7
330
172
100
AcDbEntity
  8
0
  6
Continuous
370
    13
100
AcDbEllipse
 10
-904.346928870068
 20
231.8592713892409
 30
0.0
 11
-4.253449767354171
 21
5.208973642924340E-16
 31
0.0
210
0.0
220
0.0
230
1.0
 40
0.984108143315691
 41
1.158003553206705
 42
5.125182741616018
  0
ELLIPSE
  5
1B8
330
172
100
AcDbEntity
  8
0
  6
Continuous
370
    13
100
AcDbEllipse
 10
-915.8401209882209
 20
236.0453103491402
 30
0.0
 11
-4.253449767354171
 21
5.208973642924340E-16
 31
0.0
210
0.0
220
0.0
230
1.0
 40
0.984108143315691
 41
4.299595219146289
 42
8.266774944004343
  0
ELLIPSE
  5
1B9
330
172
100
AcDbEntity
  8
0
  6
Continuous
370
    13
100
AcDbEllipse
 10
-904.346928870068
 20
240.2311621560828
 30
0.0
 11
-4.253449767354171
 21
5.208973642924340E-16
 31
0.0
210
0.0
220
0.0
230
1.0
 40
0.984108143315691
 41
1.158003553206705
 42
5.125182741616018
  0
ELLIPSE
  5
1BA
330
172
100
AcDbEntity
  8
0
  6
Continuous
370
    13
100
AcDbEllipse
 10
-915.8401209882209
 20
244.4172011159821
 30
0.0
 11
-4.253449767354171
 21
5.208973642924340E-16
 31
0.0
210
0.0
220
0.0
230
1.0
 40
0.984108143315691
 41
4.299595219146289
 42
8.266774944004343
  0
ELLIPSE
  5
1BB
330
172
100
AcDbEntity
  8
0
  6
Continuous
370
    13
100
AcDbEllipse
 10
-904.346928870068
 20
248.6030529229247
 30
0.0
 11
-4.253449767354171
 21
5.208973642924340E-16
 31
0.0
210
0.0
220
0.0
230
1.0
 40
0.984108143315691
 41
1.158003553206705
 42
5.125182741616018
  0
ELLIPSE
  5
1BC
330
172
100
AcDbEntity
  8
0
  6
Continuous
370
    13
100
AcDbEllipse
 10
-915.8401209882209
 20
252.789091882824
 30
0.0
 11
-4.253449767354171
 21
5.208973642924340E-16
 31
0.0
210
0.0
220
0.0
230
1.0
 40
0.984108143315691
 41
4.299595219146289
 42
8.266774944004343
  0
ELLIPSE
  5
1BD
330
172
100
AcDbEntity
  8
0
  6
Continuous
370
    13
100
AcDbEllipse
 10
-904.346928870068
 20
256.9749436897666
 30
0.0
 11
-4.253449767354171
 21
5.208973642924340E-16
 31
0.0
210
0.0
220
0.0
230
1.0
 40
0.984108143315691
 41
1.158003553206705
 42
5.125182741616018
  0
ELLIPSE
  5
1BE
330
172
100
AcDbEntity
  8
0
  6
Continuous
370
    13
100
AcDbEllipse
 10
-915.8401209882209
 20
261.1609826496659
 30
0.0
 11
-4.253449767354171
 21
5.208973642924340E-16
 31
0.0
210
0.0
220
0.0
230
1.0
 40
0.984108143315691
 41
4.299595219146289
 42
8.266774944004343
  0
ELLIPSE
  5
1BF
330
172
100
AcDbEntity
  8
0
  6
Continuous
370
    13
100
AcDbEllipse
 10
-904.346928870068
 20
265.3468344566086
 30
0.0
 11
-4.253449767354171
 21
5.208973642924340E-16
 31
0.0
210
0.0
220
0.0
230
1.0
 40
0.984108143315691
 41
1.158003553206705
 42
5.125182741616018
  0
ELLIPSE
  5
1C0
330
172
100
AcDbEntity
  8
0
  6
Continuous
370
    13
100
AcDbEllipse
 10
-915.8401209882209
 20
269.5328734165078
 30
0.0
 11
-4.253449767354171
 21
5.208973642924340E-16
 31
0.0
210
0.0
220
0.0
230
1.0
 40
0.984108143315691
 41
4.299595219146289
 42
8.266774944004343
  0
ELLIPSE
  5
1C1
330
172
100
AcDbEntity
  8
0
  6
Continuous
370
    13
100
AcDbEllipse
 10
-904.346928870068
 20
273.7187252234505
 30
0.0
 11
-4.253449767354171
 21
5.208973642924340E-16
 31
0.0
210
0.0
220
0.0
230
1.0
 40
0.984108143315691
 41
1.158003553206705
 42
5.125182741616028
  0
ELLIPSE
  5
1C2
330
172
100
AcDbEntity
  8
0
  6
Continuous
370
    13
100
AcDbEllipse
 10
-915.8401209882209
 20
277.9047641833498
 30
0.0
 11
-4.253449767354171
 21
5.208973642924340E-16
 31
0.0
210
0.0
220
0.0
230
1.0
 40
0.984108143315691
 41
4.299595219146289
 42
8.266774944004343
  0
ELLIPSE
  5
1C3
330
172
100
AcDbEntity
  8
0
  6
Continuous
370
    13
100
AcDbEllipse
 10
-904.346928870068
 20
282.0906159902924
 30
0.0
 11
-4.253449767354171
 21
5.208973642924340E-16
 31
0.0
210
0.0
220
0.0
230
1.0
 40
0.984108143315691
 41
1.158003553206705
 42
5.125182741616018
  0
ELLIPSE
  5
1C4
330
172
100
AcDbEntity
  8
0
  6
Continuous
370
    13
100
AcDbEllipse
 10
-915.8401209882209
 20
286.2766549501916
 30
0.0
 11
-4.253449767354171
 21
5.208973642924340E-16
 31
0.0
210
0.0
220
0.0
230
1.0
 40
0.984108143315691
 41
4.299595219146289
 42
8.266774944004343
  0
ELLIPSE
  5
1C5
330
172
100
AcDbEntity
  8
0
  6
Continuous
370
    13
100
AcDbEllipse
 10
-904.346928870068
 20
290.4625067571343
 30
0.0
 11
-4.253449767354171
 21
5.208973642924340E-16
 31
0.0
210
0.0
220
0.0
230
1.0
 40
0.984108143315691
 41
1.158003553206705
 42
5.125182741616028
  0
ELLIPSE
  5
1C6
330
172
100
AcDbEntity
  8
0
  6
Continuous
370
    13
100
AcDbEllipse
 10
-915.8401209882209
 20
294.6485457170336
 30
0.0
 11
-4.253449767354171
 21
5.208973642924340E-16
 31
0.0
210
0.0
220
0.0
230
1.0
 40
0.984108143315691
 41
4.299595219146289
 42
8.266774944004343
  0
ELLIPSE
  5
1C7
330
172
100
AcDbEntity
  8
0
  6
Continuous
370
    13
100
AcDbEllipse
 10
-904.346928870068
 20
298.8343975239762
 30
0.0
 11
-4.253449767354171
 21
5.208973642924340E-16
 31
0.0
210
0.0
220
0.0
230
1.0
 40
0.984108143315691
 41
1.158003553206705
 42
5.125182741616018
  0
ELLIPSE
  5
1C8
330
172
100
AcDbEntity
  8
0
  6
Continuous
370
    13
100
AcDbEllipse
 10
-915.8401209882209
 20
303.0204364838755
 30
0.0
 11
-4.253449767354171
 21
5.208973642924340E-16
 31
0.0
210
0.0
220
0.0
230
1.0
 40
0.984108143315691
 41
4.299595219146289
 42
8.266774944004343
  0
ELLIPSE
  5
1C9
330
172
100
AcDbEntity
  8
0
  6
Continuous
370
    13
100
AcDbEllipse
 10
-904.346928870068
 20
307.2062882908182
 30
0.0
 11
-4.253449767354171
 21
5.208973642924340E-16
 31
0.0
210
0.0
220
0.0
230
1.0
 40
0.984108143315691
 41
1.158003553206705
 42
5.125182741616028
  0
ELLIPSE
  5
1CA
330
172
100
AcDbEntity
  8
0
  6
Continuous
370
    13
100
AcDbEllipse
 10
-915.8401209882209
 20
311.3923272507174
 30
0.0
 11
-4.253449767354171
 21
5.208973642924340E-16
 31
0.0
210
0.0
220
0.0
230
1.0
 40
0.984108143315691
 41
4.299595219146289
 42
8.266774944004343
  0
ELLIPSE
  5
1CB
330
172
100
AcDbEntity
  8
0
  6
Continuous
370
    13
100
AcDbEllipse
 10
-904.346928870068
 20
315.5781790576601
 30
0.0
 11
-4.253449767354171
 21
5.208973642924340E-16
 31
0.0
210
0.0
220
0.0
230
1.0
 40
0.984108143315691
 41
1.158003553206705
 42
5.125182741616018
  0
ELLIPSE
  5
1CC
330
172
100
AcDbEntity
  8
0
  6
Continuous
370
    13
100
AcDbEllipse
 10
-915.8401209882209
 20
319.7642180175594
 30
0.0
 11
-4.253449767354171
 21
5.208973642924340E-16
 31
0.0
210
0.0
220
0.0
230
1.0
 40
0.984108143315691
 41
4.299595219146289
 42
8.266774944004343
  0
ELLIPSE
  5
1CD
330
172
100
AcDbEntity
  8
0
  6
Continuous
370
    13
100
AcDbEllipse
 10
-904.346928870068
 20
323.950069824502
 30
0.0
 11
-4.253449767354171
 21
5.208973642924340E-16
 31
0.0
210
0.0
220
0.0
230
1.0
 40
0.984108143315691
 41
1.158003553206705
 42
5.125182741616028
  0
ELLIPSE
  5
1CE
330
172
100
AcDbEntity
  8
0
  6
Continuous
370
    13
100
AcDbEllipse
 10
-915.8401209882209
 20
328.1361087844012
 30
0.0
 11
-4.253449767354171
 21
5.208973642924340E-16
 31
0.0
210
0.0
220
0.0
230
1.0
 40
0.984108143315691
 41
4.299595219146289
 42
8.266774944004343
  0
ELLIPSE
  5
1CF
330
172
100
AcDbEntity
  8
0
  6
Continuous
370
    13
100
AcDbEllipse
 10
-904.346928870068
 20
332.3219605913439
 30
0.0
 11
-4.253449767354171
 21
5.208973642924340E-16
 31
0.0
210
0.0
220
0.0
230
1.0
 40
0.984108143315691
 41
1.158003553206705
 42
5.125182741616018
  0
ELLIPSE
  5
1D0
330
172
100
AcDbEntity
  8
0
  6
Continuous
370
    13
100
AcDbEllipse
 10
-915.8401209882209
 20
336.5079995512432
 30
0.0
 11
-4.253449767354171
 21
5.208973642924340E-16
 31
0.0
210
0.0
220
0.0
230
1.0
 40
0.984108143315691
 41
4.299595219146289
 42
8.266774944004343
  0
ELLIPSE
  5
1D1
330
172
100
AcDbEntity
  8
0
  6
Continuous
370
    13
100
AcDbEllipse
 10
-904.346928870068
 20
340.6938513581858
 30
0.0
 11
-4.253449767354171
 21
5.208973642924340E-16
 31
0.0
210
0.0
220
0.0
230
1.0
 40
0.984108143315691
 41
1.158003553206705
 42
5.125182741616028
  0
ELLIPSE
  5
1D2
330
172
100
AcDbEntity
  8
0
  6
Continuous
370
    13
100
AcDbEllipse
 10
-915.8401209882209
 20
344.8798903180851
 30
0.0
 11
-4.253449767354171
 21
5.208973642924340E-16
 31
0.0
210
0.0
220
0.0
230
1.0
 40
0.984108143315691
 41
4.299595219146289
 42
8.266774944004343
  0
ELLIPSE
  5
1D3
330
172
100
AcDbEntity
  8
0
  6
Continuous
370
    13
100
AcDbEllipse
 10
-904.346928870068
 20
349.0657421250277
 30
0.0
 11
-4.253449767354171
 21
5.208973642924340E-16
 31
0.0
210
0.0
220
0.0
230
1.0
 40
0.984108143315691
 41
1.158003553206705
 42
5.125182741616018
  0
ELLIPSE
  5
1D4
330
172
100
AcDbEntity
  8
0
  6
Continuous
370
    13
100
AcDbEllipse
 10
-915.8401209882209
 20
353.251781084927
 30
0.0
 11
-4.253449767354171
 21
5.208973642924340E-16
 31
0.0
210
0.0
220
0.0
230
1.0
 40
0.984108143315691
 41
4.299595219146289
 42
8.266774944004343
  0
ELLIPSE
  5
1D5
330
172
100
AcDbEntity
  8
0
  6
Continuous
370
    13
100
AcDbEllipse
 10
-904.346928870068
 20
357.4376328918697
 30
0.0
 11
-4.253449767354171
 21
5.208973642924340E-16
 31
0.0
210
0.0
220
0.0
230
1.0
 40
0.984108143315691
 41
1.158003553206705
 42
5.125182741616028
  0
ELLIPSE
  5
1D6
330
172
100
AcDbEntity
  8
0
  6
Continuous
370
    13
100
AcDbEllipse
 10
-915.8401209882209
 20
361.6236718517689
 30
0.0
 11
-4.253449767354171
 21
5.208973642924340E-16
 31
0.0
210
0.0
220
0.0
230
1.0
 40
0.984108143315691
 41
4.299595219146289
 42
8.266774944004343
  0
ELLIPSE
  5
1D7
330
172
100
AcDbEntity
  8
0
  6
Continuous
370
    13
100
AcDbEllipse
 10
-904.346928870068
 20
365.8095236587116
 30
0.0
 11
-4.253449767354171
 21
5.208973642924340E-16
 31
0.0
210
0.0
220
0.0
230
1.0
 40
0.984108143315691
 41
1.158003553206705
 42
5.125182741616018
  0
ELLIPSE
  5
1D8
330
172
100
AcDbEntity
  8
0
  6
Continuous
370
    13
100
AcDbEllipse
 10
-915.8401209882209
 20
369.9955626186108
 30
0.0
 11
-4.253449767354171
 21
5.208973642924340E-16
 31
0.0
210
0.0
220
0.0
230
1.0
 40
0.984108143315691
 41
4.299595219146289
 42
8.266774944004343
  0
ELLIPSE
  5
1D9
330
172
100
AcDbEntity
  8
0
  6
Continuous
370
    13
100
AcDbEllipse
 10
-904.346928870068
 20
374.1814144255535
 30
0.0
 11
-4.253449767354171
 21
5.208973642924340E-16
 31
0.0
210
0.0
220
0.0
230
1.0
 40
0.984108143315691
 41
1.158003553206705
 42
5.125182741616028
  0
ELLIPSE
  5
1DA
330
172
100
AcDbEntity
  8
0
  6
Continuous
370
    13
100
AcDbEllipse
 10
-915.8401209882209
 20
378.3674533854527
 30
0.0
 11
-4.253449767354171
 21
5.208973642924340E-16
 31
0.0
210
0.0
220
0.0
230
1.0
 40
0.984108143315691
 41
4.299595219146289
 42
8.266774944004343
  0
ELLIPSE
  5
1DB
330
172
100
AcDbEntity
  8
0
  6
Continuous
370
    13
100
AcDbEllipse
 10
-904.346928870068
 20
382.5533051923954
 30
0.0
 11
-4.253449767354171
 21
5.208973642924340E-16
 31
0.0
210
0.0
220
0.0
230
1.0
 40
0.984108143315691
 41
1.158003553206705
 42
5.125182741616018
  0
ELLIPSE
  5
1DC
330
172
100
AcDbEntity
  8
0
  6
Continuous
370
    13
100
AcDbEllipse
 10
-915.8401209882209
 20
386.7393441522947
 30
0.0
 11
-4.253449767354171
 21
5.208973642924340E-16
 31
0.0
210
0.0
220
0.0
230
1.0
 40
0.984108143315691
 41
4.299595219146289
 42
8.266774944004343
  0
ELLIPSE
  5
1DD
330
172
100
AcDbEntity
  8
0
  6
Continuous
370
    13
100
AcDbEllipse
 10
-904.346928870068
 20
390.9251959592374
 30
0.0
 11
-4.253449767354171
 21
5.208973642924340E-16
 31
0.0
210
0.0
220
0.0
230
1.0
 40
0.984108143315691
 41
1.158003553206705
 42
5.125182741616028
  0
ELLIPSE
  5
1DE
330
172
100
AcDbEntity
  8
0
  6
Continuous
370
    13
100
AcDbEllipse
 10
-915.8401209882209
 20
395.1112349191366
 30
0.0
 11
-4.253449767354171
 21
5.208973642924340E-16
 31
0.0
210
0.0
220
0.0
230
1.0
 40
0.984108143315691
 41
4.299595219146289
 42
8.266774944004343
  0
ELLIPSE
  5
1DF
330
172
100
AcDbEntity
  8
0
  6
Continuous
370
    13
100
AcDbEllipse
 10
-904.346928870068
 20
399.2970867260792
 30
0.0
 11
-4.253449767354171
 21
5.208973642924340E-16
 31
0.0
210
0.0
220
0.0
230
1.0
 40
0.984108143315691
 41
1.158003553206705
 42
5.125182741616018
  0
ELLIPSE
  5
1E0
330
172
100
AcDbEntity
  8
0
  6
Continuous
370
    13
100
AcDbEllipse
 10
-915.8401209882209
 20
403.4831256859785
 30
0.0
 11
-4.253449767354171
 21
5.208973642924340E-16
 31
0.0
210
0.0
220
0.0
230
1.0
 40
0.984108143315691
 41
4.299595219146289
 42
8.266774944004343
  0
ELLIPSE
  5
1E1
330
172
100
AcDbEntity
  8
0
  6
Continuous
370
    13
100
AcDbEllipse
 10
-904.346928870068
 20
407.6689774929212
 30
0.0
 11
-4.253449767354171
 21
5.208973642924340E-16
 31
0.0
210
0.0
220
0.0
230
1.0
 40
0.984108143315691
 41
1.158003553206705
 42
5.125182741616028
  0
ELLIPSE
  5
1E2
330
172
100
AcDbEntity
  8
0
  6
Continuous
370
    13
100
AcDbEllipse
 10
-915.8401209882209
 20
411.8550164528204
 30
0.0
 11
-4.253449767354171
 21
5.208973642924340E-16
 31
0.0
210
0.0
220
0.0
230
1.0
 40
0.984108143315691
 41
4.299595219146289
 42
8.266774944004343
  0
ELLIPSE
  5
1E3
330
172
100
AcDbEntity
  8
0
  6
Continuous
370
    13
100
AcDbEllipse
 10
-904.346928870068
 20
416.040868259763
 30
0.0
 11
-4.253449767354171
 21
5.208973642924340E-16
 31
0.0
210
0.0
220
0.0
230
1.0
 40
0.984108143315691
 41
1.158003553206705
 42
5.125182741616018
  0
ELLIPSE
  5
1E4
330
172
100
AcDbEntity
  8
0
  6
Continuous
370
    13
100
AcDbEllipse
 10
-915.8401209882209
 20
420.2269072196623
 30
0.0
 11
-4.253449767354171
 21
5.208973642924340E-16
 31
0.0
210
0.0
220
0.0
230
1.0
 40
0.984108143315691
 41
4.299595219146289
 42
8.266774944004343
  0
ELLIPSE
  5
1E5
330
172
100
AcDbEntity
  8
0
  6
Continuous
370
    13
100
AcDbEllipse
 10
-904.346928870068
 20
424.412759026605
 30
0.0
 11
-4.253449767354171
 21
5.208973642924340E-16
 31
0.0
210
0.0
220
0.0
230
1.0
 40
0.984108143315691
 41
1.158003553206705
 42
3.141592653589793
  0
ENDBLK
  5
174
330
172
100
AcDbEntity
  8
0
100
AcDbBlockEnd
  0
BLOCK
  5
1E8
330
1E7
100
AcDbEntity
  8
0
100
AcDbBlockBegin
  2
Sygnał termostatu 12
 70
     2
 10
0.0
 20
0.0
 30
0.0
  3
Sygnał termostatu 12
  1

  0
CIRCLE
  5
1EA
330
1E7
100
AcDbEntity
  8
@__WIDOCZNE
  6
Continuous
370
    13
100
AcDbCircle
 10
0.0
 20
0.0
 30
0.0
 40
30.0
  0
ATTDEF
  5
1EC
330
1E7
100
AcDbEntity
  8
@__WIDOCZNE
370
    13
100
AcDbText
 10
-22.76599999999984
 20
-13.28564285714284
 30
0.0
 40
30.0
  1
01
  7
GENERATED_STYLE_1
 11
-22.76599999999984
 21
-22.15204910714284
 31
0.0
100
AcDbAttributeDefinition
  3
Tekst
  2
txt
 70
     0
 74
     1
  0
ENDBLK
  5
1E9
330
1E7
100
AcDbEntity
  8
0
100
AcDbBlockEnd
  0
BLOCK
  5
1F1
330
1F0
100
AcDbEntity
  8
0
100
AcDbBlockBegin
  2
Sygnał termostatu 12_2
 70
     2
 10
0.0
 20
0.0
 30
0.0
  3
Sygnał termostatu 12_2
  1

  0
CIRCLE
  5
1F3
330
1F0
100
AcDbEntity
  8
@__WIDOCZNE
  6
Continuous
370
    13
100
AcDbCircle
 10
0.0
 20
0.0
 30
0.0
 40
30.0
  0
ATTDEF
  5
1F4
330
1F0
100
AcDbEntity
  8
@__WIDOCZNE
370
    13
100
AcDbText
 10
-22.76599999999984
 20
-13.28564285714284
 30
0.0
 40
30.0
  1
02
  7
GENERATED_STYLE_1
 11
-22.76599999999984
 21
-22.15204910714284
 31
0.0
100
AcDbAttributeDefinition
  3
Tekst
  2
txt
 70
     0
 74
     1
  0
ENDBLK
  5
1F2
330
1F0
100
AcDbEntity
  8
0
100
AcDbBlockEnd
  0
BLOCK
  5
1F9
330
1F8
100
AcDbEntity
  8
0
100
AcDbBlockBegin
  2
Sygnał termostatu 12_3
 70
     2
 10
0.0
 20
0.0
 30
0.0
  3
Sygnał termostatu 12_3
  1

  0
CIRCLE
  5
1FB
330
1F8
100
AcDbEntity
  8
@__WIDOCZNE
  6
Continuous
370
    13
100
AcDbCircle
 10
0.0
 20
0.0
 30
0.0
 40
30.0
  0
ATTDEF
  5
1FC
330
1F8
100
AcDbEntity
  8
@__WIDOCZNE
370
    13
100
AcDbText
 10
-22.76599999999984
 20
-13.28564285714284
 30
0.0
 40
30.0
  1
03
  7
GENERATED_STYLE_1
 11
-22.76599999999984
 21
-22.15204910714284
 31
0.0
100
AcDbAttributeDefinition
  3
Tekst
  2
txt
 70
     0
 74
     1
  0
ENDBLK
  5
1FA
330
1F8
100
AcDbEntity
  8
0
100
AcDbBlockEnd
  0
BLOCK
  5
201
330
200
100
AcDbEntity
  8
0
100
AcDbBlockBegin
  2
Sygnał termostatu 12_4
 70
     2
 10
0.0
 20
0.0
 30
0.0
  3
Sygnał termostatu 12_4
  1

  0
CIRCLE
  5
203
330
200
100
AcDbEntity
  8
@__WIDOCZNE
  6
Continuous
370
    13
100
AcDbCircle
 10
0.0
 20
0.0
 30
0.0
 40
30.0
  0
ATTDEF
  5
204
330
200
100
AcDbEntity
  8
@__WIDOCZNE
370
    13
100
AcDbText
 10
-22.76599999999984
 20
-13.28564285714284
 30
0.0
 40
30.0
  1
04
  7
GENERATED_STYLE_1
 11
-22.76599999999984
 21
-22.15204910714284
 31
0.0
100
AcDbAttributeDefinition
  3
Tekst
  2
txt
 70
     0
 74
     1
  0
ENDBLK
  5
202
330
200
100
AcDbEntity
  8
0
100
AcDbBlockEnd
  0
BLOCK
  5
209
330
208
100
AcDbEntity
  8
0
100
AcDbBlockBegin
  2
Sygnał termostatu 12_5
 70
     2
 10
0.0
 20
0.0
 30
0.0
  3
Sygnał termostatu 12_5
  1

  0
CIRCLE
  5
20B
330
208
100
AcDbEntity
  8
@__WIDOCZNE
  6
Continuous
370
    13
100
AcDbCircle
 10
0.0
 20
0.0
 30
0.0
 40
30.0
  0
ATTDEF
  5
20C
330
208
100
AcDbEntity
  8
@__WIDOCZNE
370
    13
100
AcDbText
 10
-22.76599999999984
 20
-13.28564285714284
 30
0.0
 40
30.0
  1
05
  7
GENERATED_STYLE_1
 11
-22.76599999999984
 21
-22.15204910714284
 31
0.0
100
AcDbAttributeDefinition
  3
Tekst
  2
txt
 70
     0
 74
     1
  0
ENDBLK
  5
20A
330
208
100
AcDbEntity
  8
0
100
AcDbBlockEnd
  0
BLOCK
  5
211
330
210
100
AcDbEntity
  8
0
100
AcDbBlockBegin
  2
Sygnał termostatu 12_6
 70
     2
 10
0.0
 20
0.0
 30
0.0
  3
Sygnał termostatu 12_6
  1

  0
CIRCLE
  5
213
330
210
100
AcDbEntity
  8
@__WIDOCZNE
  6
Continuous
370
    13
100
AcDbCircle
 10
0.0
 20
0.0
 30
0.0
 40
30.0
  0
ATTDEF
  5
214
330
210
100
AcDbEntity
  8
@__WIDOCZNE
370
    13
100
AcDbText
 10
-22.76599999999984
 20
-13.28564285714284
 30
0.0
 40
30.0
  1
06
  7
GENERATED_STYLE_1
 11
-22.76599999999984
 21
-22.15204910714284
 31
0.0
100
AcDbAttributeDefinition
  3
Tekst
  2
txt
 70
     0
 74
     1
  0
ENDBLK
  5
212
330
210
100
AcDbEntity
  8
0
100
AcDbBlockEnd
  0
BLOCK
  5
219
330
218
100
AcDbEntity
  8
0
100
AcDbBlockBegin
  2
Sygnał termostatu 12_7
 70
     2
 10
0.0
 20
0.0
 30
0.0
  3
Sygnał termostatu 12_7
  1

  0
CIRCLE
  5
21B
330
218
100
AcDbEntity
  8
@__WIDOCZNE
  6
Continuous
370
    13
100
AcDbCircle
 10
0.0
 20
0.0
 30
0.0
 40
30.0
  0
ATTDEF
  5
21C
330
218
100
AcDbEntity
  8
@__WIDOCZNE
370
    13
100
AcDbText
 10
-22.76599999999984
 20
-13.28564285714284
 30
0.0
 40
30.0
  1
07
  7
GENERATED_STYLE_1
 11
-22.76599999999984
 21
-22.15204910714284
 31
0.0
100
AcDbAttributeDefinition
  3
Tekst
  2
txt
 70
     0
 74
     1
  0
ENDBLK
  5
21A
330
218
100
AcDbEntity
  8
0
100
AcDbBlockEnd
  0
BLOCK
  5
369
330
368
100
AcDbEntity
  8
0
100
AcDbBlockBegin
  2
*X19
 70
     1
 10
0.0
 20
0.0
 30
0.0
  3
*X19
  1

  0
HATCH
  5
36B
330
368
100
AcDbEntity
  8
2D - Ogólne
  6
Continuous
370
    13
100
AcDbHatch
 10
0.0
 20
0.0
 30
0.0
210
0.0
220
0.0
230
1.0
  2
SOLID
 70
     1
 71
     0
 91
        1
 92
        2
 72
     0
 73
     1
 93
        4
 10
-253.6344792314145
 20
1706.847769263409
 10
-267.8214426458722
 20
1706.866713463987
 10
-267.8214426458722
 20
1681.866694320819
 10
-253.6678602193312
 20
1681.847793670126
 97
        0
 75
     0
 76
     1
 98
        0
  0
HATCH
  5
36C
330
368
100
AcDbEntity
  8
2D - Ogólne
  6
Continuous
370
    13
100
AcDbHatch
 10
0.0
 20
0.0
 30
0.0
210
0.0
220
0.0
230
1.0
  2
SOLID
 70
     1
 71
     0
 91
        1
 92
        2
 72
     0
 73
     1
 93
        4
 10
-253.7679931552156
 20
1606.847856002807
 10
-267.8214435054784
 20
1606.866626003841
 10
-267.8214435054784
 20
1581.866606860672
 10
-253.8013741431323
 20
1581.847880409525
 97
        0
 75
     0
 76
     1
 98
        0
  0
HATCH
  5
36D
330
368
100
AcDbEntity
  8
2D - Ogólne
  6
Continuous
370
    13
100
AcDbHatch
 10
0.0
 20
0.0
 30
0.0
210
0.0
220
0.0
230
1.0
  2
SOLID
 70
     1
 71
     0
 91
        1
 92
        2
 72
     0
 73
     1
 93
        4
 10
-253.9015070790168
 20
1506.847953629678
 10
-267.8214443650846
 20
1506.866538543695
 10
-267.8214443650846
 20
1481.866519400526
 10
-253.9348880669335
 20
1481.847978036396
 97
        0
 75
     0
 76
     1
 98
        0
  0
HATCH
  5
36E
330
368
100
AcDbEntity
  8
2D - Ogólne
  6
Continuous
370
    13
100
AcDbHatch
 10
0.0
 20
0.0
 30
0.0
210
0.0
220
0.0
230
1.0
  2
SOLID
 70
     1
 71
     0
 91
        1
 92
        2
 72
     0
 73
     1
 93
        4
 10
-254.0350210028179
 20
1406.848040369077
 10
-267.8214452246908
 20
1406.866440196076
 10
-267.8214452246908
 20
1381.866431940379
 10
-254.0684019907346
 20
1381.848064775795
 97
        0
 75
     0
 76
     1
 98
        0
  0
HATCH
  5
36F
330
368
100
AcDbEntity
  8
2D - Ogólne
  6
Continuous
370
    13
100
AcDbHatch
 10
0.0
 20
0.0
 30
0.0
210
0.0
220
0.0
230
1.0
  2
SOLID
 70
     1
 71
     0
 91
        1
 92
        2
 72
     0
 73
     1
 93
        4
 10
-254.1685349266191
 20
1306.848127108476
 10
-267.821446084297
 20
1306.86635273593
 10
-267.821446084297
 20
1281.866333592761
 10
-254.2019159145358
 20
1281.848151515194
 97
        0
 75
     0
 76
     1
 98
        0
  0
HATCH
  5
370
330
368
100
AcDbEntity
  8
2D - Ogólne
  6
Continuous
370
    13
100
AcDbHatch
 10
0.0
 20
0.0
 30
0.0
210
0.0
220
0.0
230
1.0
  2
SOLID
 70
     1
 71
     0
 91
        1
 92
        2
 72
     0
 73
     1
 93
        4
 10
-254.3020488504203
 20
1206.848213847876
 10
-267.8214469439032
 20
1206.866265275783
 10
-267.8214469439032
 20
1181.866246132615
 10
-254.3354298383369
 20
1181.848238254593
 97
        0
 75
     0
 76
     1
 98
        0
  0
HATCH
  5
371
330
368
100
AcDbEntity
  8
2D - Ogólne
  6
Continuous
370
    13
100
AcDbHatch
 10
0.0
 20
0.0
 30
0.0
210
0.0
220
0.0
230
1.0
  2
SOLID
 70
     1
 71
     0
 91
        1
 92
        2
 72
     0
 73
     1
 93
        4
 10
-254.4355627742214
 20
1106.848311474746
 10
-267.8214478035094
 20
1106.866177815637
 10
-267.8214478035094
 20
1081.866158672468
 10
-254.4689437621381
 20
1081.848324993992
 97
        0
 75
     0
 76
     1
 98
        0
  0
HATCH
  5
372
330
368
100
AcDbEntity
  8
2D - Ogólne
  6
Continuous
370
    13
100
AcDbHatch
 10
0.0
 20
0.0
 30
0.0
210
0.0
220
0.0
230
1.0
  2
SOLID
 70
     1
 71
     0
 91
        1
 92
        2
 72
     0
 73
     1
 93
        4
 10
-267.8214442470895
 20
1006.866094883669
 10
-267.8214442470895
 20
1000.149596819621
 10
-254.5780149481928
 20
1000.149596819621
 10
-254.5690756434602
 20
1006.848394837094
 97
        0
 75
     0
 76
     1
 98
        0
  0
HATCH
  5
373
330
368
100
AcDbEntity
  8
2D - Ogólne
  6
Continuous
370
    13
100
AcDbHatch
 10
0.0
 20
0.0
 30
0.0
210
0.0
220
0.0
230
1.0
  2
SOLID
 70
     1
 71
     0
 91
        1
 92
        2
 72
     0
 73
     1
 93
        4
 10
-253.6678536771416
 20
1681.847793670126
 10
-253.4888092067277
 20
1681.847554145751
 10
-253.4888092067277
 20
1706.84757328892
 10
-253.634472689225
 20
1706.847769263409
 97
        0
 75
     0
 76
     1
 98
        0
  0
HATCH
  5
374
330
368
100
AcDbEntity
  8
2D - Ogólne
  6
Continuous
370
    13
100
AcDbHatch
 10
0.0
 20
0.0
 30
0.0
210
0.0
220
0.0
230
1.0
  2
SOLID
 70
     1
 71
     0
 91
        1
 92
        2
 72
     0
 73
     1
 93
        4
 10
-253.8013667413366
 20
1581.847880409525
 10
-253.4888092067277
 20
1581.847466685605
 10
-253.4888092067277
 20
1606.847485828773
 10
-253.7679966408915
 20
1606.847856002807
 97
        0
 75
     0
 76
     1
 98
        0
  0
HATCH
  5
375
330
368
100
AcDbEntity
  8
2D - Ogólne
  6
Continuous
370
    13
100
AcDbHatch
 10
0.0
 20
0.0
 30
0.0
210
0.0
220
0.0
230
1.0
  2
SOLID
 70
     1
 71
     0
 91
        1
 92
        2
 72
     0
 73
     1
 93
        4
 10
-253.9348798055315
 20
1481.847978036396
 10
-253.4888092067277
 20
1481.847379225458
 10
-253.4888092067277
 20
1506.847398368627
 10
-253.9015097050865
 20
1506.847953629678
 97
        0
 75
     0
 76
     1
 98
        0
  0
HATCH
  5
376
330
368
100
AcDbEntity
  8
2D - Ogólne
  6
Continuous
370
    13
100
AcDbHatch
 10
0.0
 20
0.0
 30
0.0
210
0.0
220
0.0
230
1.0
  2
SOLID
 70
     1
 71
     0
 91
        1
 92
        2
 72
     0
 73
     1
 93
        4
 10
-254.0683928697265
 20
1381.848064775795
 10
-253.4888092067277
 20
1381.847291765312
 10
-253.4888092067277
 20
1406.84731090848
 10
-254.0350227692814
 20
1406.848040369077
 97
        0
 75
     0
 76
     1
 98
        0
  0
HATCH
  5
377
330
368
100
AcDbEntity
  8
2D - Ogólne
  6
Continuous
370
    13
100
AcDbHatch
 10
0.0
 20
0.0
 30
0.0
210
0.0
220
0.0
230
1.0
  2
SOLID
 70
     1
 71
     0
 91
        1
 92
        2
 72
     0
 73
     1
 93
        4
 10
-254.201916821393
 20
1281.848151515194
 10
-253.4888092067277
 20
1281.847204305165
 10
-253.4888092067277
 20
1306.847223448334
 10
-254.1685358334764
 20
1306.848127108476
 97
        0
 75
     0
 76
     1
 98
        0
  0
HATCH
  5
378
330
368
100
AcDbEntity
  8
2D - Ogólne
  6
Continuous
370
    13
100
AcDbHatch
 10
0.0
 20
0.0
 30
0.0
210
0.0
220
0.0
230
1.0
  2
SOLID
 70
     1
 71
     0
 91
        1
 92
        2
 72
     0
 73
     1
 93
        4
 10
-254.335429885588
 20
1181.848238254593
 10
-253.4888092067277
 20
1181.847105957547
 10
-253.4888092067277
 20
1206.847125100716
 10
-254.3020488976713
 20
1206.848213847876
 97
        0
 75
     0
 76
     1
 98
        0
  0
HATCH
  5
379
330
368
100
AcDbEntity
  8
2D - Ogólne
  6
Continuous
370
    13
100
AcDbHatch
 10
0.0
 20
0.0
 30
0.0
210
0.0
220
0.0
230
1.0
  2
SOLID
 70
     1
 71
     0
 91
        1
 92
        2
 72
     0
 73
     1
 93
        4
 10
-254.468942949783
 20
1081.848324993992
 10
-253.4888092067277
 20
1081.847018497401
 10
-253.4888092067277
 20
1106.847048528041
 10
-254.4355619618663
 20
1106.848311474746
 97
        0
 75
     0
 76
     1
 98
        0
  0
HATCH
  5
37A
330
368
100
AcDbEntity
  8
2D - Ogólne
  6
Continuous
370
    13
100
AcDbHatch
 10
0.0
 20
0.0
 30
0.0
210
0.0
220
0.0
230
1.0
  2
SOLID
 70
     1
 71
     0
 91
        1
 92
        2
 72
     0
 73
     1
 93
        4
 10
-254.5690802287863
 20
1006.848400152204
 10
-254.5780203303194
 20
1000.149596582973
 10
-253.4888012184391
 20
1000.149596582973
 10
-253.4888012184391
 20
1006.846960360571
 97
        0
 75
     0
 76
     1
 98
        0
  0
HATCH
  5
37B
330
368
100
AcDbEntity
  8
2D - Ogólne
  6
Continuous
370
    13
100
AcDbHatch
 10
0.0
 20
0.0
 30
0.0
210
0.0
220
0.0
230
1.0
  2
SOLID
 70
     1
 71
     0
 91
        1
 92
        2
 72
     0
 73
     1
 93
        4
 10
-253.6678577123648
 20
1681.847793670126
 10
-267.8214510263774
 20
1681.866694320819
 10
-267.8214510263774
 20
1656.86667517765
 10
-253.7012387002814
 20
1656.847818076844
 97
        0
 75
     0
 76
     1
 98
        0
  0
HATCH
  5
37C
330
368
100
AcDbEntity
  8
2D - Ogólne
  6
Continuous
370
    13
100
AcDbHatch
 10
0.0
 20
0.0
 30
0.0
210
0.0
220
0.0
230
1.0
  2
SOLID
 70
     1
 71
     0
 91
        1
 92
        2
 72
     0
 73
     1
 93
        4
 10
-253.801371636166
 20
1581.847880409525
 10
-267.8214518859836
 20
1581.866595973201
 10
-267.8214518859836
 20
1556.866576830032
 10
-253.8347526240826
 20
1556.847904816243
 97
        0
 75
     0
 76
     1
 98
        0
  0
HATCH
  5
37D
330
368
100
AcDbEntity
  8
2D - Ogólne
  6
Continuous
370
    13
100
AcDbHatch
 10
0.0
 20
0.0
 30
0.0
210
0.0
220
0.0
230
1.0
  2
SOLID
 70
     1
 71
     0
 91
        1
 92
        2
 72
     0
 73
     1
 93
        4
 10
-253.9348855599671
 20
1481.847978036396
 10
-267.8214418581182
 20
1481.866519400526
 10
-267.8214418581182
 20
1456.866489369886
 10
-253.9682665478837
 20
1456.847991555642
 97
        0
 75
     0
 76
     1
 98
        0
  0
HATCH
  5
37E
330
368
100
AcDbEntity
  8
2D - Ogólne
  6
Continuous
370
    13
100
AcDbHatch
 10
0.0
 20
0.0
 30
0.0
210
0.0
220
0.0
230
1.0
  2
SOLID
 70
     1
 71
     0
 91
        1
 92
        2
 72
     0
 73
     1
 93
        4
 10
-254.0683994837682
 20
1381.848064775795
 10
-267.8214427177244
 20
1381.866421052908
 10
-267.8214427177244
 20
1356.866401909739
 10
-254.1017804716849
 20
1356.848089182513
 97
        0
 75
     0
 76
     1
 98
        0
  0
HATCH
  5
37F
330
368
100
AcDbEntity
  8
2D - Ogólne
  6
Continuous
370
    13
100
AcDbHatch
 10
0.0
 20
0.0
 30
0.0
210
0.0
220
0.0
230
1.0
  2
SOLID
 70
     1
 71
     0
 91
        1
 92
        2
 72
     0
 73
     1
 93
        4
 10
-254.2019134075694
 20
1281.848151515194
 10
-267.8214435773306
 20
1281.866333592761
 10
-267.8214435773306
 20
1256.866314449593
 10
-254.2352943954861
 20
1256.848175921912
 97
        0
 75
     0
 76
     1
 98
        0
  0
HATCH
  5
380
330
368
100
AcDbEntity
  8
2D - Ogólne
  6
Continuous
370
    13
100
AcDbHatch
 10
0.0
 20
0.0
 30
0.0
210
0.0
220
0.0
230
1.0
  2
SOLID
 70
     1
 71
     0
 91
        1
 92
        2
 72
     0
 73
     1
 93
        4
 10
-254.3354273313705
 20
1181.848238254593
 10
-267.8214444369368
 20
1181.866246132615
 10
-267.8214444369368
 20
1156.866226989446
 10
-254.3688083192872
 20
1156.848262661311
 97
        0
 75
     0
 76
     1
 98
        0
  0
HATCH
  5
381
330
368
100
AcDbEntity
  8
2D - Ogólne
  6
Continuous
370
    13
100
AcDbHatch
 10
0.0
 20
0.0
 30
0.0
210
0.0
220
0.0
230
1.0
  2
SOLID
 70
     1
 71
     0
 91
        1
 92
        2
 72
     0
 73
     1
 93
        4
 10
-254.4689412551717
 20
1081.848324993992
 10
-267.821445296543
 20
1081.866158672468
 10
-267.821445296543
 20
1056.8661395293
 10
-254.5023222430884
 20
1056.84834940071
 97
        0
 75
     0
 76
     1
 98
        0
  0
HATCH
  5
382
330
368
100
AcDbEntity
  8
2D - Ogólne
  6
Continuous
370
    13
100
AcDbHatch
 10
0.0
 20
0.0
 30
0.0
210
0.0
220
0.0
230
1.0
  2
SOLID
 70
     1
 71
     0
 91
        1
 92
        2
 72
     0
 73
     1
 93
        4
 10
-253.7012346650582
 20
1656.847818076844
 10
-253.4888092067277
 20
1656.847535002582
 10
-253.4888092067277
 20
1681.847554145751
 10
-253.6678536771416
 20
1681.847793670126
 97
        0
 75
     0
 76
     1
 98
        0
  0
HATCH
  5
383
330
368
100
AcDbEntity
  8
2D - Ogólne
  6
Continuous
370
    13
100
AcDbHatch
 10
0.0
 20
0.0
 30
0.0
210
0.0
220
0.0
230
1.0
  2
SOLID
 70
     1
 71
     0
 91
        1
 92
        2
 72
     0
 73
     1
 93
        4
 10
-253.8347477292532
 20
1556.847904816243
 10
-253.4888092067277
 20
1556.847447542436
 10
-253.4888092067277
 20
1581.847466685605
 10
-253.8013667413366
 20
1581.847880409525
 97
        0
 75
     0
 76
     1
 98
        0
  0
HATCH
  5
384
330
368
100
AcDbEntity
  8
2D - Ogólne
  6
Continuous
370
    13
100
AcDbHatch
 10
0.0
 20
0.0
 30
0.0
210
0.0
220
0.0
230
1.0
  2
SOLID
 70
     1
 71
     0
 91
        1
 92
        2
 72
     0
 73
     1
 93
        4
 10
-253.9682607934481
 20
1456.847991555642
 10
-253.4888092067277
 20
1456.847349194818
 10
-253.4888092067277
 20
1481.847379225458
 10
-253.9348798055315
 20
1481.847978036396
 97
        0
 75
     0
 76
     1
 98
        0
  0
HATCH
  5
385
330
368
100
AcDbEntity
  8
2D - Ogólne
  6
Continuous
370
    13
100
AcDbHatch
 10
0.0
 20
0.0
 30
0.0
210
0.0
220
0.0
230
1.0
  2
SOLID
 70
     1
 71
     0
 91
        1
 92
        2
 72
     0
 73
     1
 93
        4
 10
-254.1017738576431
 20
1356.848089182513
 10
-253.4888092067277
 20
1356.847272622143
 10
-253.4888092067277
 20
1381.847291765312
 10
-254.0683928697265
 20
1381.848064775795
 97
        0
 75
     0
 76
     1
 98
        0
  0
HATCH
  5
386
330
368
100
AcDbEntity
  8
2D - Ogólne
  6
Continuous
370
    13
100
AcDbHatch
 10
0.0
 20
0.0
 30
0.0
210
0.0
220
0.0
230
1.0
  2
SOLID
 70
     1
 71
     0
 91
        1
 92
        2
 72
     0
 73
     1
 93
        4
 10
-254.2352869218381
 20
1256.848175921912
 10
-253.4888092067277
 20
1256.847185161997
 10
-253.4888092067277
 20
1281.847204305165
 10
-254.201916821393
 20
1281.848151515194
 97
        0
 75
     0
 76
     1
 98
        0
  0
HATCH
  5
387
330
368
100
AcDbEntity
  8
2D - Ogólne
  6
Continuous
370
    13
100
AcDbHatch
 10
0.0
 20
0.0
 30
0.0
210
0.0
220
0.0
230
1.0
  2
SOLID
 70
     1
 71
     0
 91
        1
 92
        2
 72
     0
 73
     1
 93
        4
 10
-254.368799986033
 20
1156.848262661311
 10
-253.4888092067277
 20
1156.847086814378
 10
-253.4888092067277
 20
1181.847105957547
 10
-254.335429885588
 20
1181.848238254593
 97
        0
 75
     0
 76
     1
 98
        0
  0
HATCH
  5
388
330
368
100
AcDbEntity
  8
2D - Ogólne
  6
Continuous
370
    13
100
AcDbHatch
 10
0.0
 20
0.0
 30
0.0
210
0.0
220
0.0
230
1.0
  2
SOLID
 70
     1
 71
     0
 91
        1
 92
        2
 72
     0
 73
     1
 93
        4
 10
-254.502313050228
 20
1056.84834940071
 10
-253.4888092067277
 20
1056.846999354232
 10
-253.4888092067277
 20
1081.847018497401
 10
-254.468942949783
 20
1081.848324993992
 97
        0
 75
     0
 76
     1
 98
        0
  0
ENDBLK
  5
36A
330
368
100
AcDbEntity
  8
0
100
AcDbBlockEnd
  0
BLOCK
  5
3C4
330
3C3
100
AcDbEntity
  8
0
100
AcDbBlockBegin
  2
Bez nazwy_STORY_MARKER
 70
     0
 10
0.0
 20
0.0
 30
0.0
  3
Bez nazwy_STORY_MARKER
  1

  0
ENDBLK
  5
3C5
330
3C3
100
AcDbEntity
  8
0
100
AcDbBlockEnd
  0
BLOCK
  5
3C7
330
3C6
100
AcDbEntity
  8
0
100
AcDbBlockBegin
  2
Rysunek_1
 70
     0
 10
0.0
 20
0.0
 30
0.0
  3
Rysunek_1
  1

  0
ENDBLK
  5
3C8
330
3C6
100
AcDbEntity
  8
0
100
AcDbBlockEnd
  0
BLOCK
  5
3D1
330
3D0
100
AcDbEntity
  8
0
100
AcDbBlockBegin
  2
02.04.2-20 \U+FF8CCIANA+PIWICA 10.01._STORY_MARKER
 70
     0
 10
0.0
 20
0.0
 30
0.0
  3
02.04.2-20 \U+FF8CCIANA+PIWICA 10.01._STORY_MARKER
  1

  0
ENDBLK
  5
3D2
330
3D0
100
AcDbEntity
  8
0
100
AcDbBlockEnd
  0
ENDSEC
  0
SECTION
  2
ENTITIES
  0
WIPEOUT
  5
7A
330
1F
100
AcDbEntity
  8
2D - Ogólne
  6
Wipeout_Contour
 62
   254
 48
11593.49685388736
370
     0
 92
      140
310
8C00000001000000840000000600000005000000DF1990BEA7E9A5C0F8185D74D19D8E400000000000000000DF1990BEA7E9A5C0DC31BAE8A2AB7B40000000000000000018E06F6EFDCCA5C0DC31BAE8A2AB7B40000000000000000018E06F6EFDCCA5C0F8185D74D19D8E400000000000000000DF1990BEA7E9A5C0F8185D
310
74D19D8E400000000000000000
100
AcDbWipeout
 90
        0
 10
-2804.827625754507
 20
442.727272727321
 30
0.0
 11
14.33264256196298
 21
0.0
 31
0.0
 12
0.0
 22
537.0000000000011
 32
0.0
 13
1.0
 23
1.0
340
0
 70
    15
280
     1
281
    50
282
    50
283
     0
360
0
 71
     2
 91
        5
 14
-0.4999999999999841
 24
-0.5
 14
-0.4999999999999841
 24
0.5
 14
0.5000000000000159
 24
0.5
 14
0.5000000000000159
 24
-0.5
 14
-0.4999999999999841
 24
-0.5
  0
INSERT
  5
7C
330
1F
100
AcDbEntity
  8
2D - Ogólne
  6
Continuous
370
    13
100
AcDbBlockReference
  2
*X1
 10
0.0
 20
0.0
 30
0.0
  0
LINE
  5
7D
330
1F
100
AcDbEntity
  8
2D - Ogólne
  6
Continuous
370
    13
100
AcDbLine
 10
-2804.827625754507
 20
979.7272727273221
 30
0.0
 11
-2804.827625754507
 21
442.727272727321
 31
0.0
  0
LINE
  5
7E
330
1F
100
AcDbEntity
  8
2D - Ogólne
  6
Continuous
370
    13
100
AcDbLine
 10
-2804.827625754507
 20
442.727272727321
 30
0.0
 11
-2790.494983192544
 21
442.727272727321
 31
0.0
  0
LINE
  5
7F
330
1F
100
AcDbEntity
  8
2D - Ogólne
  6
Continuous
370
    13
100
AcDbLine
 10
-2790.494983192544
 20
442.727272727321
 30
0.0
 11
-2790.494983192544
 21
979.7272727273221
 31
0.0
  0
LINE
  5
80
330
1F
100
AcDbEntity
  8
2D - Ogólne
  6
Continuous
370
    13
100
AcDbLine
 10
-2790.494983192544
 20
979.7272727273221
 30
0.0
 11
-2804.827625754507
 21
979.7272727273221
 31
0.0
  0
WIPEOUT
  5
A2
330
1F
100
AcDbEntity
  8
2D - Ogólne
  6
Wipeout_Contour
 62
   254
 48
12534.21134710085
370
     0
 92
      140
310
8C00000001000000840000000600000005000000DF1990BEA7E9A5C0D800000000089B400000000000000000DF1990BEA7E9A5C0F8185D74D1DD8F40000000000000000018E06F6EFDCCA5C0F8185D74D1DD8F40000000000000000018E06F6EFDCCA5C0D800000000089B400000000000000000DF1990BEA7E9A5C0D80000
310
0000089B400000000000000000
100
AcDbWipeout
 90
        0
 10
-2804.827625754507
 20
1019.727272727322
 30
0.0
 11
14.33264256196298
 21
0.0
 31
0.0
 12
0.0
 22
710.272727272727
 32
0.0
 13
1.0
 23
1.0
340
0
 70
    15
280
     1
281
    50
282
    50
283
     0
360
0
 71
     2
 91
        5
 14
-0.4999999999999841
 24
-0.5
 14
-0.4999999999999841
 24
0.5
 14
0.5000000000000159
 24
0.5
 14
0.5000000000000159
 24
-0.5
 14
-0.4999999999999841
 24
-0.5
  0
INSERT
  5
A3
330
1F
100
AcDbEntity
  8
2D - Ogólne
  6
Continuous
370
    13
100
AcDbBlockReference
  2
*X2
 10
0.0
 20
0.0
 30
0.0
  0
LINE
  5
A4
330
1F
100
AcDbEntity
  8
2D - Ogólne
  6
Continuous
370
    13
100
AcDbLine
 10
-2804.827625754507
 20
1730.000000000049
 30
0.0
 11
-2804.827625754507
 21
1019.727272727322
 31
0.0
  0
LINE
  5
A5
330
1F
100
AcDbEntity
  8
2D - Ogólne
  6
Continuous
370
    13
100
AcDbLine
 10
-2804.827625754507
 20
1019.727272727322
 30
0.0
 11
-2790.494983192544
 21
1019.727272727322
 31
0.0
  0
LINE
  5
A6
330
1F
100
AcDbEntity
  8
2D - Ogólne
  6
Continuous
370
    13
100
AcDbLine
 10
-2790.494983192544
 20
1019.727272727322
 30
0.0
 11
-2790.494983192544
 21
1730.000000000049
 31
0.0
  0
LINE
  5
A7
330
1F
100
AcDbEntity
  8
2D - Ogólne
  6
Continuous
370
    13
100
AcDbLine
 10
-2790.494983192544
 20
1730.000000000049
 30
0.0
 11
-2804.827625754507
 21
1730.000000000049
 31
0.0
  0
WIPEOUT
  5
BD
330
1F
100
AcDbEntity
  8
2D - Ogólne
  6
Wipeout_Contour
 62
   254
 48
2929.013806153848
370
     0
 92
      140
310
8C000000010000008400000006000000050000007CA699A524BD70C0F4185D74D11D8C4000000000000000007CA699A524BD70C0D831BAE8A2AB7C40000000000000000080B02F49A4AF6FC0D831BAE8A2AB7C40000000000000000080B02F49A4AF6FC0F4185D74D11D8C4000000000000000007CA699A524BD70C0F4185D
310
74D11D8C400000000000000000
100
AcDbWipeout
 90
        0
 10
-267.8214469911543
 20
458.7272727273207
 30
0.0
 11
14.33264256196321
 21
0.0
 31
0.0
 12
0.0
 22
441.0000000000009
 32
0.0
 13
1.0
 23
1.0
340
0
 70
    15
280
     1
281
    50
282
    50
283
     0
360
0
 71
     2
 91
        5
 14
-0.5
 24
-0.5
 14
-0.5
 24
0.5
 14
0.5
 24
0.5
 14
0.5
 24
-0.5
 14
-0.5
 24
-0.5
  0
INSERT
  5
BE
330
1F
100
AcDbEntity
  8
2D - Ogólne
  6
Continuous
370
    13
100
AcDbBlockReference
  2
*X3
 10
0.0
 20
0.0
 30
0.0
  0
LINE
  5
BF
330
1F
100
AcDbEntity
  8
2D - Ogólne
  6
Continuous
370
    13
100
AcDbLine
 10
-267.8214469911543
 20
899.7272727273216
 30
0.0
 11
-267.8214469911543
 21
458.7272727273207
 31
0.0
  0
LINE
  5
C0
330
1F
100
AcDbEntity
  8
2D - Ogólne
  6
Continuous
370
    13
100
AcDbLine
 10
-267.8214469911543
 20
458.7272727273207
 30
0.0
 11
-253.4888044291911
 21
458.7272727273207
 31
0.0
  0
LINE
  5
C1
330
1F
100
AcDbEntity
  8
2D - Ogólne
  6
Continuous
370
    13
100
AcDbLine
 10
-253.4888044291911
 20
458.7272727273207
 30
0.0
 11
-253.4888044291911
 21
899.7272727273216
 31
0.0
  0
LINE
  5
C2
330
1F
100
AcDbEntity
  8
2D - Ogólne
  6
Continuous
370
    13
100
AcDbLine
 10
-253.4888044291911
 20
899.7272727273216
 30
0.0
 11
-267.8214469911543
 21
899.7272727273216
 31
0.0
  0
LWPOLYLINE
  5
C3
330
1F
100
AcDbEntity
  8
0
  6
Continuous
370
    13
100
AcDbPolyline
 90
        4
 70
   129
 43
0.0
 10
-2969.999999999999
 20
1750.000000000049
 10
-2969.999999999999
 20
-49.9999999999515
 10
-100.0000000000001
 20
-49.9999999999515
 10
-100.0000000000001
 20
1750.000000000049
  0
HATCH
  5
C4
330
1F
100
AcDbEntity
  8
0
  6
Continuous
370
    13
100
AcDbHatch
 10
0.0
 20
0.0
 30
0.0
210
0.0
220
0.0
230
1.0
  2
Bloczki_betonowe_0002
 70
     0
 71
     0
 91
        1
 92
        2
 72
     1
 73
     1
 93
        9
 10
-2213.931664634892
 20
263.7272727273209
 42
0.0
 10
-2163.931664634892
 20
263.7272727273209
 42
0.0
 10
-2163.931664634892
 20
190.0000000000483
 42
0.0
 10
-2143.931664634893
 20
190.0000000000483
 42
0.0
 10
-2143.931664634893
 20
284.7272727273209
 42
0.0
 10
-2173.931664634893
 20
284.7272727273209
 42
-0.4142135623730919
 10
-2193.931664634893
 20
304.7272727273207
 42
0.0
 10
-2193.931664634893
 20
392.7272727273209
 42
0.0
 10
-2213.931664634892
 20
392.7272727273209
 42
0.0
 97
        0
 75
     0
 76
     2
 52
0.0
 41
1.0
 77
     0
 78
     2
 53
44.99999999999999
 43
0.0
 44
0.0
 45
-9.192387818250328
 46
9.19238781825033
 79
     0
 53
135.0
 43
0.0
 44
0.0
 45
9.192387818250326
 46
9.192387818250332
 79
     0
 98
        0
  0
HATCH
  5
C5
330
1F
100
AcDbEntity
  8
0
  6
Continuous
370
    13
100
AcDbHatch
 10
0.0
 20
0.0
 30
0.0
210
0.0
220
0.0
230
1.0
  2
Bloczki_betonowe_0002
 70
     0
 71
     0
 91
        1
 92
        2
 72
     1
 73
     1
 93
        9
 10
-2024.30862471239
 20
263.7272727273209
 42
0.0
 10
-2074.308624712391
 20
263.7272727273209
 42
0.0
 10
-2074.308624712391
 20
190.0000000000483
 42
0.0
 10
-2094.308624712389
 20
190.0000000000483
 42
0.0
 10
-2094.308624712389
 20
284.7272727273209
 42
0.0
 10
-2064.308624712389
 20
284.7272727273209
 42
0.4142135623730919
 10
-2044.30862471239
 20
304.7272727273207
 42
0.0
 10
-2044.30862471239
 20
392.7272727273209
 42
0.0
 10
-2024.30862471239
 20
392.7272727273209
 42
0.0
 97
        0
 75
     0
 76
     2
 52
0.0
 41
1.0
 77
     0
 78
     2
 53
44.99999999999999
 43
0.0
 44
0.0
 45
-9.192387818250328
 46
9.19238781825033
 79
     0
 53
135.0
 43
0.0
 44
0.0
 45
9.192387818250326
 46
9.192387818250332
 79
     0
 98
        0
  0
HATCH
  5
C6
330
1F
100
AcDbEntity
  8
0
  6
Continuous
370
    13
100
AcDbHatch
 10
0.0
 20
0.0
 30
0.0
210
0.0
220
0.0
230
1.0
  2
Bloczki_betonowe_0002
 70
     0
 71
     0
 91
        1
 92
        2
 72
     0
 73
     1
 93
        6
 10
-2348.313336417388
 20
458.727272727321
 10
-2209.120144673641
 20
458.727272727321
 10
-2209.120144673641
 20
449.727272727321
 10
-2179.12014467364
 20
449.727272727321
 10
-2179.12014467364
 20
408.7272727273209
 10
-2288.501816456137
 20
408.7272727273209
 97
        0
 75
     0
 76
     2
 52
0.0
 41
1.0
 77
     0
 78
     2
 53
44.99999999999999
 43
0.0
 44
0.0
 45
-9.192387818250328
 46
9.19238781825033
 79
     0
 53
135.0
 43
0.0
 44
0.0
 45
9.192387818250326
 46
9.192387818250332
 79
     0
 98
        0
  0
HATCH
  5
C7
330
1F
100
AcDbEntity
  8
0
  6
Continuous
370
    13
100
AcDbHatch
 10
0.0
 20
0.0
 30
0.0
210
0.0
220
0.0
230
1.0
  2
Bloczki_betonowe_0002
 70
     0
 71
     0
 91
        1
 92
        2
 72
     0
 73
     1
 93
        6
 10
-1889.926952929894
 20
458.727272727321
 10
-2029.120144673641
 20
458.727272727321
 10
-2029.120144673641
 20
449.727272727321
 10
-2059.120144673642
 20
449.727272727321
 10
-2059.120144673642
 20
408.7272727273209
 10
-1949.738472891145
 20
408.7272727273209
 97
        0
 75
     0
 76
     2
 52
0.0
 41
1.0
 77
     0
 78
     2
 53
44.99999999999999
 43
0.0
 44
0.0
 45
-9.192387818250328
 46
9.19238781825033
 79
     0
 53
135.0
 43
0.0
 44
0.0
 45
9.192387818250326
 46
9.192387818250332
 79
     0
 98
        0
  0
HATCH
  5
C8
330
1F
100
AcDbEntity
  8
0
  6
Continuous
370
    13
100
AcDbHatch
 10
0.0
 20
0.0
 30
0.0
210
0.0
220
0.0
230
1.0
  2
Płyty_kamienne_0002
 70
     0
 71
     0
 91
        1
 92
        2
 72
     0
 73
     1
 93
        4
 10
-2029.120144673641
 20
458.727272727321
 10
-1789.120144673641
 20
458.727272727321
 10
-1789.120144673641
 20
474.727272727321
 10
-2029.120144673641
 20
474.727272727321
 97
        0
 75
     0
 76
     2
 52
0.0
 41
1.0
 77
     0
 78
     2
 53
45.0
 43
0.0
 44
35.0
 45
-11.13693180368812
 46
11.13693180368812
 79
     4
 49
0.0
 49
-10.5
 49
0.0
 49
-15.75
 53
110.0
 43
35.0
 44
35.0
 45
14.80015877737805
 46
5.386817257379289
 79
     4
 49
0.0
 49
-7.699999999999999
 49
0.0
 49
-13.3
 98
        0
  0
HATCH
  5
C9
330
1F
100
AcDbEntity
  8
@__WIDOCZNE
  6
Continuous
370
    13
100
AcDbHatch
 10
0.0
 20
0.0
 30
0.0
210
0.0
220
0.0
230
1.0
  2
__Bloczki_ceramiczne_0002
 70
     0
 71
     0
 91
        1
 92
        2
 72
     0
 73
     1
 93
        8
 10
-2074.308624712391
 20
190.0000000000483
 10
-2074.308624712391
 20
263.7272727273209
 10
-2024.30862471239
 20
263.7272727273209
 10
-2024.30862471239
 20
392.7272727273209
 10
-1943.931664634893
 20
392.7272727273209
 10
-1884.12014467364
 20
442.727272727321
 10
-1789.120144673641
 20
442.727272727321
 10
-1789.120144673641
 20
190.0000000000483
 97
        0
 75
     0
 76
     2
 52
0.0
 41
1.0
 77
     0
 78
     1
 53
45.0
 43
0.0
 44
0.0
 45
-12.72792172418307
 46
12.72792172418307
 79
     0
 98
        0
  0
HATCH
  5
CB
330
1F
100
AcDbEntity
  8
0
  6
Continuous
370
    13
100
AcDbHatch
 10
0.0
 20
0.0
 30
0.0
210
0.0
220
0.0
230
1.0
  2
Płyty_kamienne_0002
 70
     0
 71
     0
 91
        1
 92
        2
 72
     0
 73
     1
 93
        4
 10
-1230.093570755575
 20
474.727272727321
 10
-1769.120144673642
 20
474.727272727321
 10
-1769.120144673642
 20
458.727272727321
 10
-1230.093570755575
 20
458.727272727321
 97
        0
 75
     0
 76
     2
 52
0.0
 41
1.0
 77
     0
 78
     2
 53
45.0
 43
0.0
 44
35.0
 45
-11.13693180368812
 46
11.13693180368812
 79
     4
 49
0.0
 49
-10.5
 49
0.0
 49
-15.75
 53
110.0
 43
35.0
 44
35.0
 45
14.80015877737805
 46
5.386817257379289
 79
     4
 49
0.0
 49
-7.699999999999999
 49
0.0
 49
-13.3
 98
        0
  0
HATCH
  5
CC
330
1F
100
AcDbEntity
  8
0
  6
Continuous
370
    13
100
AcDbHatch
 10
0.0
 20
0.0
 30
0.0
210
0.0
220
0.0
230
1.0
  2
Płyty_kamienne_0002
 70
     0
 71
     0
 91
        1
 92
        2
 72
     0
 73
     1
 93
        4
 10
-920.0935707555744
 20
474.727272727321
 10
-1210.093570755575
 20
474.727272727321
 10
-1210.093570755575
 20
458.727272727321
 10
-920.0935707555744
 20
458.727272727321
 97
        0
 75
     0
 76
     2
 52
0.0
 41
1.0
 77
     0
 78
     2
 53
45.0
 43
0.0
 44
35.0
 45
-11.13693180368812
 46
11.13693180368812
 79
     4
 49
0.0
 49
-10.5
 49
0.0
 49
-15.75
 53
110.0
 43
35.0
 44
35.0
 45
14.80015877737805
 46
5.386817257379289
 79
     4
 49
0.0
 49
-7.699999999999999
 49
0.0
 49
-13.3
 98
        0
  0
HATCH
  5
CD
330
1F
100
AcDbEntity
  8
@__WIDOCZNE
  6
Continuous
370
    13
100
AcDbHatch
 10
0.0
 20
0.0
 30
0.0
210
0.0
220
0.0
230
1.0
  2
__Bloczki_ceramiczne_0002
 70
     0
 71
     0
 91
        1
 92
        2
 72
     0
 73
     1
 93
        4
 10
-1769.120144673642
 20
190.0000000000483
 10
-1230.093570755575
 20
190.0000000000483
 10
-1230.093570755575
 20
442.727272727321
 10
-1769.120144673642
 20
442.727272727321
 97
        0
 75
     0
 76
     2
 52
0.0
 41
1.0
 77
     0
 78
     1
 53
45.0
 43
0.0
 44
0.0
 45
-12.72792172418307
 46
12.72792172418307
 79
     0
 98
        0
  0
HATCH
  5
CE
330
1F
100
AcDbEntity
  8
@__WIDOCZNE
  6
Continuous
370
    13
100
AcDbHatch
 10
0.0
 20
0.0
 30
0.0
210
0.0
220
0.0
230
1.0
  2
__Bloczki_ceramiczne_0002
 70
     0
 71
     0
 91
        1
 92
        2
 72
     0
 73
     1
 93
        4
 10
-1210.093570755575
 20
190.0000000000483
 10
-920.0935707555744
 20
190.0000000000483
 10
-920.0935707555744
 20
442.727272727321
 10
-1210.093570755575
 20
442.727272727321
 97
        0
 75
     0
 76
     2
 52
0.0
 41
1.0
 77
     0
 78
     1
 53
45.0
 43
0.0
 44
0.0
 45
-12.72792172418307
 46
12.72792172418307
 79
     0
 98
        0
  0
HATCH
  5
CF
330
1F
100
AcDbEntity
  8
0
  6
Continuous
370
    13
100
AcDbHatch
 10
0.0
 20
0.0
 30
0.0
210
0.0
220
0.0
230
1.0
  2
Płyty_kamienne_0002
 70
     0
 71
     0
 91
        1
 92
        2
 72
     0
 73
     1
 93
        4
 10
-590.0935707555743
 20
474.7272727273212
 10
-900.0935707555749
 20
474.727272727321
 10
-900.0935707555749
 20
458.727272727321
 10
-590.0935707555743
 20
458.7272727273212
 97
        0
 75
     0
 76
     2
 52
0.0
 41
1.0
 77
     0
 78
     2
 53
45.0
 43
0.0
 44
35.0
 45
-11.13693180368812
 46
11.13693180368812
 79
     4
 49
0.0
 49
-10.5
 49
0.0
 49
-15.75
 53
110.0
 43
35.0
 44
35.0
 45
14.80015877737805
 46
5.386817257379289
 79
     4
 49
0.0
 49
-7.699999999999999
 49
0.0
 49
-13.3
 98
        0
  0
HATCH
  5
D0
330
1F
100
AcDbEntity
  8
@__WIDOCZNE
  6
Continuous
370
    13
100
AcDbHatch
 10
0.0
 20
0.0
 30
0.0
210
0.0
220
0.0
230
1.0
  2
__Bloczki_ceramiczne_0002
 70
     0
 71
     0
 91
        1
 92
        2
 72
     0
 73
     1
 93
        4
 10
-900.0935707555749
 20
190.0000000000483
 10
-590.0935707555743
 20
190.0000000000485
 10
-590.0935707555743
 20
442.7272727273212
 10
-900.0935707555749
 20
442.727272727321
 97
        0
 75
     0
 76
     2
 52
0.0
 41
1.0
 77
     0
 78
     1
 53
45.0
 43
0.0
 44
0.0
 45
-12.72792172418307
 46
12.72792172418307
 79
     0
 98
        0
  0
HATCH
  5
D1
330
1F
100
AcDbEntity
  8
0
  6
Continuous
370
    13
100
AcDbHatch
 10
0.0
 20
0.0
 30
0.0
210
0.0
220
0.0
230
1.0
  2
Płyty_kamienne_0002
 70
     0
 71
     0
 91
        1
 92
        2
 72
     0
 73
     1
 93
        4
 10
-2469.120144673641
 20
474.7272727273208
 10
-2469.120144673641
 20
458.7272727273208
 10
-2209.120144673641
 20
458.727272727321
 10
-2209.120144673641
 20
474.727272727321
 97
        0
 75
     0
 76
     2
 52
0.0
 41
1.0
 77
     0
 78
     2
 53
45.0
 43
0.0
 44
35.0
 45
-11.13693180368812
 46
11.13693180368812
 79
     4
 49
0.0
 49
-10.5
 49
0.0
 49
-15.75
 53
110.0
 43
35.0
 44
35.0
 45
14.80015877737805
 46
5.386817257379289
 79
     4
 49
0.0
 49
-7.699999999999999
 49
0.0
 49
-13.3
 98
        0
  0
HATCH
  5
D2
330
1F
100
AcDbEntity
  8
@__WIDOCZNE
  6
Continuous
370
    13
100
AcDbHatch
 10
0.0
 20
0.0
 30
0.0
210
0.0
220
0.0
230
1.0
  2
__Bloczki_ceramiczne_0002
 70
     0
 71
     0
 91
        1
 92
        2
 72
     0
 73
     1
 93
        8
 10
-2469.120144673641
 20
442.727272727321
 10
-2354.12014467364
 20
442.727272727321
 10
-2294.30862471239
 20
392.7272727273209
 10
-2213.931664634892
 20
392.7272727273209
 10
-2213.931664634892
 20
263.7272727273209
 10
-2163.931664634892
 20
263.7272727273209
 10
-2163.931664634892
 20
190.0000000000483
 10
-2469.120144673641
 20
190.0000000000483
 97
        0
 75
     0
 76
     2
 52
0.0
 41
1.0
 77
     0
 78
     1
 53
45.0
 43
0.0
 44
0.0
 45
-12.72792172418307
 46
12.72792172418307
 79
     0
 98
        0
  0
HATCH
  5
D3
330
1F
100
AcDbEntity
  8
@__WIDOCZNE
  6
Continuous
370
    13
100
AcDbHatch
 10
0.0
 20
0.0
 30
0.0
210
0.0
220
0.0
230
1.0
  2
__Bloczki_ceramiczne_0002
 70
     0
 71
     0
 91
        1
 92
        2
 72
     0
 73
     1
 93
        6
 10
-2489.12014467364
 20
442.727272727321
 10
-2489.12014467364
 20
190.0000000000483
 10
-2899.12014467364
 20
190.0000000000483
 10
-2899.12014467364
 20
979.7272727273221
 10
-2805.934140990397
 20
979.7272727273221
 10
-2805.934140990397
 20
442.727272727321
 97
        0
 75
     0
 76
     2
 52
0.0
 41
1.0
 77
     0
 78
     1
 53
45.0
 43
0.0
 44
0.0
 45
-12.72792172418307
 46
12.72792172418307
 79
     0
 98
        0
  0
HATCH
  5
D4
330
1F
100
AcDbEntity
  8
0
  6
Continuous
370
    13
100
AcDbHatch
 10
0.0
 20
0.0
 30
0.0
210
0.0
220
0.0
230
1.0
  2
Płyty_kamienne_0002
 70
     0
 71
     0
 91
        1
 92
        2
 72
     0
 73
     1
 93
        4
 10
-2773.934140990397
 20
1730.000000000049
 10
-2789.934140990397
 20
1730.000000000049
 10
-2789.934140990397
 20
1019.727272727322
 10
-2773.934140990397
 20
1019.727272727322
 97
        0
 75
     0
 76
     2
 52
0.0
 41
1.0
 77
     0
 78
     2
 53
45.0
 43
0.0
 44
35.0
 45
-11.13693180368812
 46
11.13693180368812
 79
     4
 49
0.0
 49
-10.5
 49
0.0
 49
-15.75
 53
110.0
 43
35.0
 44
35.0
 45
14.80015877737805
 46
5.386817257379289
 79
     4
 49
0.0
 49
-7.699999999999999
 49
0.0
 49
-13.3
 98
        0
  0
HATCH
  5
D5
330
1F
100
AcDbEntity
  8
@__WIDOCZNE
  6
Continuous
370
    13
100
AcDbHatch
 10
0.0
 20
0.0
 30
0.0
210
0.0
220
0.0
230
1.0
  2
__Bloczki_ceramiczne_0002
 70
     0
 71
     0
 91
        1
 92
        2
 72
     0
 73
     1
 93
        4
 10
-2805.934140990397
 20
1019.727272727322
 10
-2899.12014467364
 20
1019.727272727322
 10
-2899.12014467364
 20
1730.000000000049
 10
-2805.934140990397
 20
1730.000000000049
 97
        0
 75
     0
 76
     2
 52
0.0
 41
1.0
 77
     0
 78
     1
 53
45.0
 43
0.0
 44
0.0
 45
-12.72792172418307
 46
12.72792172418307
 79
     0
 98
        0
  0
HATCH
  5
D6
330
1F
100
AcDbEntity
  8
0
  6
Continuous
370
    13
100
AcDbHatch
 10
0.0
 20
0.0
 30
0.0
210
0.0
220
0.0
230
1.0
  2
Płyty_kamienne_0002
 70
     0
 71
     0
 91
        1
 92
        2
 72
     0
 73
     1
 93
        5
 10
-2789.934140990397
 20
458.727272727321
 10
-2743.934140990398
 20
474.727272727321
 10
-2773.934140990397
 20
504.7272727273209
 10
-2773.934140990397
 20
979.7272727273221
 10
-2789.934140990397
 20
979.7272727273221
 97
        0
 75
     0
 76
     2
 52
0.0
 41
1.0
 77
     0
 78
     2
 53
45.0
 43
0.0
 44
35.0
 45
-11.13693180368812
 46
11.13693180368812
 79
     4
 49
0.0
 49
-10.5
 49
0.0
 49
-15.75
 53
110.0
 43
35.0
 44
35.0
 45
14.80015877737805
 46
5.386817257379289
 79
     4
 49
0.0
 49
-7.699999999999999
 49
0.0
 49
-13.3
 98
        0
  0
HATCH
  5
D7
330
1F
100
AcDbEntity
  8
0
  6
Continuous
370
    13
100
AcDbHatch
 10
0.0
 20
0.0
 30
0.0
210
0.0
220
0.0
230
1.0
  2
Płyty_kamienne_0002
 70
     0
 71
     0
 91
        1
 92
        2
 72
     0
 73
     1
 93
        4
 10
-2743.934140990398
 20
474.727272727321
 10
-2489.12014467364
 20
474.7272727273208
 10
-2489.12014467364
 20
458.7272727273208
 10
-2789.934140990397
 20
458.727272727321
 97
        0
 75
     0
 76
     2
 52
0.0
 41
1.0
 77
     0
 78
     2
 53
45.0
 43
0.0
 44
35.0
 45
-11.13693180368812
 46
11.13693180368812
 79
     4
 49
0.0
 49
-10.5
 49
0.0
 49
-15.75
 53
110.0
 43
35.0
 44
35.0
 45
14.80015877737805
 46
5.386817257379289
 79
     4
 49
0.0
 49
-7.699999999999999
 49
0.0
 49
-13.3
 98
        0
  0
HATCH
  5
D8
330
1F
100
AcDbEntity
  8
0
  6
Continuous
370
    13
100
AcDbHatch
 10
0.0
 20
0.0
 30
0.0
210
0.0
220
0.0
230
1.0
  2
Płyty_kamienne_0002
 70
     0
 71
     0
 91
        1
 92
        2
 72
     0
 73
     1
 93
        4
 10
-315.093570755574
 20
474.7272727273207
 10
-570.0935707555748
 20
474.7272727273208
 10
-570.0935707555748
 20
458.7272727273208
 10
-269.0935707555746
 20
458.7272727273207
 97
        0
 75
     0
 76
     2
 52
0.0
 41
1.0
 77
     0
 78
     2
 53
45.0
 43
0.0
 44
35.0
 45
-11.13693180368812
 46
11.13693180368812
 79
     4
 49
0.0
 49
-10.5
 49
0.0
 49
-15.75
 53
110.0
 43
35.0
 44
35.0
 45
14.80015877737805
 46
5.386817257379289
 79
     4
 49
0.0
 49
-7.699999999999999
 49
0.0
 49
-13.3
 98
        0
  0
HATCH
  5
D9
330
1F
100
AcDbEntity
  8
@__WIDOCZNE
  6
Continuous
370
    13
100
AcDbHatch
 10
0.0
 20
0.0
 30
0.0
210
0.0
220
0.0
230
1.0
  2
__Bloczki_ceramiczne_0002
 70
     0
 71
     0
 91
        1
 92
        2
 72
     0
 73
     1
 93
        6
 10
-570.0935707555748
 20
442.7272727273208
 10
-570.0935707555748
 20
190.0000000000484
 10
-159.9075670723313
 20
190.0000000000483
 10
-159.9075670723313
 20
899.7272727273216
 10
-253.0935707555746
 20
899.7272727273216
 10
-253.0935707555746
 20
442.7272727273207
 97
        0
 75
     0
 76
     2
 52
0.0
 41
1.0
 77
     0
 78
     1
 53
45.0
 43
0.0
 44
0.0
 45
-12.72792172418307
 46
12.72792172418307
 79
     0
 98
        0
  0
HATCH
  5
DA
330
1F
100
AcDbEntity
  8
@__WIDOCZNE
  6
Continuous
370
    13
100
AcDbHatch
 10
0.0
 20
0.0
 30
0.0
210
0.0
220
0.0
230
1.0
  2
__Bloczki_ceramiczne_0002
 70
     0
 71
     0
 91
        1
 92
        2
 72
     0
 73
     1
 93
        4
 10
-253.0935707555746
 20
999.7272727273219
 10
-159.9075670723313
 20
999.7272727273219
 10
-159.9075670723313
 20
1730.000000000049
 10
-253.0935707555746
 20
1730.000000000049
 97
        0
 75
     0
 76
     2
 52
0.0
 41
1.0
 77
     0
 78
     1
 53
45.0
 43
0.0
 44
0.0
 45
-12.72792172418307
 46
12.72792172418307
 79
     0
 98
        0
  0
HATCH
  5
DB
330
1F
100
AcDbEntity
  8
0
  6
Continuous
370
    13
100
AcDbHatch
 10
0.0
 20
0.0
 30
0.0
210
0.0
220
0.0
230
1.0
  2
Płyty_kamienne_0002
 70
     0
 71
     0
 91
        1
 92
        2
 72
     0
 73
     1
 93
        4
 10
-285.0935707555746
 20
1730.000000000049
 10
-269.0935707555746
 20
1730.000000000049
 10
-269.0935707555746
 20
999.7272727273219
 10
-285.0935707555746
 20
999.7272727273219
 97
        0
 75
     0
 76
     2
 52
0.0
 41
1.0
 77
     0
 78
     2
 53
45.0
 43
0.0
 44
35.0
 45
-11.13693180368812
 46
11.13693180368812
 79
     4
 49
0.0
 49
-10.5
 49
0.0
 49
-15.75
 53
110.0
 43
35.0
 44
35.0
 45
14.80015877737805
 46
5.386817257379289
 79
     4
 49
0.0
 49
-7.699999999999999
 49
0.0
 49
-13.3
 98
        0
  0
HATCH
  5
DC
330
1F
100
AcDbEntity
  8
0
  6
Continuous
370
    13
100
AcDbHatch
 10
0.0
 20
0.0
 30
0.0
210
0.0
220
0.0
230
1.0
  2
Płyty_kamienne_0002
 70
     0
 71
     0
 91
        1
 92
        2
 72
     0
 73
     1
 93
        5
 10
-269.0935707555746
 20
458.7272727273207
 10
-315.093570755574
 20
474.7272727273207
 10
-285.0935707555746
 20
504.7272727273208
 10
-285.0935707555746
 20
899.7272727273216
 10
-269.0935707555746
 20
899.7272727273216
 97
        0
 75
     0
 76
     2
 52
0.0
 41
1.0
 77
     0
 78
     2
 53
45.0
 43
0.0
 44
35.0
 45
-11.13693180368812
 46
11.13693180368812
 79
     4
 49
0.0
 49
-10.5
 49
0.0
 49
-15.75
 53
110.0
 43
35.0
 44
35.0
 45
14.80015877737805
 46
5.386817257379289
 79
     4
 49
0.0
 49
-7.699999999999999
 49
0.0
 49
-13.3
 98
        0
  0
HATCH
  5
DD
330
1F
100
AcDbEntity
  8
@__WIDOCZNE
  6
Continuous
 62
   142
370
    13
100
AcDbHatch
 10
0.0
 20
0.0
 30
0.0
210
0.0
220
0.0
230
1.0
  2
SOLID
 70
     1
 71
     1
 91
        1
 92
        2
 72
     1
 73
     1
 93
        6
 10
-1390.001988959779
 20
126.8504469130155
 42
0.0
 10
-1390.001988959779
 20
151.4286692887564
 42
0.0
 10
-1414.580211335519
 20
151.4286692887564
 42
0.414213562373095
 10
-1444.074078186408
 20
121.934802437868
 42
0.0
 10
-1444.074078186408
 20
97.35658006212711
 42
0.0
 10
-1419.495855810667
 20
97.35658006212711
 42
0.414213562373095
 97
        1
330
DE
 75
     0
 76
     1
 98
        0
  0
LWPOLYLINE
  5
DE
102
{ACAD_REACTORS
330
DD
102
}
330
1F
100
AcDbEntity
  8
@__WIDOCZNE
  6
Continuous
 62
   142
370
    13
100
AcDbPolyline
 90
        6
 70
   129
 43
0.0
 10
-1390.001988959779
 20
126.8504469130155
 10
-1390.001988959779
 20
151.4286692887564
 10
-1414.580211335519
 20
151.4286692887564
 42
0.414213562373095
 10
-1444.074078186408
 20
121.934802437868
 10
-1444.074078186408
 20
97.35658006212711
 10
-1419.495855810667
 20
97.35658006212711
 42
0.414213562373095
  0
HATCH
  5
DF
330
1F
100
AcDbEntity
  8
@__WIDOCZNE
  6
Continuous
370
    13
100
AcDbHatch
 10
0.0
 20
0.0
 30
0.0
210
0.0
220
0.0
230
1.0
  2
SOLID
 70
     1
 71
     1
 91
        3
 92
        2
 72
     1
 73
     1
 93
        8
 10
-1844.608978596282
 20
98.17160218242849
 42
0.0723831287448308
 10
-1880.28088407882
 20
97.86745364507021
 42
0.0
 10
-1880.28088407882
 20
29.23677016493131
 42
0.0475754375093521
 10
-1860.990466674004
 20
27.13299178154693
 42
0.0
 10
-1858.221006603585
 20
27.13299178154693
 42
0.0201526900432898
 10
-1849.997920159003
 20
27.5762305599242
 42
0.1117820670402823
 10
-1832.464957954869
 20
33.11478249312161
 42
0.5989391739264164
 10
-1838.28383134213
 20
65.99085353969991
 42
0.7144612958116017
 97
        1
330
E0
 92
        2
 72
     1
 73
     1
 93
        4
 10
-1867.446624370926
 20
70.06012219255398
 42
0.018587651104709
 10
-1849.850094396118
 20
70.07706525553326
 42
0.8637728306683231
 10
-1850.363184084069
 20
88.35761407340337
 42
0.0363046036528515
 10
-1867.446624370926
 20
88.35761407340337
 42
0.0
 97
        1
330
E1
 92
        2
 72
     1
 73
     1
 93
        4
 10
-1867.24821365328
 20
38.3074699314564
 42
0.0570602598095221
 10
-1849.10729936985
 20
38.48254307002586
 42
0.9504624262000833
 10
-1849.29759365642
 20
59.81352673927931
 42
0.0333151677067815
 10
-1867.24821365328
 20
59.81352673927931
 42
0.0
 97
        1
330
E2
 75
     0
 76
     1
 98
        0
  0
LWPOLYLINE
  5
E0
102
{ACAD_REACTORS
330
DF
102
}
330
1F
100
AcDbEntity
  8
@__WIDOCZNE
  6
Continuous
370
    13
100
AcDbPolyline
 90
        8
 70
   129
 43
0.0
 10
-1844.608978596282
 20
98.17160218242849
 42
0.0723831287448308
 10
-1880.28088407882
 20
97.86745364507021
 10
-1880.28088407882
 20
29.23677016493131
 42
0.0475754375093521
 10
-1860.990466674004
 20
27.13299178154693
 10
-1858.221006603585
 20
27.13299178154693
 42
0.0201526900432898
 10
-1849.997920159003
 20
27.5762305599242
 42
0.1117820670402823
 10
-1832.464957954869
 20
33.11478249312161
 42
0.5989391739264164
 10
-1838.28383134213
 20
65.99085353969991
 42
0.7144612958116017
  0
LWPOLYLINE
  5
E1
102
{ACAD_REACTORS
330
DF
102
}
330
1F
100
AcDbEntity
  8
@__WIDOCZNE
  6
Continuous
370
    13
100
AcDbPolyline
 90
        4
 70
   129
 43
0.0
 10
-1867.446624370926
 20
70.06012219255398
 42
0.018587651104709
 10
-1849.850094396118
 20
70.07706525553326
 42
0.8637728306683231
 10
-1850.363184084069
 20
88.35761407340337
 42
0.0363046036528515
 10
-1867.446624370926
 20
88.35761407340337
  0
LWPOLYLINE
  5
E2
102
{ACAD_REACTORS
330
DF
102
}
330
1F
100
AcDbEntity
  8
@__WIDOCZNE
  6
Continuous
370
    13
100
AcDbPolyline
 90
        4
 70
   129
 43
0.0
 10
-1867.24821365328
 20
38.3074699314564
 42
0.0570602598095221
 10
-1849.10729936985
 20
38.48254307002586
 42
0.9504624262000833
 10
-1849.29759365642
 20
59.81352673927931
 42
0.0333151677067815
 10
-1867.24821365328
 20
59.81352673927931
  0
HATCH
  5
E3
330
1F
100
AcDbEntity
  8
@__WIDOCZNE
  6
Continuous
370
    13
100
AcDbHatch
 10
0.0
 20
0.0
 30
0.0
210
0.0
220
0.0
230
1.0
  2
SOLID
 70
     1
 71
     1
 91
        1
 92
        2
 72
     1
 73
     1
 93
       12
 10
-1729.402714440353
 20
82.4614255429198
 42
0.0
 10
-1745.324133915823
 20
82.4614255429198
 42
0.0
 10
-1745.324133915823
 20
97.94723417838946
 42
0.0
 10
-1757.603398609321
 20
95.44975661360888
 42
0.0
 10
-1757.603398609321
 20
44.39724550147284
 42
0.3686923280690939
 10
-1740.339247767858
 20
27.19259236236782
 42
0.0
 10
-1727.8927556222
 20
27.23556106484659
 42
0.0
 10
-1725.240251832387
 20
38.84026514527628
 42
0.0
 10
-1737.9506672031
 20
38.84026514527628
 42
-0.3159610186060354
 10
-1745.324133915823
 20
46.21373185799926
 42
0.0
 10
-1745.324133915823
 20
70.99528879181116
 42
0.0
 10
-1729.402714440353
 20
70.99528879181116
 42
0.0
 97
        1
330
E4
 75
     0
 76
     1
 98
        0
  0
LWPOLYLINE
  5
E4
102
{ACAD_REACTORS
330
E3
102
}
330
1F
100
AcDbEntity
  8
@__WIDOCZNE
  6
Continuous
370
    13
100
AcDbPolyline
 90
       12
 70
   129
 43
0.0
 10
-1729.402714440353
 20
82.4614255429198
 10
-1745.324133915823
 20
82.4614255429198
 10
-1745.324133915823
 20
97.94723417838946
 10
-1757.603398609321
 20
95.44975661360888
 10
-1757.603398609321
 20
44.39724550147284
 42
0.3686923280690939
 10
-1740.339247767858
 20
27.19259236236782
 10
-1727.8927556222
 20
27.23556106484659
 10
-1725.240251832387
 20
38.84026514527628
 10
-1737.9506672031
 20
38.84026514527628
 42
-0.3159610186060354
 10
-1745.324133915823
 20
46.21373185799926
 10
-1745.324133915823
 20
70.99528879181116
 10
-1729.402714440353
 20
70.99528879181116
  0
HATCH
  5
E5
330
1F
100
AcDbEntity
  8
@__WIDOCZNE
  6
Continuous
370
    13
100
AcDbHatch
 10
0.0
 20
0.0
 30
0.0
210
0.0
220
0.0
230
1.0
  2
SOLID
 70
     1
 71
     1
 91
        2
 92
        2
 72
     1
 73
     1
 93
       14
 10
-1695.3789455291
 20
70.66086091922175
 42
-0.387209016979461
 10
-1687.643449429521
 20
62.54443689004619
 42
0.0
 10
-1687.574328139165
 20
59.4742426603142
 42
0.1185067504646354
 10
-1705.348438172614
 20
59.63436427995761
 42
0.2642193030162518
 10
-1718.06555020485
 20
49.53992440696042
 42
0.1757337626801403
 10
-1718.08092676935
 20
38.3625534610571
 42
0.2604621029539542
 10
-1705.804478884279
 20
27.44278968914971
 42
0.0083652857947627
 10
-1702.260288367389
 20
27.13299178154693
 42
0.0
 10
-1687.288899371302
 20
27.13299178154693
 42
0.028992295246684
 10
-1675.069614284331
 20
28.71095824822889
 42
0.0
 10
-1675.696508768819
 20
63.37655135528253
 42
0.4278697545607686
 10
-1693.114318429094
 20
81.77590655045408
 42
0.0
 10
-1710.567750622467
 20
81.8491757142853
 42
0.0
 10
-1713.329565525953
 20
70.66086091922175
 42
0.0
 97
        1
330
E6
 92
        2
 72
     1
 73
     1
 93
        6
 10
-1687.464524662339
 20
50.96945970801892
 42
0.1273826308893613
 10
-1701.046762368479
 20
51.31906204537218
 42
0.2091253650713026
 10
-1706.414701844473
 20
46.22346481611517
 42
0.067218802794298
 10
-1706.351643396481
 20
42.31592620882851
 42
0.2977682718343915
 10
-1700.831290205443
 20
36.64088600748927
 42
0.0710664823309622
 10
-1687.464524662339
 20
36.66701657445815
 42
0.0
 97
        1
330
E7
 75
     0
 76
     1
 98
        0
  0
LWPOLYLINE
  5
E6
102
{ACAD_REACTORS
330
E5
102
}
330
1F
100
AcDbEntity
  8
@__WIDOCZNE
  6
Continuous
370
    13
100
AcDbPolyline
 90
       14
 70
   129
 43
0.0
 10
-1695.3789455291
 20
70.66086091922175
 42
-0.387209016979461
 10
-1687.643449429521
 20
62.54443689004619
 10
-1687.574328139165
 20
59.4742426603142
 42
0.1185067504646354
 10
-1705.348438172614
 20
59.63436427995761
 42
0.2642193030162518
 10
-1718.06555020485
 20
49.53992440696042
 42
0.1757337626801403
 10
-1718.08092676935
 20
38.3625534610571
 42
0.2604621029539542
 10
-1705.804478884279
 20
27.44278968914971
 42
0.0083652857947627
 10
-1702.260288367389
 20
27.13299178154693
 10
-1687.288899371302
 20
27.13299178154693
 42
0.028992295246684
 10
-1675.069614284331
 20
28.71095824822889
 10
-1675.696508768819
 20
63.37655135528253
 42
0.4278697545607686
 10
-1693.114318429094
 20
81.77590655045408
 10
-1710.567750622467
 20
81.8491757142853
 10
-1713.329565525953
 20
70.66086091922175
  0
LWPOLYLINE
  5
E7
102
{ACAD_REACTORS
330
E5
102
}
330
1F
100
AcDbEntity
  8
@__WIDOCZNE
  6
Continuous
370
    13
100
AcDbPolyline
 90
        6
 70
   129
 43
0.0
 10
-1687.464524662339
 20
50.96945970801892
 42
0.1273826308893613
 10
-1701.046762368479
 20
51.31906204537218
 42
0.2091253650713026
 10
-1706.414701844473
 20
46.22346481611517
 42
0.067218802794298
 10
-1706.351643396481
 20
42.31592620882851
 42
0.2977682718343915
 10
-1700.831290205443
 20
36.64088600748927
 42
0.0710664823309622
 10
-1687.464524662339
 20
36.66701657445815
  0
HATCH
  5
E8
330
1F
100
AcDbEntity
  8
@__WIDOCZNE
  6
Continuous
370
    13
100
AcDbHatch
 10
0.0
 20
0.0
 30
0.0
210
0.0
220
0.0
230
1.0
  2
SOLID
 70
     1
 71
     1
 91
        1
 92
        2
 72
     1
 73
     1
 93
       26
 10
-1654.198388356059
 20
82.02766150019991
 42
0.0863077155126181
 10
-1665.782746252365
 20
79.18917737236464
 42
0.0
 10
-1665.782746252365
 20
27.13299178154693
 42
0.0
 10
-1652.785044452873
 20
27.13299178154693
 42
0.0
 10
-1652.785044452873
 20
70.71945709420413
 42
-0.12168371550613
 10
-1643.122265044085
 20
71.67188779263378
 42
-0.3861329478031837
 10
-1635.237625678547
 20
62.48921307251487
 42
0.0
 10
-1635.237625678547
 20
27.13299178154693
 42
0.0
 10
-1622.750237854651
 20
27.13299178154693
 42
0.0
 10
-1622.932143332362
 20
61.33512567383492
 42
0.0
 10
-1622.750237854651
 20
61.33887699108998
 42
0.0799288732000265
 10
-1624.003794302096
 20
68.4435360548713
 42
0.0
 10
-1622.739100694243
 20
69.2256500031968
 42
-0.1916235362829357
 10
-1611.562754209819
 20
71.40103683998989
 42
-0.3589776600930252
 10
-1604.783409795383
 20
63.29313384576929
 42
0.0
 10
-1604.777166722119
 20
27.13299178154693
 42
0.0
 10
-1592.868830936648
 20
27.13299178154693
 42
0.0
 10
-1592.874123468114
 20
65.80101979724462
 42
0.3475935087177212
 10
-1607.366660587493
 20
82.4614255429198
 42
0.0
 10
-1617.170892658584
 20
82.4614255429198
 42
0.0002381544695914
 10
-1617.238346976839
 20
82.45667841114768
 42
0.1173548723086789
 10
-1623.239100482952
 20
80.7219842170065
 42
0.1053500657717058
 10
-1629.449964777999
 20
76.81925925311306
 42
0.1560368886834541
 10
-1638.651553086051
 20
82.1394817433555
 42
0.0158994515272265
 10
-1643.078612422226
 20
82.4614255429198
 42
0.0
 10
-1648.773361816882
 20
82.4614255429198
 42
0.0194967579096993
 97
        1
330
E9
 75
     0
 76
     1
 98
        0
  0
LWPOLYLINE
  5
E9
102
{ACAD_REACTORS
330
E8
102
}
330
1F
100
AcDbEntity
  8
@__WIDOCZNE
  6
Continuous
370
    13
100
AcDbPolyline
 90
       26
 70
   129
 43
0.0
 10
-1654.198388356059
 20
82.02766150019991
 42
0.0863077155126181
 10
-1665.782746252365
 20
79.18917737236464
 10
-1665.782746252365
 20
27.13299178154693
 10
-1652.785044452873
 20
27.13299178154693
 10
-1652.785044452873
 20
70.71945709420413
 42
-0.12168371550613
 10
-1643.122265044085
 20
71.67188779263378
 42
-0.3861329478031837
 10
-1635.237625678547
 20
62.48921307251487
 10
-1635.237625678547
 20
27.13299178154693
 10
-1622.750237854651
 20
27.13299178154693
 10
-1622.932143332362
 20
61.33512567383492
 10
-1622.750237854651
 20
61.33887699108998
 42
0.0799288732000265
 10
-1624.003794302096
 20
68.4435360548713
 10
-1622.739100694243
 20
69.2256500031968
 42
-0.1916235362829357
 10
-1611.562754209819
 20
71.40103683998989
 42
-0.3589776600930252
 10
-1604.783409795383
 20
63.29313384576929
 10
-1604.777166722119
 20
27.13299178154693
 10
-1592.868830936648
 20
27.13299178154693
 10
-1592.874123468114
 20
65.80101979724462
 42
0.3475935087177212
 10
-1607.366660587493
 20
82.4614255429198
 10
-1617.170892658584
 20
82.4614255429198
 42
0.0002381544695914
 10
-1617.238346976839
 20
82.45667841114768
 42
0.1173548723086789
 10
-1623.239100482952
 20
80.7219842170065
 42
0.1053500657717058
 10
-1629.449964777999
 20
76.81925925311306
 42
0.1560368886834541
 10
-1638.651553086051
 20
82.1394817433555
 42
0.0158994515272265
 10
-1643.078612422226
 20
82.4614255429198
 10
-1648.773361816882
 20
82.4614255429198
 42
0.0194967579096993
  0
HATCH
  5
EA
330
1F
100
AcDbEntity
  8
@__WIDOCZNE
  6
Continuous
370
    13
100
AcDbHatch
 10
0.0
 20
0.0
 30
0.0
210
0.0
220
0.0
230
1.0
  2
SOLID
 70
     1
 71
     1
 91
        2
 92
        2
 72
     1
 73
     1
 93
       14
 10
-1564.164290039887
 20
81.21627504992668
 42
0.2809658966461606
 10
-1582.559778033168
 20
62.18583720874393
 42
0.1091159824470767
 10
-1582.545983001007
 20
45.21703033520497
 42
0.2766399819923606
 10
-1564.06607851207
 20
27.87418971143241
 42
0.0392105095801167
 10
-1558.998548032042
 20
27.15518527716421
 42
0.0
 10
-1541.383049920677
 20
27.13299178154693
 42
0.0
 10
-1539.184423721292
 20
38.00747491090151
 42
0.0
 10
-1557.58646827303
 20
38.00747491090151
 42
-0.1667294674755062
 10
-1565.564314677562
 20
40.74382612457705
 42
-0.081638462027361
 10
-1569.66203592779
 20
46.01357122047689
 42
-0.0661503038161424
 10
-1570.215334957396
 20
49.55237964899462
 42
0.0
 10
-1535.042525920085
 20
49.55237964899462
 42
0.0
 10
-1535.042525920085
 20
60.7910286905019
 42
0.3105787245802772
 10
-1551.826375948879
 20
81.24375079517543
 42
0.1083142208160692
 97
        1
330
EB
 92
        2
 72
     1
 73
     1
 93
        5
 10
-1555.16081319632
 20
71.8499139830312
 42
0.1431069476368757
 10
-1561.105556534388
 20
72.06086934777589
 42
0.3279495498710064
 10
-1570.210690757098
 20
59.65105365195578
 42
0.0
 10
-1546.837795763098
 20
59.65105365195578
 42
0.0
 10
-1546.837795763098
 20
60.60662794126992
 42
0.3298596086471468
 97
        1
330
EC
 75
     0
 76
     1
 98
        0
  0
LWPOLYLINE
  5
EB
102
{ACAD_REACTORS
330
EA
102
}
330
1F
100
AcDbEntity
  8
@__WIDOCZNE
  6
Continuous
370
    13
100
AcDbPolyline
 90
       14
 70
   129
 43
0.0
 10
-1564.164290039887
 20
81.21627504992668
 42
0.2809658966461606
 10
-1582.559778033168
 20
62.18583720874393
 42
0.1091159824470767
 10
-1582.545983001007
 20
45.21703033520497
 42
0.2766399819923606
 10
-1564.06607851207
 20
27.87418971143241
 42
0.0392105095801167
 10
-1558.998548032042
 20
27.15518527716421
 10
-1541.383049920677
 20
27.13299178154693
 10
-1539.184423721292
 20
38.00747491090151
 10
-1557.58646827303
 20
38.00747491090151
 42
-0.1667294674755062
 10
-1565.564314677562
 20
40.74382612457705
 42
-0.081638462027361
 10
-1569.66203592779
 20
46.01357122047689
 42
-0.0661503038161424
 10
-1570.215334957396
 20
49.55237964899462
 10
-1535.042525920085
 20
49.55237964899462
 10
-1535.042525920085
 20
60.7910286905019
 42
0.3105787245802772
 10
-1551.826375948879
 20
81.24375079517543
 42
0.1083142208160692
  0
LWPOLYLINE
  5
EC
102
{ACAD_REACTORS
330
EA
102
}
330
1F
100
AcDbEntity
  8
@__WIDOCZNE
  6
Continuous
370
    13
100
AcDbPolyline
 90
        5
 70
   129
 43
0.0
 10
-1555.16081319632
 20
71.8499139830312
 42
0.1431069476368757
 10
-1561.105556534388
 20
72.06086934777589
 42
0.3279495498710064
 10
-1570.210690757098
 20
59.65105365195578
 10
-1546.837795763098
 20
59.65105365195578
 10
-1546.837795763098
 20
60.60662794126992
 42
0.3298596086471468
  0
HATCH
  5
ED
330
1F
100
AcDbEntity
  8
@__WIDOCZNE
  6
Continuous
370
    13
100
AcDbHatch
 10
0.0
 20
0.0
 30
0.0
210
0.0
220
0.0
230
1.0
  2
SOLID
 70
     1
 71
     1
 91
        1
 92
        2
 72
     1
 73
     1
 93
       13
 10
-1497.55321862776
 20
82.10470849034601
 42
0.0175531184166386
 10
-1503.169542088179
 20
82.4614255429198
 42
0.0
 10
-1507.711161373805
 20
82.4614255429198
 42
0.0177750747803509
 10
-1513.398296898057
 20
82.09767685201663
 42
0.0683229953867364
 10
-1526.039182683462
 20
79.60409012036018
 42
0.0
 10
-1526.039182683462
 20
27.13299178154693
 42
0.0
 10
-1513.542212098656
 20
27.13299178154693
 42
0.0
 10
-1513.542212098656
 20
70.76393098648504
 42
-0.0958663550348273
 10
-1501.360549851507
 20
71.31944179709693
 42
-0.3633763851128492
 10
-1494.005037242314
 20
62.53478578645166
 42
0.0
 10
-1494.005037242314
 20
27.13299178154693
 42
0.0
 10
-1481.834896717265
 20
27.13299178154693
 42
0.0
 10
-1481.834896717265
 20
64.42796838466458
 42
0.3803017440747632
 97
        1
330
EE
 75
     0
 76
     1
 98
        0
  0
LWPOLYLINE
  5
EE
102
{ACAD_REACTORS
330
ED
102
}
330
1F
100
AcDbEntity
  8
@__WIDOCZNE
  6
Continuous
370
    13
100
AcDbPolyline
 90
       13
 70
   129
 43
0.0
 10
-1497.55321862776
 20
82.10470849034601
 42
0.0175531184166386
 10
-1503.169542088179
 20
82.4614255429198
 10
-1507.711161373805
 20
82.4614255429198
 42
0.0177750747803509
 10
-1513.398296898057
 20
82.09767685201663
 42
0.0683229953867364
 10
-1526.039182683462
 20
79.60409012036018
 10
-1526.039182683462
 20
27.13299178154693
 10
-1513.542212098656
 20
27.13299178154693
 10
-1513.542212098656
 20
70.76393098648504
 42
-0.0958663550348273
 10
-1501.360549851507
 20
71.31944179709693
 42
-0.3633763851128492
 10
-1494.005037242314
 20
62.53478578645166
 10
-1494.005037242314
 20
27.13299178154693
 10
-1481.834896717265
 20
27.13299178154693
 10
-1481.834896717265
 20
64.42796838466458
 42
0.3803017440747632
  0
HATCH
  5
EF
330
1F
100
AcDbEntity
  8
@__WIDOCZNE
  6
Continuous
370
    13
100
AcDbHatch
 10
0.0
 20
0.0
 30
0.0
210
0.0
220
0.0
230
1.0
  2
SOLID
 70
     1
 71
     1
 91
        1
 92
        2
 72
     1
 73
     1
 93
       12
 10
-1472.352887577928
 20
44.39724550147284
 42
0.3564817226562251
 10
-1455.088736736466
 20
27.19259236236782
 42
0.0
 10
-1442.642244590807
 20
27.23556106484659
 42
0.0
 10
-1439.989740800994
 20
38.84026514527628
 42
0.0
 10
-1452.700156171707
 20
38.84026514527628
 42
-0.3014632934563285
 10
-1460.07362288443
 20
46.21373185799926
 42
0.0
 10
-1460.07362288443
 20
70.99528879181116
 42
0.0
 10
-1444.15220340896
 20
70.99528879181116
 42
0.0
 10
-1444.15220340896
 20
82.4614255429198
 42
0.0
 10
-1460.07362288443
 20
82.4614255429198
 42
0.0
 10
-1460.07362288443
 20
97.94723417838946
 42
0.0
 10
-1472.352887577928
 20
95.44975661360888
 42
0.0
 97
        1
330
F0
 75
     0
 76
     1
 98
        0
  0
LWPOLYLINE
  5
F0
102
{ACAD_REACTORS
330
EF
102
}
330
1F
100
AcDbEntity
  8
@__WIDOCZNE
  6
Continuous
370
    13
100
AcDbPolyline
 90
       12
 70
   129
 43
0.0
 10
-1472.352887577928
 20
44.39724550147284
 42
0.3564817226562251
 10
-1455.088736736466
 20
27.19259236236782
 10
-1442.642244590807
 20
27.23556106484659
 10
-1439.989740800994
 20
38.84026514527628
 10
-1452.700156171707
 20
38.84026514527628
 42
-0.3014632934563285
 10
-1460.07362288443
 20
46.21373185799926
 10
-1460.07362288443
 20
70.99528879181116
 10
-1444.15220340896
 20
70.99528879181116
 10
-1444.15220340896
 20
82.4614255429198
 10
-1460.07362288443
 20
82.4614255429198
 10
-1460.07362288443
 20
97.94723417838946
 10
-1472.352887577928
 20
95.44975661360888
  0
HATCH
  5
F1
330
1F
100
AcDbEntity
  8
@__WIDOCZNE
  6
Continuous
370
    13
100
AcDbHatch
 10
0.0
 20
0.0
 30
0.0
210
0.0
220
0.0
230
1.0
  2
SOLID
 70
     1
 71
     1
 91
        2
 92
        2
 72
     1
 73
     1
 93
        9
 10
-1798.353175528995
 20
81.98657770430395
 42
0.2820479307333718
 10
-1817.197331750551
 20
62.93416802434793
 42
0.0886832537999132
 10
-1817.163046105669
 20
45.63402678997031
 42
0.2508564250541997
 10
-1799.731031447562
 20
27.13299178154693
 42
0.0
 10
-1784.71631114513
 20
27.13299178154693
 42
0.2670900430231695
 10
-1767.071162198142
 20
47.31499222260405
 42
0.1207336614180937
 10
-1767.027114476438
 20
62.00365055784773
 42
0.3094451166888095
 10
-1785.711720033064
 20
81.95204277614232
 42
0.0268897328129527
 10
-1789.056832065414
 20
82.4614255429198
 42
0.074328415179198
 97
        1
330
F2
 92
        2
 72
     1
 73
     1
 93
        8
 10
-1804.78995588228
 20
60.32279318309841
 42
0.0948073731652809
 10
-1804.886012577331
 20
49.10403397774077
 42
0.0590800675341869
 10
-1803.794519113382
 20
45.37256301277937
 42
0.6394418664691048
 10
-1780.873453922958
 20
44.67628882882602
 42
0.0835238969854629
 10
-1779.438696118556
 20
49.36979420916055
 42
0.0916297819744675
 10
-1779.666234472563
 20
60.88930344282007
 42
0.2559732989582162
 10
-1788.078277064415
 20
71.31871972145676
 42
0.1954327814670101
 10
-1796.631108014774
 20
70.97018629594787
 42
0.2505066079508973
 97
        1
330
F3
 75
     0
 76
     1
 98
        0
  0
LWPOLYLINE
  5
F2
102
{ACAD_REACTORS
330
F1
102
}
330
1F
100
AcDbEntity
  8
@__WIDOCZNE
  6
Continuous
370
    13
100
AcDbPolyline
 90
        9
 70
   129
 43
0.0
 10
-1798.353175528995
 20
81.98657770430395
 42
0.2820479307333718
 10
-1817.197331750551
 20
62.93416802434793
 42
0.0886832537999132
 10
-1817.163046105669
 20
45.63402678997031
 42
0.2508564250541997
 10
-1799.731031447562
 20
27.13299178154693
 10
-1784.71631114513
 20
27.13299178154693
 42
0.2670900430231695
 10
-1767.071162198142
 20
47.31499222260405
 42
0.1207336614180937
 10
-1767.027114476438
 20
62.00365055784773
 42
0.3094451166888095
 10
-1785.711720033064
 20
81.95204277614232
 42
0.0268897328129527
 10
-1789.056832065414
 20
82.4614255429198
 42
0.074328415179198
  0
LWPOLYLINE
  5
F3
102
{ACAD_REACTORS
330
F1
102
}
330
1F
100
AcDbEntity
  8
@__WIDOCZNE
  6
Continuous
370
    13
100
AcDbPolyline
 90
        8
 70
   129
 43
0.0
 10
-1804.78995588228
 20
60.32279318309841
 42
0.0948073731652809
 10
-1804.886012577331
 20
49.10403397774077
 42
0.0590800675341869
 10
-1803.794519113382
 20
45.37256301277937
 42
0.6394418664691048
 10
-1780.873453922958
 20
44.67628882882602
 42
0.0835238969854629
 10
-1779.438696118556
 20
49.36979420916055
 42
0.0916297819744675
 10
-1779.666234472563
 20
60.88930344282007
 42
0.2559732989582162
 10
-1788.078277064415
 20
71.31871972145676
 42
0.1954327814670101
 10
-1796.631108014774
 20
70.97018629594787
 42
0.2505066079508973
  0
WIPEOUT
  5
FE
330
1F
100
AcDbEntity
  8
2D - Ogólne
  6
Wipeout_Contour
 62
   254
 48
10711.48207084927
370
     0
 92
      140
310
8C000000010000008400000006000000050000003757BA47DECBA5C0DC31BAE8A2AB7B40000000000000000026489A833D72A3C0DC31BAE8A2AB7B40000000000000000026489A833D72A3C0DC31BAE8A2AB7C4000000000000000003757BA47DECBA5C0DC31BAE8A2AB7C4000000000000000003757BA47DECBA5C0DC31BA
310
E8A2AB7B400000000000000000
100
AcDbWipeout
 90
        0
 10
-2789.934140990397
 20
442.727272727321
 30
0.0
 11
300.8139963167564
 21
0.0
 31
0.0
 12
0.0
 22
16.0
 32
0.0
 13
1.0
 23
1.0
340
0
 70
    15
280
     1
281
    50
282
    50
283
     0
360
0
 71
     2
 91
        5
 14
-0.5000000000000008
 24
0.5
 14
0.4999999999999992
 24
0.5
 14
0.4999999999999992
 24
-0.5
 14
-0.5000000000000008
 24
-0.5
 14
-0.5000000000000008
 24
0.5
  0
INSERT
  5
FF
330
1F
100
AcDbEntity
  8
2D - Ogólne
  6
Continuous
370
    13
100
AcDbBlockReference
  2
*X4
 10
0.0
 20
0.0
 30
0.0
  0
LINE
  5
100
330
1F
100
AcDbEntity
  8
2D - Ogólne
  6
Continuous
370
    13
100
AcDbLine
 10
-2789.934140990397
 20
442.727272727321
 30
0.0
 11
-2489.12014467364
 21
442.727272727321
 31
0.0
  0
LINE
  5
101
330
1F
100
AcDbEntity
  8
2D - Ogólne
  6
Continuous
370
    13
100
AcDbLine
 10
-2489.12014467364
 20
442.727272727321
 30
0.0
 11
-2489.12014467364
 21
458.727272727321
 31
0.0
  0
LINE
  5
102
330
1F
100
AcDbEntity
  8
2D - Ogólne
  6
Continuous
370
    13
100
AcDbLine
 10
-2489.12014467364
 20
458.727272727321
 30
0.0
 11
-2789.934140990397
 21
458.727272727321
 31
0.0
  0
LINE
  5
103
330
1F
100
AcDbEntity
  8
2D - Ogólne
  6
Continuous
370
    13
100
AcDbLine
 10
-2789.934140990397
 20
458.727272727321
 30
0.0
 11
-2789.934140990397
 21
442.727272727321
 31
0.0
  0
WIPEOUT
  5
113
330
1F
100
AcDbEntity
  8
2D - Ogólne
  6
Wipeout_Contour
 62
   254
 48
6271.586817963444
370
     0
 92
      140
310
8C00000001000000840000000600000005000000519034077BA49BC0D931BAE8A2AB7B4000000000000000003A1C03D15F3893C0D931BAE8A2AB7B4000000000000000003A1C03D15F3893C0D931BAE8A2AB7C400000000000000000519034077BA49BC0D931BAE8A2AB7C400000000000000000519034077BA49BC0D931BA
310
E8A2AB7B400000000000000000
100
AcDbWipeout
 90
        0
 10
-1769.120144673642
 20
442.7272727273208
 30
0.0
 11
539.0265739180666
 21
0.0
 31
0.0
 12
0.0
 22
16.0
 32
0.0
 13
1.0
 23
1.0
340
0
 70
    15
280
     1
281
    50
282
    50
283
     0
360
0
 71
     2
 91
        5
 14
-0.4999999999999998
 24
0.5
 14
0.5000000000000002
 24
0.5
 14
0.5000000000000002
 24
-0.5
 14
-0.4999999999999998
 24
-0.5
 14
-0.4999999999999998
 24
0.5
  0
INSERT
  5
114
330
1F
100
AcDbEntity
  8
2D - Ogólne
  6
Continuous
370
    13
100
AcDbBlockReference
  2
*X5
 10
0.0
 20
0.0
 30
0.0
  0
LINE
  5
115
330
1F
100
AcDbEntity
  8
2D - Ogólne
  6
Continuous
370
    13
100
AcDbLine
 10
-1769.120144673642
 20
442.7272727273208
 30
0.0
 11
-1230.093570755575
 21
442.7272727273208
 31
0.0
  0
LINE
  5
116
330
1F
100
AcDbEntity
  8
2D - Ogólne
  6
Continuous
370
    13
100
AcDbLine
 10
-1230.093570755575
 20
442.7272727273208
 30
0.0
 11
-1230.093570755575
 21
458.7272727273208
 31
0.0
  0
LINE
  5
117
330
1F
100
AcDbEntity
  8
2D - Ogólne
  6
Continuous
370
    13
100
AcDbLine
 10
-1230.093570755575
 20
458.7272727273208
 30
0.0
 11
-1769.120144673642
 21
458.7272727273208
 31
0.0
  0
LINE
  5
118
330
1F
100
AcDbEntity
  8
2D - Ogólne
  6
Continuous
370
    13
100
AcDbLine
 10
-1769.120144673642
 20
458.7272727273208
 30
0.0
 11
-1769.120144673642
 21
442.7272727273208
 31
0.0
  0
WIPEOUT
  5
122
330
1F
100
AcDbEntity
  8
2D - Ogólne
  6
Wipeout_Contour
 62
   254
 48
4631.934278133915
370
     0
 92
      140
310
8C000000010000008400000006000000050000003B1C03D15FE892C0D931BAE8A2AB7B4000000000000000006F3806A2BFC08CC0D931BAE8A2AB7B4000000000000000006F3806A2BFC08CC0D931BAE8A2AB7C4000000000000000003B1C03D15FE892C0D931BAE8A2AB7C4000000000000000003B1C03D15FE892C0D931BA
310
E8A2AB7B400000000000000000
100
AcDbWipeout
 90
        0
 10
-1210.093570755575
 20
442.7272727273208
 30
0.0
 11
290.0000000000008
 21
0.0
 31
0.0
 12
0.0
 22
16.0
 32
0.0
 13
1.0
 23
1.0
340
0
 70
    15
280
     1
281
    50
282
    50
283
     0
360
0
 71
     2
 91
        5
 14
-0.5000000000000002
 24
0.5
 14
0.4999999999999998
 24
0.5
 14
0.4999999999999998
 24
-0.5
 14
-0.5000000000000002
 24
-0.5
 14
-0.5000000000000002
 24
0.5
  0
INSERT
  5
123
330
1F
100
AcDbEntity
  8
2D - Ogólne
  6
Continuous
370
    13
100
AcDbBlockReference
  2
*X6
 10
0.0
 20
0.0
 30
0.0
  0
LINE
  5
124
330
1F
100
AcDbEntity
  8
2D - Ogólne
  6
Continuous
370
    13
100
AcDbLine
 10
-1210.093570755575
 20
442.7272727273208
 30
0.0
 11
-920.0935707555744
 21
442.7272727273208
 31
0.0
  0
LINE
  5
125
330
1F
100
AcDbEntity
  8
2D - Ogólne
  6
Continuous
370
    13
100
AcDbLine
 10
-920.0935707555744
 20
442.7272727273208
 30
0.0
 11
-920.0935707555744
 21
458.7272727273208
 31
0.0
  0
LINE
  5
126
330
1F
100
AcDbEntity
  8
2D - Ogólne
  6
Continuous
370
    13
100
AcDbLine
 10
-920.0935707555744
 20
458.7272727273208
 30
0.0
 11
-1210.093570755575
 21
458.7272727273208
 31
0.0
  0
LINE
  5
127
330
1F
100
AcDbEntity
  8
2D - Ogólne
  6
Continuous
370
    13
100
AcDbLine
 10
-1210.093570755575
 20
458.7272727273208
 30
0.0
 11
-1210.093570755575
 21
442.7272727273208
 31
0.0
  0
WIPEOUT
  5
132
330
1F
100
AcDbEntity
  8
2D - Ogólne
  6
Wipeout_Contour
 62
   254
 48
3498.632663604086
370
     0
 92
      140
310
8C00000001000000840000000600000005000000733806A2BF208CC0D931BAE8A2AB7B4000000000000000006E3806A2BF7082C0D931BAE8A2AB7B4000000000000000006E3806A2BF7082C0D931BAE8A2AB7C400000000000000000733806A2BF208CC0D931BAE8A2AB7C400000000000000000733806A2BF208CC0D931BA
310
E8A2AB7B400000000000000000
100
AcDbWipeout
 90
        0
 10
-900.0935707555749
 20
442.7272727273208
 30
0.0
 11
310.0000000000006
 21
0.0
 31
0.0
 12
0.0
 22
16.0
 32
0.0
 13
1.0
 23
1.0
340
0
 70
    15
280
     1
281
    50
282
    50
283
     0
360
0
 71
     2
 91
        5
 14
-0.5000000000000002
 24
0.5
 14
0.4999999999999998
 24
0.5
 14
0.4999999999999998
 24
-0.5
 14
-0.5000000000000002
 24
-0.5
 14
-0.5000000000000002
 24
0.5
  0
INSERT
  5
133
330
1F
100
AcDbEntity
  8
2D - Ogólne
  6
Continuous
370
    13
100
AcDbBlockReference
  2
*X7
 10
0.0
 20
0.0
 30
0.0
  0
LINE
  5
134
330
1F
100
AcDbEntity
  8
2D - Ogólne
  6
Continuous
370
    13
100
AcDbLine
 10
-900.0935707555749
 20
442.7272727273208
 30
0.0
 11
-590.0935707555743
 21
442.7272727273208
 31
0.0
  0
LINE
  5
135
330
1F
100
AcDbEntity
  8
2D - Ogólne
  6
Continuous
370
    13
100
AcDbLine
 10
-590.0935707555743
 20
442.7272727273208
 30
0.0
 11
-590.0935707555743
 21
458.7272727273208
 31
0.0
  0
LINE
  5
136
330
1F
100
AcDbEntity
  8
2D - Ogólne
  6
Continuous
370
    13
100
AcDbLine
 10
-590.0935707555743
 20
458.7272727273208
 30
0.0
 11
-900.0935707555749
 21
458.7272727273208
 31
0.0
  0
LINE
  5
137
330
1F
100
AcDbEntity
  8
2D - Ogólne
  6
Continuous
370
    13
100
AcDbLine
 10
-900.0935707555749
 20
458.7272727273208
 30
0.0
 11
-900.0935707555749
 21
442.7272727273208
 31
0.0
  0
WIPEOUT
  5
142
330
1F
100
AcDbEntity
  8
2D - Ogólne
  6
Wipeout_Contour
 62
   254
 48
2487.140436640343
370
     0
 92
      140
310
8C00000001000000840000000600000005000000723806A2BFD081C0D831BAE8A2AB7B400000000000000000A9A39DF2E7906FC0D831BAE8A2AB7B400000000000000000A9A39DF2E7906FC0D831BAE8A2AB7C400000000000000000723806A2BFD081C0D831BAE8A2AB7C400000000000000000723806A2BFD081C0D831BA
310
E8A2AB7B400000000000000000
100
AcDbWipeout
 90
        0
 10
-570.0935707555748
 20
442.7272727273207
 30
0.0
 11
317.5652568251689
 21
0.0
 31
0.0
 12
0.0
 22
16.0
 32
0.0
 13
1.0
 23
1.0
340
0
 70
    15
280
     1
281
    50
282
    50
283
     0
360
0
 71
     2
 91
        5
 14
-0.5
 24
0.5
 14
0.4999999999999999
 24
0.5
 14
0.4999999999999999
 24
-0.5
 14
-0.5
 24
-0.5
 14
-0.5
 24
0.5
  0
INSERT
  5
143
330
1F
100
AcDbEntity
  8
2D - Ogólne
  6
Continuous
370
    13
100
AcDbBlockReference
  2
*X8
 10
0.0
 20
0.0
 30
0.0
  0
LINE
  5
144
330
1F
100
AcDbEntity
  8
2D - Ogólne
  6
Continuous
370
    13
100
AcDbLine
 10
-570.0935707555748
 20
442.7272727273207
 30
0.0
 11
-252.5283139304059
 21
442.7272727273207
 31
0.0
  0
LINE
  5
145
330
1F
100
AcDbEntity
  8
2D - Ogólne
  6
Continuous
370
    13
100
AcDbLine
 10
-252.5283139304059
 20
442.7272727273207
 30
0.0
 11
-252.5283139304059
 21
458.7272727273207
 31
0.0
  0
LINE
  5
146
330
1F
100
AcDbEntity
  8
2D - Ogólne
  6
Continuous
370
    13
100
AcDbLine
 10
-252.5283139304059
 20
458.7272727273207
 30
0.0
 11
-570.0935707555748
 21
458.7272727273207
 31
0.0
  0
LINE
  5
147
330
1F
100
AcDbEntity
  8
2D - Ogólne
  6
Continuous
370
    13
100
AcDbLine
 10
-570.0935707555748
 20
458.7272727273207
 30
0.0
 11
-570.0935707555748
 21
442.7272727273207
 31
0.0
  0
WIPEOUT
  5
153
330
1F
100
AcDbEntity
  8
2D - Ogólne
  6
Wipeout_Contour
 62
   254
 48
15712.1347857218
370
     0
 92
      236
310
EC00000001000000E400000006000000090000004A9034077B709DC0DC31BAE8A2AB7B4000000000000000004F9034077BF49BC0DC31BAE8A2AB7B4000000000000000004F9034077BF49BC0DC31BAE8A2AB7C400000000000000000501B2633B5879DC0DC31BAE8A2AB7C400000000000000000CFD13C32F4769EC0DB31BA
310
E8A28B79400000000000000000CFD91D083CF19FC0DB31BAE8A28B79400000000000000000CFD91D083CF19FC0DB31BAE8A28B78400000000000000000D0464B06BA5F9EC0DB31BAE8A28B784000000000000000004A9034077B709DC0DC31BAE8A2AB7B400000000000000000
100
AcDbWipeout
 90
        0
 10
-2044.30862471239
 20
392.7272727273209
 30
0.0
 11
255.1884800387488
 21
0.0
 31
0.0
 12
0.0
 22
66.00000000000006
 32
0.0
 13
1.0
 23
1.0
340
0
 70
    15
280
     1
281
    50
282
    50
283
     0
360
0
 71
     2
 91
        9
 14
0.127726141926259
 24
-0.2575757575757573
 14
0.5
 24
-0.2575757575757573
 14
0.5
 24
-0.4999999999999996
 14
0.1049711638983607
 24
-0.4999999999999996
 14
-0.1294105760303733
 24
0.2575757575757582
 14
-0.5
 24
0.2575757575757582
 14
-0.5
 24
0.5000000000000004
 14
-0.1066555980024812
 24
0.5000000000000004
 14
0.127726141926259
 24
-0.2575757575757573
  0
INSERT
  5
154
330
1F
100
AcDbEntity
  8
2D - Ogólne
  6
Continuous
370
    13
100
AcDbBlockReference
  2
*X9
 10
0.0
 20
0.0
 30
0.0
  0
LINE
  5
155
330
1F
100
AcDbEntity
  8
2D - Ogólne
  6
Continuous
370
    13
100
AcDbLine
 10
-1884.12014467364
 20
442.727272727321
 30
0.0
 11
-1789.120144673641
 21
442.727272727321
 31
0.0
  0
LINE
  5
156
330
1F
100
AcDbEntity
  8
2D - Ogólne
  6
Continuous
370
    13
100
AcDbLine
 10
-1789.120144673641
 20
442.727272727321
 30
0.0
 11
-1789.120144673641
 21
458.727272727321
 31
0.0
  0
LINE
  5
157
330
1F
100
AcDbEntity
  8
2D - Ogólne
  6
Continuous
370
    13
100
AcDbLine
 10
-1789.120144673641
 20
458.727272727321
 30
0.0
 11
-1889.926952929894
 21
458.727272727321
 31
0.0
  0
LINE
  5
158
330
1F
100
AcDbEntity
  8
2D - Ogólne
  6
Continuous
370
    13
100
AcDbLine
 10
-1889.926952929894
 20
458.727272727321
 30
0.0
 11
-1949.738472891145
 21
408.7272727273209
 31
0.0
  0
LINE
  5
159
330
1F
100
AcDbEntity
  8
2D - Ogólne
  6
Continuous
370
    13
100
AcDbLine
 10
-1949.738472891145
 20
408.7272727273209
 30
0.0
 11
-2044.30862471239
 21
408.7272727273209
 31
0.0
  0
LINE
  5
15A
330
1F
100
AcDbEntity
  8
2D - Ogólne
  6
Continuous
370
    13
100
AcDbLine
 10
-2044.30862471239
 20
408.7272727273209
 30
0.0
 11
-2044.30862471239
 21
392.7272727273209
 31
0.0
  0
LINE
  5
15B
330
1F
100
AcDbEntity
  8
2D - Ogólne
  6
Continuous
370
    13
100
AcDbLine
 10
-2044.30862471239
 20
392.7272727273209
 30
0.0
 11
-1943.931664634893
 21
392.7272727273209
 31
0.0
  0
LINE
  5
15C
330
1F
100
AcDbEntity
  8
2D - Ogólne
  6
Continuous
370
    13
100
AcDbLine
 10
-1943.931664634893
 20
392.7272727273209
 30
0.0
 11
-1884.12014467364
 21
442.727272727321
 31
0.0
  0
WIPEOUT
  5
168
330
1F
100
AcDbEntity
  8
2D - Ogólne
  6
Wipeout_Contour
 62
   254
 48
18920.35540288215
370
     0
 92
      236
310
EC00000001000000E400000006000000090000002A489A833D64A2C0DC31BAE8A2AB7B400000000000000000E7EC0E049EECA1C0DB31BAE8A28B7840000000000000000068A32503DD23A1C0DB31BAE8A28B7840000000000000000068A32503DD23A1C0DB31BAE8A28B79400000000000000000682716EE00E1A1C0DB31BA
310
E8A28B79400000000000000000A782A16DA058A2C0DC31BAE8A2AB7C4000000000000000008F7B8BEA9849A3C0DC31BAE8A2AB7C4000000000000000008F7B8BEA9849A3C0DC31BAE8A2AB7B4000000000000000002A489A833D64A2C0DC31BAE8A2AB7B400000000000000000
100
AcDbWipeout
 90
        0
 10
-2468.798664435227
 20
392.7272727273209
 30
0.0
 11
274.8669998003347
 21
0.0
 31
0.0
 12
0.0
 22
66.00000000000006
 32
0.0
 13
1.0
 23
1.0
340
0
 70
    15
280
     1
281
    50
282
    50
283
     0
360
0
 71
     2
 91
        9
 14
-0.0827854204219187
 24
-0.2575757575757573
 14
0.1348162560423351
 24
0.5000000000000004
 14
0.5000000000000008
 24
0.5000000000000004
 14
0.5000000000000008
 24
0.2575757575757582
 14
0.1559421396895928
 24
0.2575757575757582
 14
-0.0616595367746543
 24
-0.4999999999999996
 14
-0.4999999999999992
 24
-0.4999999999999996
 14
-0.4999999999999992
 24
-0.2575757575757573
 14
-0.0827854204219187
 24
-0.2575757575757573
  0
INSERT
  5
169
330
1F
100
AcDbEntity
  8
2D - Ogólne
  6
Continuous
370
    13
100
AcDbBlockReference
  2
*X10
 10
0.0
 20
0.0
 30
0.0
  0
LINE
  5
16A
330
1F
100
AcDbEntity
  8
2D - Ogólne
  6
Continuous
370
    13
100
AcDbLine
 10
-2354.120144673642
 20
442.727272727321
 30
0.0
 11
-2294.30862471239
 21
392.7272727273209
 31
0.0
  0
LINE
  5
16B
330
1F
100
AcDbEntity
  8
2D - Ogólne
  6
Continuous
370
    13
100
AcDbLine
 10
-2294.30862471239
 20
392.7272727273209
 30
0.0
 11
-2193.931664634893
 21
392.7272727273209
 31
0.0
  0
LINE
  5
16C
330
1F
100
AcDbEntity
  8
2D - Ogólne
  6
Continuous
370
    13
100
AcDbLine
 10
-2193.931664634893
 20
392.7272727273209
 30
0.0
 11
-2193.931664634893
 21
408.7272727273209
 31
0.0
  0
LINE
  5
16D
330
1F
100
AcDbEntity
  8
2D - Ogólne
  6
Continuous
370
    13
100
AcDbLine
 10
-2193.931664634893
 20
408.7272727273209
 30
0.0
 11
-2288.501816456137
 21
408.7272727273209
 31
0.0
  0
LINE
  5
16E
330
1F
100
AcDbEntity
  8
2D - Ogólne
  6
Continuous
370
    13
100
AcDbLine
 10
-2288.501816456137
 20
408.7272727273209
 30
0.0
 11
-2348.313336417388
 21
458.727272727321
 31
0.0
  0
LINE
  5
16F
330
1F
100
AcDbEntity
  8
2D - Ogólne
  6
Continuous
370
    13
100
AcDbLine
 10
-2348.313336417388
 20
458.727272727321
 30
0.0
 11
-2468.798664435227
 21
458.727272727321
 31
0.0
  0
LINE
  5
170
330
1F
100
AcDbEntity
  8
2D - Ogólne
  6
Continuous
370
    13
100
AcDbLine
 10
-2468.798664435227
 20
458.727272727321
 30
0.0
 11
-2468.798664435227
 21
442.727272727321
 31
0.0
  0
LINE
  5
171
330
1F
100
AcDbEntity
  8
2D - Ogólne
  6
Continuous
370
    13
100
AcDbLine
 10
-2468.798664435227
 20
442.727272727321
 30
0.0
 11
-2354.120144673642
 21
442.727272727321
 31
0.0
  0
INSERT
  5
1E6
330
1F
100
AcDbEntity
  8
0
  6
Continuous
370
    13
100
AcDbBlockReference
  2
Izolacja cieplna 12_24_2
 10
-900.0934779067192
 20
190.0000000000483
 30
0.0
  0
INSERT
  5
1ED
330
1F
100
AcDbEntity
  8
@__WIDOCZNE
  6
Continuous
370
    13
100
AcDbBlockReference
 66
     1
  2
Sygnał termostatu 12
 10
-1897.274882123351
 20
1649.871283390398
 30
0.0
  0
ATTRIB
  5
1EE
330
1ED
100
AcDbEntity
  8
@__WIDOCZNE
  6
Continuous
370
    13
100
AcDbText
 10
-1920.040882123351
 20
1636.585640533256
 30
0.0
 40
30.0
  1
01
  7
GENERATED_STYLE_1
 11
-1920.040882123351
 21
1627.719234283256
 31
0.0
100
AcDbAttribute
  2
txt
 70
     0
 74
     1
  0
SEQEND
  5
1EF
330
1ED
100
AcDbEntity
  8
@__WIDOCZNE
  6
Continuous
370
    13
  0
INSERT
  5
1F5
330
1F
100
AcDbEntity
  8
@__WIDOCZNE
  6
Continuous
370
    13
100
AcDbBlockReference
 66
     1
  2
Sygnał termostatu 12_2
 10
-1897.274882123351
 20
1518.593213266337
 30
0.0
  0
ATTRIB
  5
1F6
330
1F5
100
AcDbEntity
  8
@__WIDOCZNE
  6
Continuous
370
    13
100
AcDbText
 10
-1920.040882123351
 20
1505.307570409194
 30
0.0
 40
30.0
  1
02
  7
GENERATED_STYLE_1
 11
-1920.040882123351
 21
1496.441164159194
 31
0.0
100
AcDbAttribute
  2
txt
 70
     0
 74
     1
  0
SEQEND
  5
1F7
330
1F5
100
AcDbEntity
  8
@__WIDOCZNE
  6
Continuous
370
    13
  0
INSERT
  5
1FD
330
1F
100
AcDbEntity
  8
@__WIDOCZNE
  6
Continuous
370
    13
100
AcDbBlockReference
 66
     1
  2
Sygnał termostatu 12_3
 10
-1897.274882123351
 20
1421.325449456662
 30
0.0
  0
ATTRIB
  5
1FE
330
1FD
100
AcDbEntity
  8
@__WIDOCZNE
  6
Continuous
370
    13
100
AcDbText
 10
-1920.040882123351
 20
1408.03980659952
 30
0.0
 40
30.0
  1
03
  7
GENERATED_STYLE_1
 11
-1920.040882123351
 21
1399.17340034952
 31
0.0
100
AcDbAttribute
  2
txt
 70
     0
 74
     1
  0
SEQEND
  5
1FF
330
1FD
100
AcDbEntity
  8
@__WIDOCZNE
  6
Continuous
370
    13
  0
INSERT
  5
205
330
1F
100
AcDbEntity
  8
@__WIDOCZNE
  6
Continuous
370
    13
100
AcDbBlockReference
 66
     1
  2
Sygnał termostatu 12_4
 10
-1897.274882123351
 20
1356.325449456662
 30
0.0
  0
ATTRIB
  5
206
330
205
100
AcDbEntity
  8
@__WIDOCZNE
  6
Continuous
370
    13
100
AcDbText
 10
-1920.040882123351
 20
1343.03980659952
 30
0.0
 40
30.0
  1
04
  7
GENERATED_STYLE_1
 11
-1920.040882123351
 21
1334.17340034952
 31
0.0
100
AcDbAttribute
  2
txt
 70
     0
 74
     1
  0
SEQEND
  5
207
330
205
100
AcDbEntity
  8
@__WIDOCZNE
  6
Continuous
370
    13
  0
INSERT
  5
20D
330
1F
100
AcDbEntity
  8
@__WIDOCZNE
  6
Continuous
370
    13
100
AcDbBlockReference
 66
     1
  2
Sygnał termostatu 12_5
 10
-1897.274882123351
 20
1256.325449456662
 30
0.0
  0
ATTRIB
  5
20E
330
20D
100
AcDbEntity
  8
@__WIDOCZNE
  6
Continuous
370
    13
100
AcDbText
 10
-1920.040882123351
 20
1243.03980659952
 30
0.0
 40
30.0
  1
05
  7
GENERATED_STYLE_1
 11
-1920.040882123351
 21
1234.17340034952
 31
0.0
100
AcDbAttribute
  2
txt
 70
     0
 74
     1
  0
SEQEND
  5
20F
330
20D
100
AcDbEntity
  8
@__WIDOCZNE
  6
Continuous
370
    13
  0
INSERT
  5
215
330
1F
100
AcDbEntity
  8
@__WIDOCZNE
  6
Continuous
370
    13
100
AcDbBlockReference
 66
     1
  2
Sygnał termostatu 12_6
 10
-1897.274882123351
 20
1151.914523324017
 30
0.0
  0
ATTRIB
  5
216
330
215
100
AcDbEntity
  8
@__WIDOCZNE
  6
Continuous
370
    13
100
AcDbText
 10
-1920.040882123351
 20
1138.628880466875
 30
0.0
 40
30.0
  1
06
  7
GENERATED_STYLE_1
 11
-1920.040882123351
 21
1129.762474216875
 31
0.0
100
AcDbAttribute
  2
txt
 70
     0
 74
     1
  0
SEQEND
  5
217
330
215
100
AcDbEntity
  8
@__WIDOCZNE
  6
Continuous
370
    13
  0
INSERT
  5
21D
330
1F
100
AcDbEntity
  8
@__WIDOCZNE
  6
Continuous
370
    13
100
AcDbBlockReference
 66
     1
  2
Sygnał termostatu 12_7
 10
-1897.274882123351
 20
1082.429843547058
 30
0.0
  0
ATTRIB
  5
21E
330
21D
100
AcDbEntity
  8
@__WIDOCZNE
  6
Continuous
370
    13
100
AcDbText
 10
-1920.040882123351
 20
1069.144200689915
 30
0.0
 40
30.0
  1
07
  7
GENERATED_STYLE_1
 11
-1920.040882123351
 21
1060.277794439915
 31
0.0
100
AcDbAttribute
  2
txt
 70
     0
 74
     1
  0
SEQEND
  5
21F
330
21D
100
AcDbEntity
  8
@__WIDOCZNE
  6
Continuous
370
    13
  0
INSERT
  5
220
330
1F
100
AcDbEntity
  8
@__WIDOCZNE
  6
Continuous
370
    13
100
AcDbBlockReference
 66
     1
  2
Sygnał termostatu 12
 10
-2710.513412707077
 20
1081.863292638533
 30
0.0
  0
ATTRIB
  5
221
330
220
100
AcDbEntity
  8
@__WIDOCZNE
  6
Continuous
370
    13
100
AcDbText
 10
-2733.279412707077
 20
1068.57764978139
 30
0.0
 40
30.0
  1
01
  7
GENERATED_STYLE_1
 11
-2733.279412707077
 21
1059.71124353139
 31
0.0
100
AcDbAttribute
  2
txt
 70
     0
 74
     1
  0
SEQEND
  5
222
330
220
100
AcDbEntity
  8
@__WIDOCZNE
  6
Continuous
370
    13
  0
INSERT
  5
223
330
1F
100
AcDbEntity
  8
@__WIDOCZNE
  6
Continuous
370
    13
100
AcDbBlockReference
 66
     1
  2
Sygnał termostatu 12
 10
-2675.880016051922
 20
602.227272727321
 30
0.0
  0
ATTRIB
  5
224
330
223
100
AcDbEntity
  8
@__WIDOCZNE
  6
Continuous
370
    13
100
AcDbText
 10
-2698.646016051922
 20
588.941629870178
 30
0.0
 40
30.0
  1
01
  7
GENERATED_STYLE_1
 11
-2698.646016051922
 21
580.075223620178
 31
0.0
100
AcDbAttribute
  2
txt
 70
     0
 74
     1
  0
SEQEND
  5
225
330
223
100
AcDbEntity
  8
@__WIDOCZNE
  6
Continuous
370
    13
  0
INSERT
  5
226
330
1F
100
AcDbEntity
  8
@__WIDOCZNE
  6
Continuous
370
    13
100
AcDbBlockReference
 66
     1
  2
Sygnał termostatu 12
 10
-1986.620144673641
 20
552.3557965595093
 30
0.0
  0
ATTRIB
  5
227
330
226
100
AcDbEntity
  8
@__WIDOCZNE
  6
Continuous
370
    13
100
AcDbText
 10
-2009.386144673641
 20
539.0701537023664
 30
0.0
 40
30.0
  1
01
  7
GENERATED_STYLE_1
 11
-2009.386144673641
 21
530.2037474523664
 31
0.0
100
AcDbAttribute
  2
txt
 70
     0
 74
     1
  0
SEQEND
  5
228
330
226
100
AcDbEntity
  8
@__WIDOCZNE
  6
Continuous
370
    13
  0
INSERT
  5
229
330
1F
100
AcDbEntity
  8
@__WIDOCZNE
  6
Continuous
370
    13
100
AcDbBlockReference
 66
     1
  2
Sygnał termostatu 12
 10
-910.0935707555747
 20
552.3557965595093
 30
0.0
  0
ATTRIB
  5
22A
330
229
100
AcDbEntity
  8
@__WIDOCZNE
  6
Continuous
370
    13
100
AcDbText
 10
-932.8595707555745
 20
539.0701537023664
 30
0.0
 40
30.0
  1
01
  7
GENERATED_STYLE_1
 11
-932.8595707555745
 21
530.2037474523664
 31
0.0
100
AcDbAttribute
  2
txt
 70
     0
 74
     1
  0
SEQEND
  5
22B
330
229
100
AcDbEntity
  8
@__WIDOCZNE
  6
Continuous
370
    13
  0
INSERT
  5
22C
330
1F
100
AcDbEntity
  8
@__WIDOCZNE
  6
Continuous
370
    13
100
AcDbBlockReference
 66
     1
  2
Sygnał termostatu 12
 10
-382.5286760304132
 20
858.1719592748304
 30
0.0
  0
ATTRIB
  5
22D
330
22C
100
AcDbEntity
  8
@__WIDOCZNE
  6
Continuous
370
    13
100
AcDbText
 10
-405.294676030413
 20
844.8863164176877
 30
0.0
 40
30.0
  1
01
  7
GENERATED_STYLE_1
 11
-405.294676030413
 21
836.0199101676877
 31
0.0
100
AcDbAttribute
  2
txt
 70
     0
 74
     1
  0
SEQEND
  5
22E
330
22C
100
AcDbEntity
  8
@__WIDOCZNE
  6
Continuous
370
    13
  0
INSERT
  5
22F
330
1F
100
AcDbEntity
  8
@__WIDOCZNE
  6
Continuous
370
    13
100
AcDbBlockReference
 66
     1
  2
Sygnał termostatu 12
 10
-383.0583936613121
 20
602.227272727321
 30
0.0
  0
ATTRIB
  5
230
330
22F
100
AcDbEntity
  8
@__WIDOCZNE
  6
Continuous
370
    13
100
AcDbText
 10
-405.8243936613124
 20
588.941629870178
 30
0.0
 40
30.0
  1
01
  7
GENERATED_STYLE_1
 11
-405.8243936613124
 21
580.075223620178
 31
0.0
100
AcDbAttribute
  2
txt
 70
     0
 74
     1
  0
SEQEND
  5
231
330
22F
100
AcDbEntity
  8
@__WIDOCZNE
  6
Continuous
370
    13
  0
INSERT
  5
232
330
1F
100
AcDbEntity
  8
@__WIDOCZNE
  6
Continuous
370
    13
100
AcDbBlockReference
 66
     1
  2
Sygnał termostatu 12_2
 10
-2710.513412707077
 20
1161.736352040864
 30
0.0
  0
ATTRIB
  5
233
330
232
100
AcDbEntity
  8
@__WIDOCZNE
  6
Continuous
370
    13
100
AcDbText
 10
-2733.279412707077
 20
1148.450709183722
 30
0.0
 40
30.0
  1
02
  7
GENERATED_STYLE_1
 11
-2733.279412707077
 21
1139.584302933722
 31
0.0
100
AcDbAttribute
  2
txt
 70
     0
 74
     1
  0
SEQEND
  5
234
330
232
100
AcDbEntity
  8
@__WIDOCZNE
  6
Continuous
370
    13
  0
INSERT
  5
235
330
1F
100
AcDbEntity
  8
@__WIDOCZNE
  6
Continuous
370
    13
100
AcDbBlockReference
 66
     1
  2
Sygnał termostatu 12_2
 10
-382.5286760304132
 20
789.1939618258508
 30
0.0
  0
ATTRIB
  5
236
330
235
100
AcDbEntity
  8
@__WIDOCZNE
  6
Continuous
370
    13
100
AcDbText
 10
-405.294676030413
 20
775.9083189687079
 30
0.0
 40
30.0
  1
02
  7
GENERATED_STYLE_1
 11
-405.294676030413
 21
767.041912718708
 31
0.0
100
AcDbAttribute
  2
txt
 70
     0
 74
     1
  0
SEQEND
  5
237
330
235
100
AcDbEntity
  8
@__WIDOCZNE
  6
Continuous
370
    13
  0
INSERT
  5
238
330
1F
100
AcDbEntity
  8
@__WIDOCZNE
  6
Continuous
370
    13
100
AcDbBlockReference
 66
     1
  2
Sygnał termostatu 12_3
 10
-2092.533657340417
 20
552.3557965595093
 30
0.0
  0
ATTRIB
  5
239
330
238
100
AcDbEntity
  8
@__WIDOCZNE
  6
Continuous
370
    13
100
AcDbText
 10
-2115.299657340417
 20
539.0701537023664
 30
0.0
 40
30.0
  1
03
  7
GENERATED_STYLE_1
 11
-2115.299657340417
 21
530.2037474523664
 31
0.0
100
AcDbAttribute
  2
txt
 70
     0
 74
     1
  0
SEQEND
  5
23A
330
238
100
AcDbEntity
  8
@__WIDOCZNE
  6
Continuous
370
    13
  0
INSERT
  5
23B
330
1F
100
AcDbEntity
  8
@__WIDOCZNE
  6
Continuous
370
    13
100
AcDbBlockReference
 66
     1
  2
Sygnał termostatu 12_4
 10
-1902.057917937134
 20
552.3557965595093
 30
0.0
  0
ATTRIB
  5
23C
330
23B
100
AcDbEntity
  8
@__WIDOCZNE
  6
Continuous
370
    13
100
AcDbText
 10
-1924.823917937134
 20
539.0701537023664
 30
0.0
 40
30.0
  1
04
  7
GENERATED_STYLE_1
 11
-1924.823917937134
 21
530.2037474523664
 31
0.0
100
AcDbAttribute
  2
txt
 70
     0
 74
     1
  0
SEQEND
  5
23D
330
23B
100
AcDbEntity
  8
@__WIDOCZNE
  6
Continuous
370
    13
  0
INSERT
  5
23E
330
1F
100
AcDbEntity
  8
@__WIDOCZNE
  6
Continuous
370
    13
100
AcDbBlockReference
 66
     1
  2
Sygnał termostatu 12_4
 10
-1974.240427979348
 20
334.9221938775991
 30
0.0
  0
ATTRIB
  5
23F
330
23E
100
AcDbEntity
  8
@__WIDOCZNE
  6
Continuous
370
    13
100
AcDbText
 10
-1997.006427979348
 20
321.6365510204562
 30
0.0
 40
30.0
  1
04
  7
GENERATED_STYLE_1
 11
-1997.006427979348
 21
312.7701447704562
 31
0.0
100
AcDbAttribute
  2
txt
 70
     0
 74
     1
  0
SEQEND
  5
240
330
23E
100
AcDbEntity
  8
@__WIDOCZNE
  6
Continuous
370
    13
  0
INSERT
  5
241
330
1F
100
AcDbEntity
  8
@__WIDOCZNE
  6
Continuous
370
    13
100
AcDbBlockReference
 66
     1
  2
Sygnał termostatu 12_5
 10
-2249.816260007599
 20
552.3557965595093
 30
0.0
  0
ATTRIB
  5
242
330
241
100
AcDbEntity
  8
@__WIDOCZNE
  6
Continuous
370
    13
100
AcDbText
 10
-2272.582260007599
 20
539.0701537023664
 30
0.0
 40
30.0
  1
05
  7
GENERATED_STYLE_1
 11
-2272.582260007599
 21
530.2037474523664
 31
0.0
100
AcDbAttribute
  2
txt
 70
     0
 74
     1
  0
SEQEND
  5
243
330
241
100
AcDbEntity
  8
@__WIDOCZNE
  6
Continuous
370
    13
  0
INSERT
  5
244
330
1F
100
AcDbEntity
  8
@__WIDOCZNE
  6
Continuous
370
    13
100
AcDbBlockReference
 66
     1
  2
Sygnał termostatu 12_6
 10
-2675.880016051922
 20
534.4375000000482
 30
0.0
  0
ATTRIB
  5
245
330
244
100
AcDbEntity
  8
@__WIDOCZNE
  6
Continuous
370
    13
100
AcDbText
 10
-2698.646016051922
 20
521.1518571429052
 30
0.0
 40
30.0
  1
06
  7
GENERATED_STYLE_1
 11
-2698.646016051922
 21
512.2854508929053
 31
0.0
100
AcDbAttribute
  2
txt
 70
     0
 74
     1
  0
SEQEND
  5
246
330
244
100
AcDbEntity
  8
@__WIDOCZNE
  6
Continuous
370
    13
  0
INSERT
  5
247
330
1F
100
AcDbEntity
  8
@__WIDOCZNE
  6
Continuous
370
    13
100
AcDbBlockReference
 66
     1
  2
Sygnał termostatu 12_6
 10
-981.5290047605055
 20
552.3557965595093
 30
0.0
  0
ATTRIB
  5
248
330
247
100
AcDbEntity
  8
@__WIDOCZNE
  6
Continuous
370
    13
100
AcDbText
 10
-1004.295004760506
 20
539.0701537023664
 30
0.0
 40
30.0
  1
06
  7
GENERATED_STYLE_1
 11
-1004.295004760506
 21
530.2037474523664
 31
0.0
100
AcDbAttribute
  2
txt
 70
     0
 74
     1
  0
SEQEND
  5
249
330
247
100
AcDbEntity
  8
@__WIDOCZNE
  6
Continuous
370
    13
  0
INSERT
  5
24A
330
1F
100
AcDbEntity
  8
@__WIDOCZNE
  6
Continuous
370
    13
100
AcDbBlockReference
 66
     1
  2
Sygnał termostatu 12_6
 10
-383.0583936613121
 20
534.4375000000482
 30
0.0
  0
ATTRIB
  5
24B
330
24A
100
AcDbEntity
  8
@__WIDOCZNE
  6
Continuous
370
    13
100
AcDbText
 10
-405.8243936613124
 20
521.1518571429052
 30
0.0
 40
30.0
  1
06
  7
GENERATED_STYLE_1
 11
-405.8243936613124
 21
512.2854508929053
 31
0.0
100
AcDbAttribute
  2
txt
 70
     0
 74
     1
  0
SEQEND
  5
24C
330
24A
100
AcDbEntity
  8
@__WIDOCZNE
  6
Continuous
370
    13
  0
INSERT
  5
24D
330
1F
100
AcDbEntity
  8
@__WIDOCZNE
  6
Continuous
370
    13
100
AcDbBlockReference
 66
     1
  2
Sygnał termostatu 12_7
 10
-838.6054050884941
 20
552.3557965595093
 30
0.0
  0
ATTRIB
  5
24E
330
24D
100
AcDbEntity
  8
@__WIDOCZNE
  6
Continuous
370
    13
100
AcDbText
 10
-861.3714050884944
 20
539.0701537023664
 30
0.0
 40
30.0
  1
07
  7
GENERATED_STYLE_1
 11
-861.3714050884944
 21
530.2037474523664
 31
0.0
100
AcDbAttribute
  2
txt
 70
     0
 74
     1
  0
SEQEND
  5
24F
330
24D
100
AcDbEntity
  8
@__WIDOCZNE
  6
Continuous
370
    13
  0
LINE
  5
250
330
1F
100
AcDbEntity
  8
0
  6
Continuous
370
    50
100
AcDbLine
 10
-2229.12014467364
 20
474.727272727321
 30
0.0
 11
-2209.120144673641
 21
474.727272727321
 31
0.0
  0
LINE
  5
251
330
1F
100
AcDbEntity
  8
0
  6
Continuous
370
    50
100
AcDbLine
 10
-2229.12014467364
 20
474.727272727321
 30
0.0
 11
-2229.12014467364
 21
489.727272727321
 31
0.0
  0
LINE
  5
252
330
1F
100
AcDbEntity
  8
0
  6
Continuous
370
    35
100
AcDbLine
 10
-2009.120144673642
 20
474.727272727321
 30
0.0
 11
-2009.120144673642
 21
489.727272727321
 31
0.0
  0
LINE
  5
253
330
1F
100
AcDbEntity
  8
0
  6
Continuous
370
    35
100
AcDbLine
 10
-1994.120144673641
 20
474.727272727321
 30
0.0
 11
-1994.120144673641
 21
489.727272727321
 31
0.0
  0
LINE
  5
254
330
1F
100
AcDbEntity
  8
0
  6
Continuous
370
    50
100
AcDbLine
 10
-2244.120144673641
 20
474.727272727321
 30
0.0
 11
-2244.120144673641
 21
489.727272727321
 31
0.0
  0
LINE
  5
255
330
1F
100
AcDbEntity
  8
0
  6
Continuous
370
    50
100
AcDbLine
 10
-2244.120144673641
 20
489.727272727321
 30
0.0
 11
-2229.12014467364
 21
489.727272727321
 31
0.0
  0
LINE
  5
256
330
1F
100
AcDbEntity
  8
0
  6
Continuous
370
    50
100
AcDbLine
 10
-2143.931664634893
 20
284.7272727273209
 30
0.0
 11
-2143.931664634893
 21
189.727272727321
 31
0.0
  0
LINE
  5
257
330
1F
100
AcDbEntity
  8
0
  6
Continuous
370
    50
100
AcDbLine
 10
-2173.931664634893
 20
284.7272727273209
 30
0.0
 11
-2143.931664634893
 21
284.7272727273209
 31
0.0
  0
LINE
  5
258
330
1F
100
AcDbEntity
  8
0
  6
Continuous
370
    35
100
AcDbLine
 10
-2213.931664634892
 20
263.7272727273209
 30
0.0
 11
-2163.931664634892
 21
263.7272727273209
 31
0.0
  0
LINE
  5
259
330
1F
100
AcDbEntity
  8
0
  6
Continuous
370
    35
100
AcDbLine
 10
-2163.931664634892
 20
263.7272727273209
 30
0.0
 11
-2163.931664634892
 21
189.7272727273208
 31
0.0
  0
LINE
  5
25A
330
1F
100
AcDbEntity
  8
0
  6
Continuous
370
    50
100
AcDbLine
 10
-2209.120144673641
 20
474.727272727321
 30
0.0
 11
-2209.120144673641
 21
449.727272727321
 31
0.0
  0
LINE
  5
25B
330
1F
100
AcDbEntity
  8
0
  6
Continuous
370
    35
100
AcDbLine
 10
-2209.120144673641
 20
449.727272727321
 30
0.0
 11
-2224.12014467364
 21
449.727272727321
 31
0.0
  0
LINE
  5
25C
330
1F
100
AcDbEntity
  8
0
  6
Continuous
370
    35
100
AcDbLine
 10
-2224.12014467364
 20
449.727272727321
 30
0.0
 11
-2224.12014467364
 21
434.727272727321
 31
0.0
  0
LINE
  5
25D
330
1F
100
AcDbEntity
  8
0
  6
Continuous
370
    35
100
AcDbLine
 10
-2224.12014467364
 20
434.727272727321
 30
0.0
 11
-2239.12014467364
 21
434.727272727321
 31
0.0
  0
LINE
  5
25E
330
1F
100
AcDbEntity
  8
0
  6
Continuous
370
    50
100
AcDbLine
 10
-2193.931664634893
 20
392.7272727273209
 30
0.0
 11
-2193.931664634893
 21
304.7272727273209
 31
0.0
  0
LINE
  5
25F
330
1F
100
AcDbEntity
  8
0
  6
Continuous
370
    35
100
AcDbLine
 10
-2213.931664634892
 20
392.7272727273209
 30
0.0
 11
-2213.931664634892
 21
263.7272727273209
 31
0.0
  0
LINE
  5
260
330
1F
100
AcDbEntity
  8
0
  6
Continuous
370
    50
100
AcDbLine
 10
-2009.120144673642
 20
474.727272727321
 30
0.0
 11
-2029.120144673641
 21
474.727272727321
 31
0.0
  0
LINE
  5
261
330
1F
100
AcDbEntity
  8
0
  6
Continuous
370
    50
100
AcDbLine
 10
-2009.120144673642
 20
474.727272727321
 30
0.0
 11
-2009.120144673642
 21
489.727272727321
 31
0.0
  0
LINE
  5
262
330
1F
100
AcDbEntity
  8
0
  6
Continuous
370
    50
100
AcDbLine
 10
-1994.120144673641
 20
474.727272727321
 30
0.0
 11
-1994.120144673641
 21
489.727272727321
 31
0.0
  0
LINE
  5
263
330
1F
100
AcDbEntity
  8
0
  6
Continuous
370
    50
100
AcDbLine
 10
-1994.120144673641
 20
489.727272727321
 30
0.0
 11
-2009.120144673642
 21
489.727272727321
 31
0.0
  0
LINE
  5
264
330
1F
100
AcDbEntity
  8
0
  6
Continuous
370
    50
100
AcDbLine
 10
-2094.308624712389
 20
284.7272727273209
 30
0.0
 11
-2094.308624712389
 21
189.727272727321
 31
0.0
  0
LINE
  5
265
330
1F
100
AcDbEntity
  8
0
  6
Continuous
370
    50
100
AcDbLine
 10
-2064.308624712389
 20
284.7272727273209
 30
0.0
 11
-2094.308624712389
 21
284.7272727273209
 31
0.0
  0
LINE
  5
266
330
1F
100
AcDbEntity
  8
0
  6
Continuous
370
    35
100
AcDbLine
 10
-2024.30862471239
 20
263.7272727273209
 30
0.0
 11
-2074.308624712391
 21
263.7272727273209
 31
0.0
  0
LINE
  5
267
330
1F
100
AcDbEntity
  8
0
  6
Continuous
370
    35
100
AcDbLine
 10
-2074.308624712391
 20
263.7272727273209
 30
0.0
 11
-2074.308624712391
 21
189.7272727273208
 31
0.0
  0
LINE
  5
268
330
1F
100
AcDbEntity
  8
0
  6
Continuous
370
    35
100
AcDbLine
 10
-1872.308624712389
 20
458.727272727321
 30
0.0
 11
-2029.120144673641
 21
458.727272727321
 31
0.0
  0
LINE
  5
269
330
1F
100
AcDbEntity
  8
0
  6
Continuous
370
    50
100
AcDbLine
 10
-2029.120144673641
 20
474.727272727321
 30
0.0
 11
-2029.120144673641
 21
449.727272727321
 31
0.0
  0
LINE
  5
26A
330
1F
100
AcDbEntity
  8
0
  6
Continuous
370
    35
100
AcDbLine
 10
-2029.120144673641
 20
449.727272727321
 30
0.0
 11
-2014.120144673642
 21
449.727272727321
 31
0.0
  0
LINE
  5
26B
330
1F
100
AcDbEntity
  8
0
  6
Continuous
370
    35
100
AcDbLine
 10
-2014.120144673642
 20
449.727272727321
 30
0.0
 11
-2014.120144673642
 21
434.727272727321
 31
0.0
  0
LINE
  5
26C
330
1F
100
AcDbEntity
  8
0
  6
Continuous
370
    35
100
AcDbLine
 10
-2014.120144673642
 20
434.727272727321
 30
0.0
 11
-1999.120144673642
 21
434.727272727321
 31
0.0
  0
LINE
  5
26D
330
1F
100
AcDbEntity
  8
0
  6
Continuous
370
    50
100
AcDbLine
 10
-2044.30862471239
 20
392.7272727273209
 30
0.0
 11
-2044.30862471239
 21
304.7272727273209
 31
0.0
  0
LINE
  5
26E
330
1F
100
AcDbEntity
  8
0
  6
Continuous
370
    35
100
AcDbLine
 10
-2024.30862471239
 20
392.7272727273209
 30
0.0
 11
-2024.30862471239
 21
263.7272727273209
 31
0.0
  0
LINE
  5
26F
330
1F
100
AcDbEntity
  8
0
  6
Continuous
370
    35
100
AcDbLine
 10
-2133.0136410244
 20
264.7272727273209
 30
0.0
 11
-2143.931664634893
 21
264.7272727273209
 31
0.0
  0
LINE
  5
270
330
1F
100
AcDbEntity
  8
0
  6
Continuous
370
    35
100
AcDbLine
 10
-2105.226648322882
 20
264.7272727273209
 30
0.0
 11
-2094.308624712389
 21
264.7272727273209
 31
0.0
  0
LINE
  5
271
330
1F
100
AcDbEntity
  8
0
  6
Continuous
370
    50
100
AcDbLine
 10
-2179.12014467364
 20
449.727272727321
 30
0.0
 11
-2179.12014467364
 21
340.727272727321
 31
0.0
  0
LINE
  5
272
330
1F
100
AcDbEntity
  8
0
  6
Continuous
370
    50
100
AcDbLine
 10
-2209.120144673641
 20
449.727272727321
 30
0.0
 11
-2179.12014467364
 21
449.727272727321
 31
0.0
  0
LINE
  5
273
330
1F
100
AcDbEntity
  8
0
  6
Continuous
370
    50
100
AcDbLine
 10
-2059.120144673642
 20
449.727272727321
 30
0.0
 11
-2059.120144673642
 21
340.727272727321
 31
0.0
  0
LINE
  5
274
330
1F
100
AcDbEntity
  8
0
  6
Continuous
370
    50
100
AcDbLine
 10
-2029.120144673641
 20
449.727272727321
 30
0.0
 11
-2059.120144673642
 21
449.727272727321
 31
0.0
  0
LINE
  5
275
330
1F
100
AcDbEntity
  8
0
  6
Continuous
370
    35
100
AcDbLine
 10
-2133.0136410244
 20
309.727272727321
 30
0.0
 11
-2133.0136410244
 21
264.7272727273209
 31
0.0
  0
LINE
  5
276
330
1F
100
AcDbEntity
  8
0
  6
Continuous
370
    35
100
AcDbLine
 10
-2105.226648322882
 20
309.727272727321
 30
0.0
 11
-2105.226648322882
 21
264.7272727273209
 31
0.0
  0
LINE
  5
277
330
1F
100
AcDbEntity
  8
0
  6
Continuous
370
    35
100
AcDbLine
 10
-2119.120144673641
 20
334.727272727321
 30
0.0
 11
-2079.120144673642
 21
334.727272727321
 31
0.0
  0
LINE
  5
278
330
1F
100
AcDbEntity
  8
0
  6
Continuous
370
    35
100
AcDbLine
 10
-2159.12014467364
 20
429.7272727273209
 30
0.0
 11
-2179.12014467364
 21
429.7272727273209
 31
0.0
  0
LINE
  5
279
330
1F
100
AcDbEntity
  8
0
  6
Continuous
370
    35
100
AcDbLine
 10
-2079.120144673642
 20
429.7272727273209
 30
0.0
 11
-2059.120144673642
 21
429.7272727273209
 31
0.0
  0
LINE
  5
27B
330
1F
100
AcDbEntity
  8
0
  6
Przerywana
370
    35
100
AcDbLine
 10
-2159.12014467364
 20
334.727272727321
 30
0.0
 11
-2159.12014467364
 21
429.7272727273209
 31
0.0
  0
LINE
  5
27C
330
1F
100
AcDbEntity
  8
0
  6
Przerywana
370
    35
100
AcDbLine
 10
-2079.120144673642
 20
334.727272727321
 30
0.0
 11
-2079.120144673642
 21
429.7272727273209
 31
0.0
  0
LINE
  5
27D
330
1F
100
AcDbEntity
  8
0
  6
Continuous
370
    35
100
AcDbLine
 10
-2294.30862471239
 20
392.7272727273209
 30
0.0
 11
-2193.931664634893
 21
392.7272727273209
 31
0.0
  0
LINE
  5
27E
330
1F
100
AcDbEntity
  8
0
  6
Continuous
370
    35
100
AcDbLine
 10
-2354.12014467364
 20
442.727272727321
 30
0.0
 11
-2294.30862471239
 21
392.7272727273209
 31
0.0
  0
LINE
  5
27F
330
1F
100
AcDbEntity
  8
0
  6
Continuous
370
    35
100
AcDbLine
 10
-2288.501816456137
 20
408.7272727273209
 30
0.0
 11
-2193.931664634893
 21
408.7272727273209
 31
0.0
  0
LINE
  5
280
330
1F
100
AcDbEntity
  8
0
  6
Continuous
370
    35
100
AcDbLine
 10
-2348.313336417388
 20
458.727272727321
 30
0.0
 11
-2288.501816456137
 21
408.7272727273209
 31
0.0
  0
LINE
  5
281
330
1F
100
AcDbEntity
  8
0
  6
Continuous
370
    35
100
AcDbLine
 10
-1943.931664634893
 20
392.7272727273209
 30
0.0
 11
-2044.30862471239
 21
392.7272727273209
 31
0.0
  0
LINE
  5
282
330
1F
100
AcDbEntity
  8
0
  6
Continuous
370
    35
100
AcDbLine
 10
-1884.12014467364
 20
442.727272727321
 30
0.0
 11
-1943.931664634893
 21
392.7272727273209
 31
0.0
  0
LINE
  5
283
330
1F
100
AcDbEntity
  8
0
  6
Continuous
370
    35
100
AcDbLine
 10
-1949.738472891144
 20
408.7272727273221
 30
0.0
 11
-1889.926952929891
 21
458.727272727321
 31
0.0
  0
LINE
  5
284
330
1F
100
AcDbEntity
  8
0
  6
Continuous
370
    35
100
AcDbLine
 10
-1984.120144673641
 20
408.7272727273209
 30
0.0
 11
-1949.738472891144
 21
408.7272727273221
 31
0.0
  0
LINE
  5
285
330
1F
100
AcDbEntity
  8
0
  6
Continuous
370
    35
100
AcDbLine
 10
-2424.120144673643
 20
489.727272727321
 30
0.0
 11
-2424.120144673643
 21
474.727272727321
 31
0.0
  0
LINE
  5
286
330
1F
100
AcDbEntity
  8
0
  6
Continuous
370
    35
100
AcDbLine
 10
-2409.120144673642
 20
489.727272727321
 30
0.0
 11
-2409.120144673642
 21
474.727272727321
 31
0.0
  0
LINE
  5
287
330
1F
100
AcDbEntity
  8
0
  6
Continuous
370
    35
100
AcDbLine
 10
-2259.120144673642
 20
489.7272727273208
 30
0.0
 11
-2259.120144673642
 21
474.7272727273208
 31
0.0
  0
LINE
  5
288
330
1F
100
AcDbEntity
  8
0
  6
Continuous
370
    35
100
AcDbLine
 10
-1814.12014467364
 20
489.727272727321
 30
0.0
 11
-1814.12014467364
 21
474.727272727321
 31
0.0
  0
LINE
  5
289
330
1F
100
AcDbEntity
  8
0
  6
Continuous
370
    35
100
AcDbLine
 10
-1829.12014467364
 20
489.727272727321
 30
0.0
 11
-1829.12014467364
 21
474.727272727321
 31
0.0
  0
LINE
  5
28A
330
1F
100
AcDbEntity
  8
0
  6
Continuous
370
    35
100
AcDbLine
 10
-1979.120144673641
 20
489.7272727273208
 30
0.0
 11
-1979.120144673641
 21
474.7272727273208
 31
0.0
  0
LINE
  5
28C
330
1F
100
AcDbEntity
  8
@__WIDOCZNE
  6
Kropki i Kreski
370
    25
100
AcDbLine
 10
-2119.120144673641
 20
190.0000000000483
 30
0.0
 11
-2119.120144673641
 21
518.1765077854564
 31
0.0
  0
LINE
  5
28D
330
1F
100
AcDbEntity
  8
0
  6
Continuous
 62
    22
370
    50
100
AcDbLine
 10
-2193.931664634893
 20
400.7272727273209
 30
0.0
 11
-2268.67871392896
 21
400.7272727273209
 31
0.0
  0
LINE
  5
28E
330
1F
100
AcDbEntity
  8
0
  6
Continuous
 62
    22
370
    50
100
AcDbLine
 10
-2044.30862471239
 20
400.7272727273209
 30
0.0
 11
-1969.454935697745
 21
400.7272727273209
 31
0.0
  0
LINE
  5
28F
330
1F
100
AcDbEntity
  8
0
  6
Continuous
370
    35
100
AcDbLine
 10
-1884.12014467364
 20
442.727272727321
 30
0.0
 11
-1789.120144673641
 21
442.727272727321
 31
0.0
  0
LINE
  5
290
330
1F
100
AcDbEntity
  8
0
  6
Continuous
370
    35
100
AcDbLine
 10
-2119.120144673641
 20
319.727272727321
 30
0.0
 11
-2149.12014467364
 21
319.727272727321
 31
0.0
  0
LINE
  5
291
330
1F
100
AcDbEntity
  8
0
  6
Continuous
370
    35
100
AcDbLine
 10
-2159.12014467364
 20
309.727272727321
 30
0.0
 11
-2159.12014467364
 21
294.7272727273209
 31
0.0
  0
LINE
  5
292
330
1F
100
AcDbEntity
  8
0
  6
Continuous
370
    35
100
AcDbLine
 10
-2119.120144673641
 20
319.727272727321
 30
0.0
 11
-2089.120144673642
 21
319.727272727321
 31
0.0
  0
LINE
  5
293
330
1F
100
AcDbEntity
  8
0
  6
Continuous
370
    35
100
AcDbLine
 10
-2079.120144673642
 20
309.727272727321
 30
0.0
 11
-2079.120144673642
 21
294.7272727273209
 31
0.0
  0
LINE
  5
294
330
1F
100
AcDbEntity
  8
0
  6
Przerywana
370
    35
100
AcDbLine
 10
-2119.120144673641
 20
334.727272727321
 30
0.0
 11
-2159.12014467364
 21
334.727272727321
 31
0.0
  0
LINE
  5
295
330
1F
100
AcDbEntity
  8
0
  6
Continuous
370
    50
100
AcDbLine
 10
-2193.931664634893
 20
390.7272727273209
 30
0.0
 11
-2254.120144673641
 21
390.7272727273209
 31
0.0
  0
LINE
  5
296
330
1F
100
AcDbEntity
  8
0
  6
Continuous
370
    50
100
AcDbLine
 10
-2179.12014467364
 20
410.7272727273209
 30
0.0
 11
-2254.120144673641
 21
410.7272727273209
 31
0.0
  0
LINE
  5
297
330
1F
100
AcDbEntity
  8
0
  6
Continuous
370
    50
100
AcDbLine
 10
-2044.30862471239
 20
390.7272727273209
 30
0.0
 11
-1984.120144673641
 21
390.7272727273209
 31
0.0
  0
LINE
  5
298
330
1F
100
AcDbEntity
  8
0
  6
Continuous
370
    50
100
AcDbLine
 10
-2059.120144673642
 20
410.7272727273209
 30
0.0
 11
-1984.120144673641
 21
410.7272727273209
 31
0.0
  0
LINE
  5
299
330
1F
100
AcDbEntity
  8
0
  6
Continuous
370
    35
100
AcDbLine
 10
-2007.214384693015
 20
410.7272727273209
 30
0.0
 11
-2007.214384693015
 21
416.7272727273209
 31
0.0
  0
LINE
  5
29A
330
1F
100
AcDbEntity
  8
0
  6
Continuous
370
    35
100
AcDbLine
 10
-2017.214384693017
 20
421.7272727273209
 30
0.0
 11
-2011.214384693016
 21
421.7272727273209
 31
0.0
  0
LINE
  5
29B
330
1F
100
AcDbEntity
  8
0
  6
Continuous
370
    35
100
AcDbLine
 10
-2021.214384693018
 20
410.7272727273209
 30
0.0
 11
-2021.214384693018
 21
416.7272727273209
 31
0.0
  0
LINE
  5
29C
330
1F
100
AcDbEntity
  8
0
  6
Continuous
370
    35
100
AcDbLine
 10
-2021.214384693018
 20
416.7272727273209
 30
0.0
 11
-2007.214384693015
 21
416.7272727273209
 31
0.0
  0
LINE
  5
29D
330
1F
100
AcDbEntity
  8
0
  6
Continuous
370
    35
100
AcDbLine
 10
-2017.214384693017
 20
390.7272727273209
 30
0.0
 11
-2017.214384693017
 21
421.7272727273209
 31
0.0
  0
LINE
  5
29E
330
1F
100
AcDbEntity
  8
0
  6
Continuous
370
    35
100
AcDbLine
 10
-2011.214384693016
 20
390.7272727273209
 30
0.0
 11
-2011.214384693016
 21
421.7272727273209
 31
0.0
  0
LINE
  5
29F
330
1F
100
AcDbEntity
  8
0
  6
Continuous
370
    35
100
AcDbLine
 10
-2231.025904654267
 20
410.7272727273209
 30
0.0
 11
-2231.025904654267
 21
416.7272727273209
 31
0.0
  0
LINE
  5
2A0
330
1F
100
AcDbEntity
  8
0
  6
Continuous
370
    35
100
AcDbLine
 10
-2221.025904654266
 20
421.7272727273209
 30
0.0
 11
-2227.025904654266
 21
421.7272727273209
 31
0.0
  0
LINE
  5
2A1
330
1F
100
AcDbEntity
  8
0
  6
Continuous
370
    35
100
AcDbLine
 10
-2217.025904654264
 20
410.7272727273209
 30
0.0
 11
-2217.025904654264
 21
416.7272727273209
 31
0.0
  0
LINE
  5
2A2
330
1F
100
AcDbEntity
  8
0
  6
Continuous
370
    35
100
AcDbLine
 10
-2217.025904654264
 20
416.7272727273209
 30
0.0
 11
-2231.025904654267
 21
416.7272727273209
 31
0.0
  0
LINE
  5
2A3
330
1F
100
AcDbEntity
  8
0
  6
Continuous
370
    35
100
AcDbLine
 10
-2221.025904654266
 20
390.7272727273209
 30
0.0
 11
-2221.025904654266
 21
421.7272727273209
 31
0.0
  0
LINE
  5
2A4
330
1F
100
AcDbEntity
  8
0
  6
Continuous
370
    35
100
AcDbLine
 10
-2227.025904654266
 20
390.7272727273209
 30
0.0
 11
-2227.025904654266
 21
421.7272727273209
 31
0.0
  0
LINE
  5
2A5
330
1F
100
AcDbEntity
  8
0
  6
Continuous
370
    13
100
AcDbLine
 10
-2249.816260007599
 20
405.7272727273209
 30
0.0
 11
-2249.816260007599
 21
522.3557965595096
 31
0.0
  0
CIRCLE
  5
2A6
330
1F
100
AcDbEntity
  8
0
  6
Continuous
370
    13
100
AcDbCircle
 10
-2249.816260007599
 20
400.7272727273209
 30
0.0
 40
5.0
  0
HATCH
  5
2A7
330
1F
100
AcDbEntity
  8
0
  6
Continuous
370
    13
100
AcDbHatch
 10
0.0
 20
0.0
 30
0.0
210
0.0
220
0.0
230
1.0
  2
SOLID
 70
     1
 71
     0
 91
        1
 92
        2
 72
     0
 73
     1
 93
       16
 10
-2244.816260007599
 20
400.7272727273209
 10
-2245.196862345043
 20
402.6406898891464
 10
-2246.280726101666
 20
404.2628066332537
 10
-2247.902842845774
 20
405.3466703898773
 10
-2249.816260007599
 20
405.7272727273209
 10
-2251.729677169425
 20
405.3466703898773
 10
-2253.351793913532
 20
404.2628066332537
 10
-2254.435657670156
 20
402.6406898891464
 10
-2254.816260007599
 20
400.7272727273209
 10
-2254.435657670156
 20
398.8138555654954
 10
-2253.351793913532
 20
397.1917388213881
 10
-2251.729677169425
 20
396.1078750647645
 10
-2249.816260007599
 20
395.7272727273209
 10
-2247.902842845774
 20
396.1078750647645
 10
-2246.280726101666
 20
397.1917388213881
 10
-2245.196862345043
 20
398.8138555654954
 97
        0
 75
     0
 76
     1
 98
        0
  0
LINE
  5
2A8
330
1F
100
AcDbEntity
  8
0
  6
Continuous
370
    13
100
AcDbLine
 10
-2092.533657340417
 20
487.2272727273209
 30
0.0
 11
-2092.533657340417
 21
522.3557965595099
 31
0.0
  0
CIRCLE
  5
2A9
330
1F
100
AcDbEntity
  8
0
  6
Continuous
370
    13
100
AcDbCircle
 10
-2092.533657340417
 20
482.2272727273209
 30
0.0
 40
5.0
  0
HATCH
  5
2AA
330
1F
100
AcDbEntity
  8
0
  6
Continuous
370
    13
100
AcDbHatch
 10
0.0
 20
0.0
 30
0.0
210
0.0
220
0.0
230
1.0
  2
SOLID
 70
     1
 71
     0
 91
        1
 92
        2
 72
     0
 73
     1
 93
       16
 10
-2087.533657340417
 20
482.2272727273209
 10
-2087.91425967786
 20
484.1406898891464
 10
-2088.998123434484
 20
485.7628066332537
 10
-2090.620240178591
 20
486.8466703898773
 10
-2092.533657340417
 20
487.2272727273209
 10
-2094.447074502242
 20
486.8466703898773
 10
-2096.069191246349
 20
485.7628066332537
 10
-2097.153055002973
 20
484.1406898891464
 10
-2097.533657340417
 20
482.2272727273209
 10
-2097.153055002973
 20
480.3138555654954
 10
-2096.069191246349
 20
478.6917388213882
 10
-2094.447074502242
 20
477.6078750647645
 10
-2092.533657340417
 20
477.2272727273209
 10
-2090.620240178591
 20
477.6078750647645
 10
-2088.998123434484
 20
478.6917388213882
 10
-2087.91425967786
 20
480.3138555654954
 97
        0
 75
     0
 76
     1
 98
        0
  0
LINE
  5
2AB
330
1F
100
AcDbEntity
  8
0
  6
Continuous
370
    13
100
AcDbLine
 10
-1986.620144673641
 20
487.4306404263758
 30
0.0
 11
-1986.620144673641
 21
522.3557965595099
 31
0.0
  0
CIRCLE
  5
2AC
330
1F
100
AcDbEntity
  8
0
  6
Continuous
370
    13
100
AcDbCircle
 10
-1986.620144673641
 20
482.4306404263758
 30
0.0
 40
5.0
  0
HATCH
  5
2AD
330
1F
100
AcDbEntity
  8
0
  6
Continuous
370
    13
100
AcDbHatch
 10
0.0
 20
0.0
 30
0.0
210
0.0
220
0.0
230
1.0
  2
SOLID
 70
     1
 71
     0
 91
        1
 92
        2
 72
     0
 73
     1
 93
       16
 10
-1981.620144673641
 20
482.4306404263758
 10
-1982.000747011085
 20
484.3440575882012
 10
-1983.084610767708
 20
485.9661743323085
 10
-1984.706727511816
 20
487.0500380889322
 10
-1986.620144673641
 20
487.4306404263758
 10
-1988.533561835466
 20
487.0500380889322
 10
-1990.155678579574
 20
485.9661743323085
 10
-1991.239542336197
 20
484.3440575882012
 10
-1991.620144673641
 20
482.4306404263758
 10
-1991.239542336197
 20
480.5172232645502
 10
-1990.155678579574
 20
478.895106520443
 10
-1988.533561835466
 20
477.8112427638193
 10
-1986.620144673641
 20
477.4306404263757
 10
-1984.706727511816
 20
477.8112427638193
 10
-1983.084610767708
 20
478.895106520443
 10
-1982.000747011085
 20
480.5172232645502
 97
        0
 75
     0
 76
     1
 98
        0
  0
LINE
  5
2AE
330
1F
100
AcDbEntity
  8
0
  6
Continuous
370
    13
100
AcDbLine
 10
-1956.065107870171
 20
435.2649266306026
 30
0.0
 11
-1913.96144160586
 21
524.8184378577739
 31
0.0
  0
CIRCLE
  5
2AF
330
1F
100
AcDbEntity
  8
0
  6
Continuous
370
    13
100
AcDbCircle
 10
-1958.192472910956
 20
430.740071054648
 30
0.0
 40
5.0
  0
HATCH
  5
2B0
330
1F
100
AcDbEntity
  8
0
  6
Continuous
370
    13
100
AcDbHatch
 10
0.0
 20
0.0
 30
0.0
210
0.0
220
0.0
230
1.0
  2
SOLID
 70
     1
 71
     0
 91
        1
 92
        2
 72
     0
 73
     1
 93
       16
 10
-1953.192472910956
 20
430.740071054648
 10
-1953.573075248399
 20
432.6534882164734
 10
-1954.656939005023
 20
434.2756049605807
 10
-1956.27905574913
 20
435.3594687172044
 10
-1958.192472910956
 20
435.740071054648
 10
-1960.105890072781
 20
435.3594687172044
 10
-1961.728006816888
 20
434.2756049605807
 10
-1962.811870573512
 20
432.6534882164734
 10
-1963.192472910956
 20
430.740071054648
 10
-1962.811870573512
 20
428.8266538928225
 10
-1961.728006816888
 20
427.2045371487152
 10
-1960.105890072781
 20
426.1206733920915
 10
-1958.192472910956
 20
425.740071054648
 10
-1956.27905574913
 20
426.1206733920915
 10
-1954.656939005023
 20
427.2045371487152
 10
-1953.573075248399
 20
428.8266538928225
 97
        0
 75
     0
 76
     1
 98
        0
  0
LINE
  5
2B1
330
1F
100
AcDbEntity
  8
0
  6
Continuous
370
    35
100
AcDbLine
 10
-900.0935707555749
 20
190.0000000000483
 30
0.0
 11
-900.0935707555749
 21
489.727272727321
 31
0.0
  0
LINE
  5
2B2
330
1F
100
AcDbEntity
  8
0
  6
Continuous
370
    35
100
AcDbLine
 10
-920.0935707555744
 20
190.0000000000483
 30
0.0
 11
-920.0935707555744
 21
489.727272727321
 31
0.0
  0
LINE
  5
2B3
330
1F
100
AcDbEntity
  8
0
  6
Continuous
370
    35
100
AcDbLine
 10
-1230.093570755575
 20
489.727272727321
 30
0.0
 11
-1769.120144673642
 21
489.727272727321
 31
0.0
  0
LINE
  5
2B4
330
1F
100
AcDbEntity
  8
0
  6
Continuous
370
    35
100
AcDbLine
 10
-1230.093570755575
 20
474.727272727321
 30
0.0
 11
-1769.120144673642
 21
474.727272727321
 31
0.0
  0
LINE
  5
2B5
330
1F
100
AcDbEntity
  8
0
  6
Continuous
370
    35
100
AcDbLine
 10
-1769.120144673642
 20
442.727272727321
 30
0.0
 11
-1230.093570755575
 21
442.727272727321
 31
0.0
  0
LINE
  5
2B6
330
1F
100
AcDbEntity
  8
0
  6
Continuous
370
    35
100
AcDbLine
 10
-920.0935707555744
 20
474.727272727321
 30
0.0
 11
-1210.093570755575
 21
474.727272727321
 31
0.0
  0
LINE
  5
2B7
330
1F
100
AcDbEntity
  8
0
  6
Continuous
370
    35
100
AcDbLine
 10
-1210.093570755575
 20
442.727272727321
 30
0.0
 11
-920.0935707555744
 21
442.727272727321
 31
0.0
  0
LINE
  5
2B8
330
1F
100
AcDbEntity
  8
0
  6
Continuous
370
    35
100
AcDbLine
 10
-735.0935707555739
 20
489.7272727273208
 30
0.0
 11
-735.0935707555739
 21
474.7272727273207
 31
0.0
  0
LINE
  5
2B9
330
1F
100
AcDbEntity
  8
0
  6
Continuous
370
    35
100
AcDbLine
 10
-750.0935707555744
 20
489.7272727273208
 30
0.0
 11
-750.0935707555744
 21
474.7272727273207
 31
0.0
  0
LINE
  5
2BA
330
1F
100
AcDbEntity
  8
0
  6
Continuous
370
    35
100
AcDbLine
 10
-1085.093570755575
 20
489.7272727273208
 30
0.0
 11
-1085.093570755575
 21
474.7272727273207
 31
0.0
  0
LINE
  5
2BB
330
1F
100
AcDbEntity
  8
0
  6
Continuous
370
    35
100
AcDbLine
 10
-1070.093570755575
 20
489.7272727273208
 30
0.0
 11
-1070.093570755575
 21
474.7272727273207
 31
0.0
  0
LINE
  5
2BC
330
1F
100
AcDbEntity
  8
0
  6
Continuous
370
    35
100
AcDbLine
 10
-590.0935707555743
 20
474.7272727273212
 30
0.0
 11
-900.0935707555749
 21
474.727272727321
 31
0.0
  0
LINE
  5
2BD
330
1F
100
AcDbEntity
  8
0
  6
Continuous
370
    35
100
AcDbLine
 10
-900.0935707555749
 20
442.727272727321
 30
0.0
 11
-590.0935707555743
 21
442.7272727273212
 31
0.0
  0
LINE
  5
2BE
330
1F
100
AcDbEntity
  8
0
  6
Continuous
370
    35
100
AcDbLine
 10
-590.0935707555743
 20
489.7272727273212
 30
0.0
 11
-1210.093570755575
 21
489.727272727321
 31
0.0
  0
LINE
  5
2BF
330
1F
100
AcDbEntity
  8
0
  6
Continuous
370
    35
100
AcDbLine
 10
-2469.120144673641
 20
458.7272727273208
 30
0.0
 11
-2209.120144673641
 21
458.727272727321
 31
0.0
  0
LINE
  5
2C0
330
1F
100
AcDbEntity
  8
0
  6
Continuous
370
    35
100
AcDbLine
 10
-2469.120144673641
 20
442.727272727321
 30
0.0
 11
-2354.12014467364
 21
442.727272727321
 31
0.0
  0
LINE
  5
2C1
330
1F
100
AcDbEntity
  8
0
  6
Continuous
370
    35
100
AcDbLine
 10
-1789.120144673641
 20
474.727272727321
 30
0.0
 11
-2469.120144673641
 21
474.7272727273208
 31
0.0
  0
LINE
  5
2C2
330
1F
100
AcDbEntity
  8
0
  6
Continuous
370
    35
100
AcDbLine
 10
-1789.120144673641
 20
489.727272727321
 30
0.0
 11
-2469.120144673641
 21
489.7272727273208
 31
0.0
  0
LINE
  5
2C3
330
1F
100
AcDbEntity
  8
0
  6
Continuous
370
    35
100
AcDbLine
 10
-1507.106857714609
 20
489.727272727321
 30
0.0
 11
-1507.106857714609
 21
474.7272727273208
 31
0.0
  0
LINE
  5
2C4
330
1F
100
AcDbEntity
  8
0
  6
Continuous
370
    35
100
AcDbLine
 10
-1492.106857714609
 20
489.727272727321
 30
0.0
 11
-1492.106857714609
 21
474.7272727273208
 31
0.0
  0
LINE
  5
2C5
330
1F
100
AcDbEntity
  8
0
  6
Continuous
370
    35
100
AcDbLine
 10
-1672.106857714609
 20
489.727272727321
 30
0.0
 11
-1672.106857714609
 21
474.7272727273208
 31
0.0
  0
LINE
  5
2C6
330
1F
100
AcDbEntity
  8
0
  6
Continuous
370
    35
100
AcDbLine
 10
-1657.106857714608
 20
489.727272727321
 30
0.0
 11
-1657.106857714608
 21
474.7272727273208
 31
0.0
  0
LINE
  5
2C7
330
1F
100
AcDbEntity
  8
0
  6
Continuous
370
    35
100
AcDbLine
 10
-1342.10685771461
 20
489.727272727321
 30
0.0
 11
-1342.10685771461
 21
474.7272727273208
 31
0.0
  0
LINE
  5
2C8
330
1F
100
AcDbEntity
  8
0
  6
Continuous
370
    35
100
AcDbLine
 10
-1327.10685771461
 20
489.727272727321
 30
0.0
 11
-1327.10685771461
 21
474.7272727273208
 31
0.0
  0
LINE
  5
2C9
330
1F
100
AcDbEntity
  8
0
  6
Continuous
370
    13
100
AcDbLine
 10
-910.0935707555747
 20
489.5191167092318
 30
0.0
 11
-910.0935707555747
 21
522.3557965595099
 31
0.0
  0
CIRCLE
  5
2CA
330
1F
100
AcDbEntity
  8
0
  6
Continuous
370
    13
100
AcDbCircle
 10
-910.0935707555747
 20
484.5191167092318
 30
0.0
 40
5.0
  0
HATCH
  5
2CB
330
1F
100
AcDbEntity
  8
0
  6
Continuous
370
    13
100
AcDbHatch
 10
0.0
 20
0.0
 30
0.0
210
0.0
220
0.0
230
1.0
  2
SOLID
 70
     1
 71
     0
 91
        1
 92
        2
 72
     0
 73
     1
 93
       16
 10
-905.0935707555747
 20
484.5191167092318
 10
-905.4741730930182
 20
486.4325338710572
 10
-906.5580368496419
 20
488.0546506151645
 10
-908.1801535937492
 20
489.1385143717882
 10
-910.0935707555747
 20
489.5191167092318
 10
-912.0069879174001
 20
489.1385143717882
 10
-913.6291046615074
 20
488.0546506151645
 10
-914.7129684181311
 20
486.4325338710572
 10
-915.0935707555747
 20
484.5191167092318
 10
-914.7129684181311
 20
482.6056995474063
 10
-913.6291046615074
 20
480.983582803299
 10
-912.0069879174001
 20
479.8997190466753
 10
-910.0935707555747
 20
479.5191167092318
 10
-908.1801535937492
 20
479.8997190466753
 10
-906.5580368496419
 20
480.983582803299
 10
-905.4741730930182
 20
482.6056995474063
 97
        0
 75
     0
 76
     1
 98
        0
  0
LINE
  5
2CC
330
1F
100
AcDbEntity
  8
0
  6
Continuous
370
    35
100
AcDbLine
 10
-2773.934140990397
 20
504.7272727273209
 30
0.0
 11
-2743.934140990398
 21
474.727272727321
 31
0.0
  0
LINE
  5
2CD
330
1F
100
AcDbEntity
  8
0
  6
Continuous
 62
    22
370
    50
100
AcDbLine
 10
-2797.934140990396
 20
450.727272727321
 30
0.0
 11
-2737.66301532306
 21
450.727272727321
 31
0.0
  0
LINE
  5
2CE
330
1F
100
AcDbEntity
  8
0
  6
Continuous
 62
    22
370
    50
100
AcDbLine
 10
-2797.934140990396
 20
450.727272727321
 30
0.0
 11
-2797.934140990396
 21
524.5622084548587
 31
0.0
  0
LINE
  5
2CF
330
1F
100
AcDbEntity
  8
0
  6
Continuous
370
    35
100
AcDbLine
 10
-2758.934140990397
 20
594.727272727321
 30
0.0
 11
-2773.934140990397
 21
594.7272727273206
 31
0.0
  0
LINE
  5
2D0
330
1F
100
AcDbEntity
  8
0
  6
Continuous
370
    35
100
AcDbLine
 10
-2758.934140990397
 20
609.7272727273215
 30
0.0
 11
-2773.934140990397
 21
609.7272727273212
 31
0.0
  0
LINE
  5
2D1
330
1F
100
AcDbEntity
  8
0
  6
Continuous
370
    35
100
AcDbLine
 10
-2683.934140990395
 20
489.727272727321
 30
0.0
 11
-2683.934140990395
 21
474.727272727321
 31
0.0
  0
LINE
  5
2D2
330
1F
100
AcDbEntity
  8
0
  6
Continuous
370
    35
100
AcDbLine
 10
-2668.934140990395
 20
489.727272727321
 30
0.0
 11
-2668.934140990395
 21
474.727272727321
 31
0.0
  0
LINE
  5
2D3
330
1F
100
AcDbEntity
  8
0
  6
Continuous
370
    35
100
AcDbLine
 10
-2758.934140990397
 20
759.7272727273214
 30
0.0
 11
-2773.934140990397
 21
759.7272727273212
 31
0.0
  0
LINE
  5
2D4
330
1F
100
AcDbEntity
  8
0
  6
Continuous
370
    35
100
AcDbLine
 10
-2758.934140990397
 20
774.727272727322
 30
0.0
 11
-2773.934140990397
 21
774.7272727273217
 31
0.0
  0
LINE
  5
2D5
330
1F
100
AcDbEntity
  8
0
  6
Continuous
370
    35
100
AcDbLine
 10
-2758.934140990397
 20
909.7272727273214
 30
0.0
 11
-2773.934140990397
 21
909.7272727273212
 31
0.0
  0
LINE
  5
2D6
330
1F
100
AcDbEntity
  8
0
  6
Continuous
370
    35
100
AcDbLine
 10
-2758.934140990397
 20
924.727272727322
 30
0.0
 11
-2773.934140990397
 21
924.7272727273217
 31
0.0
  0
LINE
  5
2D7
330
1F
100
AcDbEntity
  8
0
  6
Continuous
370
    35
100
AcDbLine
 10
-2758.934140990397
 20
964.7272727273215
 30
0.0
 11
-2773.934140990397
 21
964.7272727273213
 31
0.0
  0
LINE
  5
2D8
330
1F
100
AcDbEntity
  8
0
  6
Continuous
370
    35
100
AcDbLine
 10
-2758.934140990397
 20
979.7272727273221
 30
0.0
 11
-2773.934140990397
 21
979.7272727273219
 31
0.0
  0
LINE
  5
2D9
330
1F
100
AcDbEntity
  8
0
  6
Continuous
370
    35
100
AcDbLine
 10
-2805.934140990397
 20
979.7272727273221
 30
0.0
 11
-2805.934140990397
 21
442.727272727321
 31
0.0
  0
LINE
  5
2DA
330
1F
100
AcDbEntity
  8
0
  6
Continuous
370
    35
100
AcDbLine
 10
-2789.934140990397
 20
458.727272727321
 30
0.0
 11
-2789.934140990397
 21
979.7272727273223
 31
0.0
  0
LINE
  5
2DB
330
1F
100
AcDbEntity
  8
0
  6
Continuous
370
    35
100
AcDbLine
 10
-2758.934140990397
 20
549.727272727321
 30
0.0
 11
-2758.934140990397
 21
979.7272727273221
 31
0.0
  0
LINE
  5
2DC
330
1F
100
AcDbEntity
  8
0
  6
Continuous
370
    35
100
AcDbLine
 10
-2758.934140990397
 20
1019.727272727322
 30
0.0
 11
-2773.934140990397
 21
1019.727272727322
 31
0.0
  0
LINE
  5
2DD
330
1F
100
AcDbEntity
  8
0
  6
Continuous
370
    35
100
AcDbLine
 10
-2758.934140990397
 20
1034.727272727323
 30
0.0
 11
-2773.934140990397
 21
1034.727272727323
 31
0.0
  0
LINE
  5
2DE
330
1F
100
AcDbEntity
  8
0
  6
Continuous
370
    35
100
AcDbLine
 10
-2773.934140990397
 20
504.7272727273209
 30
0.0
 11
-2773.934140990397
 21
979.7272727273221
 31
0.0
  0
LINE
  5
2DF
330
1F
100
AcDbEntity
  8
0
  6
Continuous
370
    35
100
AcDbLine
 10
-2758.934140990397
 20
1124.727272727323
 30
0.0
 11
-2773.934140990397
 21
1124.727272727324
 31
0.0
  0
LINE
  5
2E0
330
1F
100
AcDbEntity
  8
0
  6
Continuous
370
    35
100
AcDbLine
 10
-2758.934140990397
 20
1109.727272727323
 30
0.0
 11
-2773.934140990397
 21
1109.727272727323
 31
0.0
  0
LINE
  5
2E1
330
1F
100
AcDbEntity
  8
0
  6
Continuous
370
    35
100
AcDbLine
 10
-2758.934140990397
 20
1439.727272727323
 30
0.0
 11
-2773.934140990397
 21
1439.727272727323
 31
0.0
  0
LINE
  5
2E2
330
1F
100
AcDbEntity
  8
0
  6
Continuous
370
    35
100
AcDbLine
 10
-2758.934140990397
 20
1454.727272727324
 30
0.0
 11
-2773.934140990397
 21
1454.727272727324
 31
0.0
  0
LINE
  5
2E3
330
1F
100
AcDbEntity
  8
0
  6
Continuous
370
    35
100
AcDbLine
 10
-2758.934140990397
 20
1604.727272727323
 30
0.0
 11
-2773.934140990397
 21
1604.727272727323
 31
0.0
  0
LINE
  5
2E4
330
1F
100
AcDbEntity
  8
0
  6
Continuous
370
    35
100
AcDbLine
 10
-2758.934140990397
 20
1619.727272727324
 30
0.0
 11
-2773.934140990397
 21
1619.727272727324
 31
0.0
  0
LINE
  5
2E5
330
1F
100
AcDbEntity
  8
0
  6
Continuous
370
    35
100
AcDbLine
 10
-2758.934140990397
 20
1274.727272727323
 30
0.0
 11
-2773.934140990397
 21
1274.727272727323
 31
0.0
  0
LINE
  5
2E6
330
1F
100
AcDbEntity
  8
0
  6
Continuous
370
    35
100
AcDbLine
 10
-2758.934140990397
 20
1289.727272727324
 30
0.0
 11
-2773.934140990397
 21
1289.727272727324
 31
0.0
  0
LINE
  5
2E7
330
1F
100
AcDbEntity
  8
0
  6
Continuous
370
    50
100
AcDbLine
 10
-2728.934140990397
 20
1323.142801587174
 30
0.0
 11
-2728.934140990397
 21
1700.285906534035
 31
0.0
  0
LINE
  5
2E8
330
1F
100
AcDbEntity
  8
0
  6
Continuous
370
    50
100
AcDbLine
 10
-2728.934140990397
 20
1323.142801587174
 30
0.0
 11
-2899.12014467364
 21
1323.142801587174
 31
0.0
  0
LINE
  5
2EA
330
1F
100
AcDbEntity
  8
@__WIDOCZNE
  6
Przerywana gęsta
370
    13
100
AcDbLine
 10
-2489.12014467364
 20
190.0000000000483
 30
0.0
 11
-2899.12014467364
 21
190.0000000000483
 31
0.0
  0
LINE
  5
2EB
330
1F
100
AcDbEntity
  8
0
  6
Continuous
370
    35
100
AcDbLine
 10
-2489.12014467364
 20
489.7272727273208
 30
0.0
 11
-2698.934140990396
 21
489.727272727321
 31
0.0
  0
LINE
  5
2EC
330
1F
100
AcDbEntity
  8
0
  6
Continuous
370
    35
100
AcDbLine
 10
-2489.12014467364
 20
474.7272727273208
 30
0.0
 11
-2743.934140990398
 21
474.727272727321
 31
0.0
  0
LINE
  5
2ED
330
1F
100
AcDbEntity
  8
0
  6
Continuous
370
    35
100
AcDbLine
 10
-2789.934140990397
 20
458.727272727321
 30
0.0
 11
-2489.12014467364
 21
458.7272727273208
 31
0.0
  0
LINE
  5
2EE
330
1F
100
AcDbEntity
  8
0
  6
Continuous
370
    35
100
AcDbLine
 10
-2805.934140990397
 20
442.727272727321
 30
0.0
 11
-2489.12014467364
 21
442.727272727321
 31
0.0
  0
LINE
  5
2EF
330
1F
100
AcDbEntity
  8
0
  6
Continuous
370
    13
100
AcDbLine
 10
-2761.309353299099
 20
602.227272727321
 30
0.0
 11
-2705.880016051922
 21
602.227272727321
 31
0.0
  0
CIRCLE
  5
2F0
330
1F
100
AcDbEntity
  8
0
  6
Continuous
370
    13
100
AcDbCircle
 10
-2766.309353299098
 20
602.227272727321
 30
0.0
 40
5.0
  0
HATCH
  5
2F1
330
1F
100
AcDbEntity
  8
0
  6
Continuous
370
    13
100
AcDbHatch
 10
0.0
 20
0.0
 30
0.0
210
0.0
220
0.0
230
1.0
  2
SOLID
 70
     1
 71
     0
 91
        1
 92
        2
 72
     0
 73
     1
 93
       16
 10
-2761.309353299099
 20
602.227272727321
 10
-2761.689955636542
 20
604.1406898891464
 10
-2762.773819393166
 20
605.7628066332536
 10
-2764.395936137273
 20
606.8466703898774
 10
-2766.309353299098
 20
607.227272727321
 10
-2768.222770460924
 20
606.8466703898774
 10
-2769.844887205031
 20
605.7628066332536
 10
-2770.928750961655
 20
604.1406898891464
 10
-2771.309353299098
 20
602.227272727321
 10
-2770.928750961655
 20
600.3138555654955
 10
-2769.844887205031
 20
598.6917388213882
 10
-2768.222770460924
 20
597.6078750647645
 10
-2766.309353299098
 20
597.227272727321
 10
-2764.395936137273
 20
597.6078750647645
 10
-2762.773819393166
 20
598.6917388213882
 10
-2761.689955636542
 20
600.3138555654955
 97
        0
 75
     0
 76
     1
 98
        0
  0
LINE
  5
2F2
330
1F
100
AcDbEntity
  8
0
  6
Continuous
370
    13
100
AcDbLine
 10
-2762.944381236334
 20
1030.509970122566
 30
0.0
 11
-2731.945728456481
 21
1060.871488485059
 31
0.0
  0
CIRCLE
  5
2F3
330
1F
100
AcDbEntity
  8
0
  6
Continuous
370
    13
100
AcDbCircle
 10
-2766.516433861235
 20
1027.011336096987
 30
0.0
 40
5.0
  0
HATCH
  5
2F4
330
1F
100
AcDbEntity
  8
0
  6
Continuous
370
    13
100
AcDbHatch
 10
0.0
 20
0.0
 30
0.0
210
0.0
220
0.0
230
1.0
  2
SOLID
 70
     1
 71
     0
 91
        1
 92
        2
 72
     0
 73
     1
 93
       16
 10
-2761.516433861235
 20
1027.011336096987
 10
-2761.897036198678
 20
1028.924753258813
 10
-2762.980899955302
 20
1030.54687000292
 10
-2764.603016699409
 20
1031.630733759544
 10
-2766.516433861235
 20
1032.011336096987
 10
-2768.42985102306
 20
1031.630733759544
 10
-2770.051967767167
 20
1030.54687000292
 10
-2771.135831523791
 20
1028.924753258813
 10
-2771.516433861234
 20
1027.011336096987
 10
-2771.135831523791
 20
1025.097918935162
 10
-2770.051967767167
 20
1023.475802191055
 10
-2768.42985102306
 20
1022.391938434431
 10
-2766.516433861235
 20
1022.011336096987
 10
-2764.603016699409
 20
1022.391938434431
 10
-2762.980899955302
 20
1023.475802191055
 10
-2761.897036198678
 20
1025.097918935162
 97
        0
 75
     0
 76
     1
 98
        0
  0
LINE
  5
2F5
330
1F
100
AcDbEntity
  8
0
  6
Continuous
370
    35
100
AcDbLine
 10
-2805.934140990397
 20
1730.000000000049
 30
0.0
 11
-2805.934140990397
 21
1019.727272727322
 31
0.0
  0
LINE
  5
2F6
330
1F
100
AcDbEntity
  8
0
  6
Continuous
370
    35
100
AcDbLine
 10
-2789.934140990397
 20
1019.727272727322
 30
0.0
 11
-2789.934140990397
 21
1730.000000000049
 31
0.0
  0
LINE
  5
2F7
330
1F
100
AcDbEntity
  8
0
  6
Continuous
370
    35
100
AcDbLine
 10
-2773.934140990397
 20
1019.727272727322
 30
0.0
 11
-2773.934140990397
 21
1730.000000000049
 31
0.0
  0
LINE
  5
2F8
330
1F
100
AcDbEntity
  8
0
  6
Continuous
370
    35
100
AcDbLine
 10
-2758.934140990397
 20
1019.727272727322
 30
0.0
 11
-2758.934140990397
 21
1730.000000000049
 31
0.0
  0
LINE
  5
2FA
330
1F
100
AcDbEntity
  8
0
  6
Kreski i kropki
370
    13
100
AcDbLine
 10
-2899.12014467364
 20
999.7272727273221
 30
0.0
 11
-2690.430111715188
 21
999.7272727273221
 31
0.0
  0
LINE
  5
2FB
330
1F
100
AcDbEntity
  8
0
  6
Continuous
370
    35
100
AcDbLine
 10
-285.0935707555746
 20
504.7272727273208
 30
0.0
 11
-315.093570755574
 21
474.7272727273207
 31
0.0
  0
LINE
  5
2FC
330
1F
100
AcDbEntity
  8
0
  6
Continuous
 62
    22
370
    50
100
AcDbLine
 10
-261.0935707555755
 20
450.7272727273207
 30
0.0
 11
-321.3646964229118
 21
450.7272727273207
 31
0.0
  0
LINE
  5
2FD
330
1F
100
AcDbEntity
  8
0
  6
Continuous
370
    35
100
AcDbLine
 10
-300.0935707555752
 20
594.7272727273208
 30
0.0
 11
-285.0935707555746
 21
594.7272727273207
 31
0.0
  0
LINE
  5
2FE
330
1F
100
AcDbEntity
  8
0
  6
Continuous
370
    35
100
AcDbLine
 10
-300.0935707555752
 20
609.7272727273214
 30
0.0
 11
-285.0935707555746
 21
609.7272727273213
 31
0.0
  0
LINE
  5
2FF
330
1F
100
AcDbEntity
  8
0
  6
Continuous
370
    35
100
AcDbLine
 10
-375.0935707555763
 20
489.7272727273208
 30
0.0
 11
-375.0935707555763
 21
474.7272727273207
 31
0.0
  0
LINE
  5
300
330
1F
100
AcDbEntity
  8
0
  6
Continuous
370
    35
100
AcDbLine
 10
-390.0935707555768
 20
489.7272727273208
 30
0.0
 11
-390.0935707555768
 21
474.7272727273207
 31
0.0
  0
LINE
  5
301
330
1F
100
AcDbEntity
  8
0
  6
Continuous
370
    35
100
AcDbLine
 10
-300.0935707555752
 20
759.7272727273214
 30
0.0
 11
-285.0935707555746
 21
759.7272727273212
 31
0.0
  0
LINE
  5
302
330
1F
100
AcDbEntity
  8
0
  6
Continuous
370
    35
100
AcDbLine
 10
-300.0935707555752
 20
774.727272727322
 30
0.0
 11
-285.0935707555746
 21
774.7272727273217
 31
0.0
  0
LINE
  5
303
330
1F
100
AcDbEntity
  8
0
  6
Continuous
 62
    22
370
    50
100
AcDbLine
 10
-261.0935707555755
 20
450.7272727273207
 30
0.0
 11
-261.0935707555755
 21
528.9723651574474
 31
0.0
  0
LINE
  5
304
330
1F
100
AcDbEntity
  8
0
  6
Continuous
370
    35
100
AcDbLine
 10
-570.0935707555748
 20
489.7272727273211
 30
0.0
 11
-360.0935707555757
 21
489.7272727273208
 31
0.0
  0
LINE
  5
305
330
1F
100
AcDbEntity
  8
0
  6
Continuous
370
    35
100
AcDbLine
 10
-570.0935707555748
 20
474.7272727273208
 30
0.0
 11
-315.093570755574
 21
474.7272727273207
 31
0.0
  0
LINE
  5
306
330
1F
100
AcDbEntity
  8
0
  6
Continuous
370
    35
100
AcDbLine
 10
-269.0935707555746
 20
458.7272727273207
 30
0.0
 11
-570.0935707555748
 21
458.7272727273208
 31
0.0
  0
LINE
  5
307
330
1F
100
AcDbEntity
  8
0
  6
Continuous
370
    35
100
AcDbLine
 10
-253.0935707555746
 20
442.7272727273207
 30
0.0
 11
-570.0935707555748
 21
442.7272727273208
 31
0.0
  0
LINE
  5
308
330
1F
100
AcDbEntity
  8
0
  6
Continuous
370
    35
100
AcDbLine
 10
-300.0935707555752
 20
1369.727272727322
 30
0.0
 11
-285.0935707555746
 21
1369.727272727322
 31
0.0
  0
LINE
  5
309
330
1F
100
AcDbEntity
  8
0
  6
Continuous
370
    35
100
AcDbLine
 10
-300.0935707555752
 20
1384.727272727323
 30
0.0
 11
-285.0935707555746
 21
1384.727272727323
 31
0.0
  0
LINE
  5
30A
330
1F
100
AcDbEntity
  8
0
  6
Continuous
370
    35
100
AcDbLine
 10
-300.0935707555752
 20
1534.727272727323
 30
0.0
 11
-285.0935707555746
 21
1534.727272727322
 31
0.0
  0
LINE
  5
30B
330
1F
100
AcDbEntity
  8
0
  6
Continuous
370
    35
100
AcDbLine
 10
-300.0935707555752
 20
1549.727272727323
 30
0.0
 11
-285.0935707555746
 21
1549.727272727323
 31
0.0
  0
LINE
  5
30C
330
1F
100
AcDbEntity
  8
0
  6
Continuous
370
    35
100
AcDbLine
 10
-300.0935707555752
 20
1204.727272727322
 30
0.0
 11
-285.0935707555746
 21
1204.727272727322
 31
0.0
  0
LINE
  5
30D
330
1F
100
AcDbEntity
  8
0
  6
Continuous
370
    35
100
AcDbLine
 10
-300.0935707555752
 20
1219.727272727323
 30
0.0
 11
-285.0935707555746
 21
1219.727272727323
 31
0.0
  0
LINE
  5
30E
330
1F
100
AcDbEntity
  8
0
  6
Continuous
370
    50
100
AcDbLine
 10
-1162.682395446084
 20
1354.57116404744
 30
0.0
 11
-1162.682395446084
 21
1700.285906534035
 31
0.0
  0
LINE
  5
30F
330
1F
100
AcDbEntity
  8
0
  6
Continuous
370
    13
100
AcDbLine
 10
-906.7933746077907
 20
472.4834283931781
 30
0.0
 11
-857.2596965108752
 21
528.8607457715489
 31
0.0
  0
CIRCLE
  5
310
330
1F
100
AcDbEntity
  8
0
  6
Continuous
370
    13
100
AcDbCircle
 10
-910.0935707555747
 20
468.7272727273207
 30
0.0
 40
5.0
  0
HATCH
  5
311
330
1F
100
AcDbEntity
  8
0
  6
Continuous
370
    13
100
AcDbHatch
 10
0.0
 20
0.0
 30
0.0
210
0.0
220
0.0
230
1.0
  2
SOLID
 70
     1
 71
     0
 91
        1
 92
        2
 72
     0
 73
     1
 93
       16
 10
-905.0935707555747
 20
468.7272727273207
 10
-905.4741730930182
 20
470.6406898891462
 10
-906.5580368496419
 20
472.2628066332535
 10
-908.1801535937492
 20
473.3466703898771
 10
-910.0935707555747
 20
473.7272727273207
 10
-912.0069879174001
 20
473.3466703898771
 10
-913.6291046615074
 20
472.2628066332535
 10
-914.7129684181311
 20
470.6406898891462
 10
-915.0935707555747
 20
468.7272727273207
 10
-914.7129684181311
 20
466.8138555654953
 10
-913.6291046615074
 20
465.191738821388
 10
-912.0069879174001
 20
464.1078750647643
 10
-910.0935707555747
 20
463.7272727273207
 10
-908.1801535937492
 20
464.1078750647643
 10
-906.5580368496419
 20
465.191738821388
 10
-905.4741730930182
 20
466.8138555654953
 97
        0
 75
     0
 76
     1
 98
        0
  0
LINE
  5
312
330
1F
100
AcDbEntity
  8
0
  6
Continuous
370
    35
100
AcDbLine
 10
-2004.240427979348
 20
334.9221938775991
 30
0.0
 11
-2029.893492050959
 21
334.9221938775991
 31
0.0
  0
CIRCLE
  5
313
330
1F
100
AcDbEntity
  8
0
  6
Continuous
370
    13
100
AcDbCircle
 10
-2034.893492050959
 20
334.9221938775991
 30
0.0
 40
5.0
  0
HATCH
  5
314
330
1F
100
AcDbEntity
  8
0
  6
Continuous
370
    13
100
AcDbHatch
 10
0.0
 20
0.0
 30
0.0
210
0.0
220
0.0
230
1.0
  2
SOLID
 70
     1
 71
     0
 91
        1
 92
        2
 72
     0
 73
     1
 93
       16
 10
-2029.893492050959
 20
334.9221938775991
 10
-2030.274094388402
 20
336.8356110394245
 10
-2031.357958145026
 20
338.4577277835318
 10
-2032.980074889133
 20
339.5415915401555
 10
-2034.893492050959
 20
339.9221938775991
 10
-2036.806909212785
 20
339.5415915401555
 10
-2038.429025956892
 20
338.4577277835318
 10
-2039.512889713516
 20
336.8356110394245
 10
-2039.893492050959
 20
334.9221938775991
 10
-2039.512889713516
 20
333.0087767157735
 10
-2038.429025956892
 20
331.3866599716663
 10
-2036.806909212785
 20
330.3027962150426
 10
-2034.893492050959
 20
329.922193877599
 10
-2032.980074889133
 20
330.3027962150426
 10
-2031.357958145026
 20
331.3866599716663
 10
-2030.274094388402
 20
333.0087767157735
 97
        0
 75
     0
 76
     1
 98
        0
  0
LINE
  5
315
330
1F
100
AcDbEntity
  8
0
  6
Continuous
370
    13
100
AcDbLine
 10
-2696.321787323277
 20
512.479950335079
 30
0.0
 11
-2750.404578641787
 21
454.3868643381492
 31
0.0
  0
CIRCLE
  5
316
330
1F
100
AcDbEntity
  8
0
  6
Continuous
370
    13
100
AcDbCircle
 10
-2753.811540520346
 20
450.727272727321
 30
0.0
 40
5.0
  0
HATCH
  5
317
330
1F
100
AcDbEntity
  8
0
  6
Continuous
370
    13
100
AcDbHatch
 10
0.0
 20
0.0
 30
0.0
210
0.0
220
0.0
230
1.0
  2
SOLID
 70
     1
 71
     0
 91
        1
 92
        2
 72
     0
 73
     1
 93
       16
 10
-2748.811540520346
 20
450.727272727321
 10
-2749.192142857789
 20
452.6406898891464
 10
-2750.276006614413
 20
454.2628066332537
 10
-2751.89812335852
 20
455.3466703898774
 10
-2753.811540520346
 20
455.727272727321
 10
-2755.724957682171
 20
455.3466703898774
 10
-2757.347074426279
 20
454.2628066332537
 10
-2758.430938182903
 20
452.6406898891464
 10
-2758.811540520346
 20
450.727272727321
 10
-2758.430938182903
 20
448.8138555654955
 10
-2757.347074426279
 20
447.1917388213882
 10
-2755.724957682171
 20
446.1078750647645
 10
-2753.811540520346
 20
445.727272727321
 10
-2751.89812335852
 20
446.1078750647645
 10
-2750.276006614413
 20
447.1917388213882
 10
-2749.192142857789
 20
448.8138555654955
 97
        0
 75
     0
 76
     1
 98
        0
  0
LINE
  5
318
330
1F
100
AcDbEntity
  8
0
  6
Continuous
370
    13
100
AcDbLine
 10
-297.6290564141358
 20
602.227272727321
 30
0.0
 11
-353.0583936613128
 21
602.227272727321
 31
0.0
  0
CIRCLE
  5
319
330
1F
100
AcDbEntity
  8
0
  6
Continuous
370
    13
100
AcDbCircle
 10
-292.6290564141358
 20
602.227272727321
 30
0.0
 40
5.0
  0
HATCH
  5
31A
330
1F
100
AcDbEntity
  8
0
  6
Continuous
370
    13
100
AcDbHatch
 10
0.0
 20
0.0
 30
0.0
210
0.0
220
0.0
230
1.0
  2
SOLID
 70
     1
 71
     0
 91
        1
 92
        2
 72
     0
 73
     1
 93
       16
 10
-287.6290564141358
 20
602.227272727321
 10
-288.0096587515794
 20
604.1406898891464
 10
-289.0935225082031
 20
605.7628066332536
 10
-290.7156392523104
 20
606.8466703898774
 10
-292.6290564141358
 20
607.227272727321
 10
-294.5424735759613
 20
606.8466703898774
 10
-296.1645903200686
 20
605.7628066332536
 10
-297.2484540766923
 20
604.1406898891464
 10
-297.6290564141358
 20
602.227272727321
 10
-297.2484540766923
 20
600.3138555654955
 10
-296.1645903200686
 20
598.6917388213882
 10
-294.5424735759613
 20
597.6078750647645
 10
-292.6290564141358
 20
597.227272727321
 10
-290.7156392523104
 20
597.6078750647645
 10
-289.0935225082031
 20
598.6917388213882
 10
-288.0096587515794
 20
600.3138555654955
 97
        0
 75
     0
 76
     1
 98
        0
  0
LINE
  5
31B
330
1F
100
AcDbEntity
  8
0
  6
Continuous
370
    13
100
AcDbLine
 10
-362.6166223899579
 20
512.479950335079
 30
0.0
 11
-308.5338310714475
 21
454.3868643381492
 31
0.0
  0
CIRCLE
  5
31C
330
1F
100
AcDbEntity
  8
0
  6
Continuous
370
    13
100
AcDbCircle
 10
-305.1268691928884
 20
450.727272727321
 30
0.0
 40
5.0
  0
HATCH
  5
31D
330
1F
100
AcDbEntity
  8
0
  6
Continuous
370
    13
100
AcDbHatch
 10
0.0
 20
0.0
 30
0.0
210
0.0
220
0.0
230
1.0
  2
SOLID
 70
     1
 71
     0
 91
        1
 92
        2
 72
     0
 73
     1
 93
       16
 10
-300.1268691928883
 20
450.727272727321
 10
-300.5074715303319
 20
452.6406898891464
 10
-301.5913352869556
 20
454.2628066332537
 10
-303.2134520310628
 20
455.3466703898774
 10
-305.1268691928884
 20
455.727272727321
 10
-307.0402863547138
 20
455.3466703898774
 10
-308.6624030988211
 20
454.2628066332537
 10
-309.7462668554448
 20
452.6406898891464
 10
-310.1268691928884
 20
450.727272727321
 10
-309.7462668554448
 20
448.8138555654955
 10
-308.6624030988211
 20
447.1917388213882
 10
-307.0402863547138
 20
446.1078750647645
 10
-305.1268691928884
 20
445.727272727321
 10
-303.2134520310628
 20
446.1078750647645
 10
-301.5913352869556
 20
447.1917388213882
 10
-300.5074715303319
 20
448.8138555654955
 97
        0
 75
     0
 76
     1
 98
        0
  0
LINE
  5
31E
330
1F
100
AcDbEntity
  8
0
  6
Continuous
370
    35
100
AcDbLine
 10
-300.0935707555752
 20
884.7272727273214
 30
0.0
 11
-285.0935707555746
 21
884.7272727273211
 31
0.0
  0
LINE
  5
31F
330
1F
100
AcDbEntity
  8
0
  6
Continuous
370
    35
100
AcDbLine
 10
-300.0935707555752
 20
899.727272727322
 30
0.0
 11
-285.0935707555746
 21
899.7272727273216
 31
0.0
  0
LINE
  5
320
330
1F
100
AcDbEntity
  8
0
  6
Continuous
370
    35
100
AcDbLine
 10
-340.0935707555743
 20
899.7272727273216
 30
0.0
 11
-159.9075670723313
 21
899.7272727273216
 31
0.0
  0
LINE
  5
321
330
1F
100
AcDbEntity
  8
0
  6
Continuous
370
    35
100
AcDbLine
 10
-159.9075670723313
 20
999.7272727273219
 30
0.0
 11
-310.093570755575
 21
999.7272727273219
 31
0.0
  0
LINE
  5
322
330
1F
100
AcDbEntity
  8
0
  6
Kreski i kropki
370
    13
100
AcDbLine
 10
-166.0331210840043
 20
949.7272727273216
 30
0.0
 11
-340.0935707555743
 21
949.727272727323
 31
0.0
  0
LINE
  5
323
330
1F
100
AcDbEntity
  8
0
  6
Continuous
370
    35
100
AcDbLine
 10
-300.0935707555752
 20
899.7272727273216
 30
0.0
 11
-285.0935707555746
 21
899.7272727273214
 31
0.0
  0
LINE
  5
324
330
1F
100
AcDbEntity
  8
0
  6
Continuous
370
    35
100
AcDbLine
 10
-253.0935707555746
 20
899.7272727273216
 30
0.0
 11
-253.0935707555746
 21
442.7272727273207
 31
0.0
  0
LINE
  5
325
330
1F
100
AcDbEntity
  8
0
  6
Continuous
370
    35
100
AcDbLine
 10
-269.0935707555746
 20
458.7272727273207
 30
0.0
 11
-269.0935707555746
 21
899.7272727273217
 31
0.0
  0
LINE
  5
326
330
1F
100
AcDbEntity
  8
0
  6
Continuous
370
    35
100
AcDbLine
 10
-300.0935707555752
 20
549.7272727273211
 30
0.0
 11
-300.0935707555752
 21
899.7272727273216
 31
0.0
  0
LINE
  5
327
330
1F
100
AcDbEntity
  8
0
  6
Continuous
370
    35
100
AcDbLine
 10
-285.0935707555746
 20
504.7272727273208
 30
0.0
 11
-285.0935707555746
 21
899.7272727273216
 31
0.0
  0
LINE
  5
328
330
1F
100
AcDbEntity
  8
0
  6
Continuous
370
    35
100
AcDbLine
 10
-300.0935707555752
 20
1014.727272727322
 30
0.0
 11
-285.0935707555746
 21
1014.727272727323
 31
0.0
  0
LINE
  5
329
330
1F
100
AcDbEntity
  8
0
  6
Continuous
370
    35
100
AcDbLine
 10
-300.0935707555752
 20
999.7272727273219
 30
0.0
 11
-285.0935707555746
 21
999.7272727273221
 31
0.0
  0
LINE
  5
32A
330
1F
100
AcDbEntity
  8
0
  6
Kreski i kropki
370
    13
100
AcDbLine
 10
-400.0935707555731
 20
1730.000000000049
 30
0.0
 11
-400.0935707555731
 21
1039.727272727322
 31
0.0
  0
LINE
  5
32B
330
1F
100
AcDbEntity
  8
0
  6
Continuous
370
    35
100
AcDbLine
 10
-253.0935707555746
 20
1730.000000000049
 30
0.0
 11
-253.0935707555746
 21
999.7272727273219
 31
0.0
  0
LINE
  5
32C
330
1F
100
AcDbEntity
  8
0
  6
Continuous
370
    35
100
AcDbLine
 10
-269.0935707555746
 20
999.7272727273219
 30
0.0
 11
-269.0935707555746
 21
1730.000000000049
 31
0.0
  0
LINE
  5
32D
330
1F
100
AcDbEntity
  8
0
  6
Continuous
370
    35
100
AcDbLine
 10
-285.0935707555746
 20
999.7272727273219
 30
0.0
 11
-285.0935707555746
 21
1730.000000000049
 31
0.0
  0
LINE
  5
32E
330
1F
100
AcDbEntity
  8
0
  6
Continuous
370
    35
100
AcDbLine
 10
-300.0935707555752
 20
999.7272727273219
 30
0.0
 11
-300.0935707555752
 21
1730.000000000049
 31
0.0
  0
LINE
  5
32F
330
1F
100
AcDbEntity
  8
0
  6
Continuous
370
    35
100
AcDbLine
 10
-450.0935707555738
 20
1009.727272727322
 30
0.0
 11
-450.0935707555738
 21
1730.000000000049
 31
0.0
  0
LINE
  5
330
330
1F
100
AcDbEntity
  8
0
  6
Continuous
370
    35
100
AcDbLine
 10
-350.0935707555741
 20
1039.727272727322
 30
0.0
 11
-350.0935707555741
 21
1730.000000000049
 31
0.0
  0
LINE
  5
331
330
1F
100
AcDbEntity
  8
0
  6
Continuous
 62
    22
370
    50
100
AcDbLine
 10
-261.0935707555755
 20
899.7272727273215
 30
0.0
 11
-261.0935707555755
 21
808.2343750000484
 31
0.0
  0
LINE
  5
332
330
1F
100
AcDbEntity
  8
0
  6
Continuous
370
    13
100
AcDbLine
 10
-297.0973877635803
 20
890.3143115258055
 30
0.0
 11
-354.4502298575929
 21
868.736090120288
 31
0.0
  0
CIRCLE
  5
333
330
1F
100
AcDbEntity
  8
0
  6
Continuous
370
    13
100
AcDbCircle
 10
-292.4176467347768
 20
892.0750000000485
 30
0.0
 40
5.0
  0
HATCH
  5
334
330
1F
100
AcDbEntity
  8
0
  6
Continuous
370
    13
100
AcDbHatch
 10
0.0
 20
0.0
 30
0.0
210
0.0
220
0.0
230
1.0
  2
SOLID
 70
     1
 71
     0
 91
        1
 92
        2
 72
     0
 73
     1
 93
       16
 10
-287.4176467347768
 20
892.0750000000485
 10
-287.7982490722204
 20
893.9884171618739
 10
-288.882112828844
 20
895.6105339059812
 10
-290.5042295729513
 20
896.694397662605
 10
-292.4176467347768
 20
897.0750000000485
 10
-294.3310638966022
 20
896.694397662605
 10
-295.9531806407095
 20
895.6105339059812
 10
-297.0370443973332
 20
893.9884171618739
 10
-297.4176467347768
 20
892.0750000000485
 10
-297.0370443973332
 20
890.161582838223
 10
-295.9531806407095
 20
888.5394660941157
 10
-294.3310638966022
 20
887.455602337492
 10
-292.4176467347768
 20
887.0750000000485
 10
-290.5042295729513
 20
887.455602337492
 10
-288.882112828844
 20
888.5394660941157
 10
-287.7982490722204
 20
890.161582838223
 97
        0
 75
     0
 76
     1
 98
        0
  0
LINE
  5
335
330
1F
100
AcDbEntity
  8
0
  6
Continuous
370
    13
100
AcDbLine
 10
-265.7221061500628
 20
836.9207838045479
 30
0.0
 11
-354.7574636634896
 21
800.5411977743632
 31
0.0
  0
CIRCLE
  5
336
330
1F
100
AcDbEntity
  8
0
  6
Continuous
370
    13
100
AcDbCircle
 10
-261.0935707555755
 20
838.8119897959667
 30
0.0
 40
5.0
  0
HATCH
  5
337
330
1F
100
AcDbEntity
  8
0
  6
Continuous
370
    13
100
AcDbHatch
 10
0.0
 20
0.0
 30
0.0
210
0.0
220
0.0
230
1.0
  2
SOLID
 70
     1
 71
     0
 91
        1
 92
        2
 72
     0
 73
     1
 93
       16
 10
-256.0935707555755
 20
838.8119897959667
 10
-256.4741730930191
 20
840.7254069577922
 10
-257.5580368496427
 20
842.3475237018995
 10
-259.18015359375
 20
843.4313874585232
 10
-261.0935707555755
 20
843.8119897959667
 10
-263.006987917401
 20
843.4313874585232
 10
-264.6291046615082
 20
842.3475237018995
 10
-265.7129684181319
 20
840.7254069577922
 10
-266.0935707555755
 20
838.8119897959667
 10
-265.7129684181319
 20
836.8985726341413
 10
-264.6291046615082
 20
835.276455890034
 10
-263.006987917401
 20
834.1925921334102
 10
-261.0935707555755
 20
833.8119897959667
 10
-259.18015359375
 20
834.1925921334102
 10
-257.5580368496427
 20
835.276455890034
 10
-256.4741730930191
 20
836.8985726341413
 97
        0
 75
     0
 76
     1
 98
        0
  0
LINE
  5
338
330
1F
100
AcDbEntity
  8
0
  6
Continuous
370
    13
100
AcDbLine
 10
-100.0000000000001
 20
170.0000000000482
 30
0.0
 11
-100.0000000000001
 21
-49.99999999995153
 31
0.0
  0
LINE
  5
339
330
1F
100
AcDbEntity
  8
0
  6
Continuous
370
    13
100
AcDbLine
 10
-1900.0
 20
-49.99999999995241
 30
0.0
 11
-100.0000000000001
 21
-49.99999999995241
 31
0.0
  0
LINE
  5
33A
330
1F
100
AcDbEntity
  8
0
  6
Continuous
370
    50
100
AcDbLine
 10
-1384.007902250505
 20
190.0000000000483
 30
0.0
 11
-1384.007902250505
 21
1003.65459697637
 31
0.0
  0
LWPOLYLINE
  5
33B
330
1F
100
AcDbEntity
  8
@__WIDOCZNE
  6
Continuous
370
    13
100
AcDbPolyline
 90
        4
 70
   129
 43
0.0
 10
-3019.999999999997
 20
-100.0000000003142
 10
-3019.999999999997
 20
2000.00000000005
 10
-49.99999999999672
 20
2000.000000000049
 10
-49.99999999999716
 20
-100.0000000003146
  0
LWPOLYLINE
  5
33C
330
1F
100
AcDbEntity
  8
@__WIDOCZNE
  6
Continuous
370
    13
100
AcDbPolyline
 90
        2
 70
   129
 43
0.0
 10
-100.0000000000001
 20
10.00000000004719
 10
-1364.269721801271
 20
10.00000000004719
  0
LWPOLYLINE
  5
33D
330
1F
100
AcDbEntity
  8
@__WIDOCZNE
  6
Continuous
370
    13
100
AcDbPolyline
 90
        4
 70
   129
 43
0.0
 10
-1900.000000000181
 20
170.0000000000473
 10
-1900.000000000181
 20
-49.9999999999533
 10
-100.0000000000001
 20
-49.99999999995153
 10
-100.0000000000001
 20
170.0000000000473
  0
LWPOLYLINE
  5
33E
330
1F
100
AcDbEntity
  8
@__WIDOCZNE
  6
Continuous
370
    13
100
AcDbPolyline
 90
        2
 70
   128
 43
0.0
 10
-239.9999999998728
 20
120.0000000000484
 10
-239.9999999998728
 20
170.0000000000473
  0
LWPOLYLINE
  5
33F
330
1F
100
AcDbEntity
  8
@__WIDOCZNE
  6
Continuous
370
    13
100
AcDbPolyline
 90
        2
 70
   128
 43
0.0
 10
-100.0000000000001
 20
120.0000000000484
 10
-409.9999999999455
 20
120.0000000000484
  0
LWPOLYLINE
  5
340
330
1F
100
AcDbEntity
  8
@__WIDOCZNE
  6
Continuous
370
    13
100
AcDbPolyline
 90
        2
 70
   128
 43
0.0
 10
-409.9999999999455
 20
10.00000000004719
 10
-409.9999999999455
 20
170.0000000000473
  0
LWPOLYLINE
  5
341
330
1F
100
AcDbEntity
  8
@__WIDOCZNE
  6
Continuous
370
    13
100
AcDbPolyline
 90
        2
 70
   128
 43
0.0
 10
-1364.269721801271
 20
170.0000000000473
 10
-1364.269721801271
 20
-49.9999999999533
  0
ARC
  5
342
330
1F
100
AcDbEntity
  8
0
  6
Continuous
370
    50
100
AcDbCircle
 10
-2173.931664634893
 20
304.7272727273209
 30
0.0
 40
19.99999999999957
100
AcDbArc
 50
180.0
 51
270.0
  0
ARC
  5
343
330
1F
100
AcDbEntity
  8
0
  6
Continuous
370
    50
100
AcDbCircle
 10
-2064.308624712389
 20
304.7272727273209
 30
0.0
 40
19.99999999999957
100
AcDbArc
 50
270.0
 51
0.0
  0
ARC
  5
344
330
1F
100
AcDbEntity
  8
0
  6
Continuous
370
    35
100
AcDbCircle
 10
-2149.12014467364
 20
309.727272727321
 30
0.0
 40
10.00000000000001
100
AcDbArc
 50
90.0
 51
180.0
  0
ARC
  5
345
330
1F
100
AcDbEntity
  8
0
  6
Continuous
370
    35
100
AcDbCircle
 10
-2089.120144673642
 20
309.727272727321
 30
0.0
 40
9.999999999999787
100
AcDbArc
 50
0.0
 51
90.0
  0
ARC
  5
346
330
1F
100
AcDbEntity
  8
0
  6
Continuous
370
    35
100
AcDbCircle
 10
-2698.934140990396
 20
549.727272727321
 30
0.0
 40
60.0000000000005
100
AcDbArc
 50
180.0
 51
270.0
  0
ARC
  5
347
330
1F
100
AcDbEntity
  8
0
  6
Continuous
370
    35
100
AcDbCircle
 10
-2717.448990180412
 20
1009.727272727322
 30
0.0
 40
13.48404213510828
100
AcDbArc
 50
132.1306256174455
 51
227.8693743825544
  0
ARC
  5
348
330
1F
100
AcDbEntity
  8
0
  6
Continuous
370
    35
100
AcDbCircle
 10
-2735.539804678535
 20
1009.727272727322
 30
0.0
 40
13.48404213510828
100
AcDbArc
 50
312.1306256174454
 51
47.8693743825545
  0
ARC
  5
349
330
1F
100
AcDbEntity
  8
0
  6
Continuous
370
    35
100
AcDbCircle
 10
-2735.539804678535
 20
989.7272727273221
 30
0.0
 40
13.48404213510828
100
AcDbArc
 50
312.1306256174454
 51
47.8693743825545
  0
ARC
  5
34A
330
1F
100
AcDbEntity
  8
0
  6
Continuous
370
    35
100
AcDbCircle
 10
-360.0935707555757
 20
549.7272727273211
 30
0.0
 40
60.0000000000005
100
AcDbArc
 50
270.0
 51
0.0
  0
ARC
  5
34B
330
1F
100
AcDbEntity
  8
0
  6
Kreski i kropki
370
    13
100
AcDbCircle
 10
-340.0935707555743
 20
1009.727272727322
 30
0.0
 40
59.99999999999872
100
AcDbArc
 50
180.0
 51
270.0
  0
ARC
  5
34C
330
1F
100
AcDbEntity
  8
0
  6
Continuous
370
    35
100
AcDbCircle
 10
-310.093570755575
 20
1039.727272727322
 30
0.0
 40
39.99999999999915
100
AcDbArc
 50
180.0
 51
270.0
  0
ARC
  5
34D
330
1F
100
AcDbEntity
  8
0
  6
Continuous
370
    35
100
AcDbCircle
 10
-340.0935707555743
 20
1009.727272727322
 30
0.0
 40
110.0000000000001
100
AcDbArc
 50
180.0
 51
270.0
  0
CIRCLE
  5
34E
330
1F
100
AcDbEntity
  8
0
  6
Continuous
370
    35
100
AcDbCircle
 10
-910.0935707555747
 20
468.7272727273207
 30
0.0
 40
9.999999999999787
  0
MTEXT
  5
350
330
1F
100
AcDbEntity
  8
0
  6
Continuous
370
    13
100
AcDbMText
 10
-1152.113587479708
 20
1701.154477962607
 30
0.0
 40
19.99999999999998
 41
0.0
 71
     1
 72
     1
  3
\A1;{\fArial|b1|i0|c238|p38;ŚCIANA\fArial|b0|i0|c238|p38; (krótkotrwałe obciążenie agresywnymi mediami)\P•  CHEMOODPORNE PŁYTKI\P• WYPEŁNIENIE SPOIN - FUGA CHEMOODPORNA \P  - \fArial|b1|i0|c238|p38;BOTAMENT TF150 / CF200 / SF100 / EKF500\P\fArial|b0
  3
|i0|c238|p38;  - \fArial|b1|i0|c238|p38;MULTIFUGE Diamond MAX\P\fArial|b0|i0|c238|p38;• \fArial|b1|i0|c238|p38;KLEJ CHEMOODPORNY - BOTAMENT TK150 / \P  EKF500\P\fArial|b0|i0|c238|p38;• IZOLACJA CHEMOODPORNA -\P  ŻYWICA REAKTYWNA \fArial|b1|i0|c238|p
  1
38;BOTAMENT RA170\P\fArial|b0|i0|c238|p38;• WARSTWA GRUNTUJĄCA - \fArial|b1|i0|c238|p38;BOTAMENT E120\P\fArial|b0|i0|c238|p38;• WARSTWA NOŚNA - ŚCIANA}
  7
GENERATED_STYLE_2
 73
     1
 44
0.9096437118535396
  0
MTEXT
  5
351
330
1F
100
AcDbEntity
  8
0
  6
Continuous
370
    13
100
AcDbMText
 10
-1920.417739266208
 20
1729.6365661021
 30
0.0
 40
30.0
 41
0.0
 71
     1
 72
     1
  1
{\LLEGENDA:}
  7
GENERATED_STYLE_1
 73
     1
 44
1.0
  0
MTEXT
  5
352
330
1F
100
AcDbEntity
  8
0
  6
Continuous
370
    13
100
AcDbMText
 10
-2537.327538446058
 20
999.0831684049411
 30
0.0
 40
20.0
 41
0.0
 71
     1
 72
     1
  3
\A1;{\fArial|b1|i0|c238|p38;PODŁOGA \fArial|b0|i0|c238|p38;(krótkotrwałe obciążenie agresywnymi mediami)\P• ANTYPOŚLIZGOWE PŁYTKI\P• WYPEŁNIENIE SPOIN - FUGA CHEMOODPORNA - \fArial|b1|i0|c238|p38;BOTAMENT TF150 / CF200 / \P  SF100 / EKF500\fArial|b0
  3
|i0|c238|p38;, \fArial|b1|i0|c238|p38;MULTIFUGE Diamond MAX\P\fArial|b0|i0|c238|p38;• KLEJ DO PŁYTEK - \fArial|b1|i0|c238|p38;BOTAMENT M29 / M29 HP \fArial|b0|i0|c238|p38;(elastyczny, samorozprowadzalny)\P• IZOLACJA PRZECIWWILGOCIOWA - MEMBRANA\P  U
  3
SZCZELNIAJĄCO-KOMPENSUJĄCA \fArial|b1|i0|c238|p38;BOTAMENT AE \fArial|b0|i0|c238|p38;WKLEJONA NA ELASTYCZNĄ \P  ZAPRAWĘ KLEJOWĄ \fArial|b1|i0|c238|p38;BOTAMENT M21 / M21 HP Speed\P\fArial|b0|i0|c238|p38;  lub ZAPRAWA USZCZELNIAJĄCA \fArial|b1|i0|c23
  1
8|p38;BOTAMENT MD28\P\fArial|b0|i0|c238|p38;• WARSTWA GRUNTUJĄCA - \fArial|b1|i0|c238|p38;BOTAMENT D11 / D1 SPEED \fArial|b0|i0|c238|p38;(bezrozpuszczalnikowa)\P• WARSTWA NOŚNA - JASTRYCH CEMENTOWY, BETON}
  7
GENERATED_STYLE_2
 73
     1
 44
0.9070499218287884
  0
MTEXT
  5
353
330
1F
100
AcDbEntity
  8
0
  6
Continuous
370
    13
100
AcDbMText
 10
-1372.401299706163
 20
999.0831684049411
 30
0.0
 40
20.0
 41
0.0
 71
     1
 72
     1
  3
\A1;{\fArial|b1|i0|c238|p38;PODŁOGA \fArial|b0|i0|c238|p38;(krótkotrwałe obciążenie agresywnymi mediami)\P• CHEMOODPORNE, ANTYPOŚLIZGOWE PŁYTKI\P• WYPEŁNIENIE SPOIN - FUGA CHEMOODPORNA \P  - \fArial|b1|i0|c238|p38;BOTAMENT TF150 / CF200 / SF100 / EK
  3
F500\P\fArial|b0|i0|c238|p38;  - \fArial|b1|i0|c238|p38;MULTIFUGE Diamond\P\fArial|b0|i0|c238|p38;• CHEMOODPORNY KLEJ DO PŁYTEK - \fArial|b1|i0|c238|p38;BOTAMENT TK150 / EKF500\P\fArial|b0|i0|c238|p38;• IZOLACJA CHEMOODPORNA\P  ŻYWICA REAKTYWNA \fAr
  1
ial|b1|i0|c238|p38;BOTAMENT RA170 \P\fArial|b0|i0|c238|p38;• WARSTWA GRUNTUJĄCA - \fArial|b1|i0|c238|p38;BOTAMENT E120\P\fArial|b0|i0|c238|p38;• WARSTWA NOŚNA - JASTRYCH CEMENTOWY, BETON}
  7
GENERATED_STYLE_2
 73
     1
 44
0.8930294988390617
  0
MTEXT
  5
354
330
1F
100
AcDbEntity
  8
0
  6
Continuous
370
    13
100
AcDbMText
 10
-2717.327538446055
 20
1701.154477962607
 30
0.0
 40
20.0
 41
0.0
 71
     1
 72
     1
  3
\A1;{\fArial|b1|i0|c238|p38;ŚCIANA\fArial|b0|i0|c238|p38; (krótkotrwałe obciążenie agresywnymi mediami)\P• PŁYTKI CHEMOODPORNE \P• WYPEŁNIENIE SPOIN - FUGA CHEMOODPORNA \P  - \fArial|b1|i0|c238|p38;BOTAMENT TF150 / CF200 / SF100 / EKF 500\P\fArial|b
  3
0|i0|c238|p38;  - \fArial|b1|i0|c238|p38;MULTIFUGE Diamond MAX\P\fArial|b0|i0|c238|p38;• KLEJ DO PŁYTEK - \fArial|b1|i0|c238|p38;BOTAMENT M21 / M21 HP\P\fArial|b0|i0|c238|p38;• IZOLACJA PRZECIWWILGOCIOWA - MEMBRANA\P  USZCZELNIAJĄCO-KOMPENSUJĄCA \fA
  3
rial|b1|i0|c238|p38;BOTAMENT AE \fArial|b0|i0|c238|p38;lub \P  ZAPRAWA USZCZELNIAJĄCA \fArial|b1|i0|c238|p38;BOTAMENT MD28\P\fArial|b0|i0|c238|p38;• POWŁOKA GRUNTUJĄCA - \fArial|b1|i0|c238|p38;BOTAMENT D11 / D1 Speed\P\fArial|b0|i0|c238|p38;  (bezro
  1
zpuszczalnikowa)  \P• WARSTWA NOŚNA - ŚCIANA}
  7
GENERATED_STYLE_2
 73
     1
 44
0.920634228216856
  0
MTEXT
  5
355
330
1F
100
AcDbEntity
  8
0
  6
Continuous
370
    13
100
AcDbMText
 10
-1857.802273375411
 20
1664.286142857192
 30
0.0
 40
20.0
 41
0.0
 71
     1
 72
     1
  3
\A1;{\fArial|b0|i0|c238|p38;- ELASTYCZNA MASA USZCZELNIAJĄCA\P \fArial|b1|i0|c238|p38; MYCOFLEX 4000SP \fArial|b0|i0|c238|p38;NA PODKŁADZIE\P  \fArial|b1|i0|c238|p38;MYCOFLEX 4100TS\fArial|b0|i0|c238|p38; (podkład gruntujący \P  na podłoża metaliczn
  1
e)}
  7
GENERATED_STYLE_1
 73
     1
 44
0.9295984134853743
  0
MTEXT
  5
356
330
1F
100
AcDbEntity
  8
0
  6
Continuous
370
    13
100
AcDbMText
 10
-1857.802273375411
 20
1490.833937928745
 30
0.0
 40
20.0
 41
0.0
 71
     4
 72
     1
  1
\A1;{\fArial|b0|i0|c238|p38;- IZOLACJA PRZEJŚĆ INSTALACYJNYCH\P  \fArial|b1|i0|c238|p38;BOTAMENT SB78\fArial|b0|i0|c238|p38;  (mankiet uszczelniający\P  zatopiony w warstwie izolacyjnej)}
  7
GENERATED_STYLE_1
 73
     1
 44
0.9262325910374366
  0
MTEXT
  5
357
330
1F
100
AcDbEntity
  8
0
  6
Continuous
370
    13
100
AcDbMText
 10
-1857.802273375411
 20
1422.30483708002
 30
0.0
 40
20.0
 41
0.0
 71
     4
 72
     1
  1
{- WPUST PODŁOGOWY ZE STALI NIERDZEWNEJ}
  7
GENERATED_STYLE_1
 73
     1
 44
1.0
  0
MTEXT
  5
358
330
1F
100
AcDbEntity
  8
0
  6
Continuous
370
    13
100
AcDbMText
 10
-1857.802273375411
 20
1325.785235084874
 30
0.0
 40
19.99999999999999
 41
0.0
 71
     4
 72
     1
  1
\A1;{\fArial|b0|i0|c238|p38;- OSADZENIE WPUSTU NA ZAPRAWĘ Z ŻYWICY\P  EPOKSYDOWEJ \fArial|b1|i0|c238|p38;BOTAMENT E120\fArial|b0|i0|c238|p38; Z PIASKIEM\P  KWARCOWYM W PROPORCJACH 1:4\P}
  7
GENERATED_STYLE_1
 73
     1
 44
1.0
  0
MTEXT
  5
359
330
1F
100
AcDbEntity
  8
0
  6
Continuous
370
    13
100
AcDbMText
 10
-1857.802273375411
 20
1139.024416898855
 30
0.0
 40
20.0
 41
0.0
 71
     4
 72
     1
  1
\A1;{\fArial|b0|i0|c238|p38;- TAŚMA USZCZELNIAJĄCA - \fArial|b1|i0|c238|p38;BOTAMENT SB78 / FB\P\fArial|b0|i0|c238|p38;  (wtopiona w warstwę izolacji)}
  7
GENERATED_STYLE_1
 73
     1
 44
0.9186980100444315
  0
MTEXT
  5
35A
330
1F
100
AcDbEntity
  8
0
  6
Continuous
370
    13
100
AcDbMText
 10
-1857.802273375411
 20
1084.727334358665
 30
0.0
 40
20.0
 41
0.0
 71
     4
 72
     1
  1
{- SZNUR POLIETYLENOWY}
  7
GENERATED_STYLE_1
 73
     1
 44
1.0
  0
MTEXT
  5
35B
330
1F
100
AcDbEntity
  8
0
  6
Continuous
370
    13
100
AcDbMText
 10
-1857.802273375411
 20
1223.942055066323
 30
0.0
 40
20.0
 41
0.0
 71
     4
 72
     1
  1
\A1;{\fArial|b0|i0|c238|p38;- IZOLACJA WPUSTU PODŁOGOWEGO\P  \fArial|b1|i0|c238|p38;BOTAMENT SB78 \fArial|b0|i0|c238|p38;(mankiet uszczelniający\P  425 x 425 mm zatopiony w warstwie izolacyjnej)}
  7
GENERATED_STYLE_1
 73
     1
 44
0.9277402777035897
  0
MTEXT
  5
35C
330
1F
100
AcDbEntity
  8
@__WIDOCZNE
  6
Continuous
370
    13
100
AcDbMText
 10
-888.2185859206402
 20
78.23236687056323
 30
0.0
 40
27.99999999999999
 41
0.0
 71
     5
 72
     1
  1
\A1;{\fArial|b1|i0|c238|p38;OKŁADZINY I IZOLACJE CHEMOODPORNE\PPRZEMYSŁ SPOŻYWCZY\P\fArial|b0|i0|c238|p38;(rzeźnie, piekarnie, mleczarnie, itp.)}
  7
GENERATED_STYLE_2
 73
     1
 44
0.8627947228337314
  0
MTEXT
  5
35D
330
1F
100
AcDbEntity
  8
@__WIDOCZNE
  6
Continuous
370
    13
100
AcDbMText
 10
-410.0010442849862
 20
22.91450933378066
 30
0.0
 40
39.99999999999998
 41
0.0
 71
     7
 72
     1
  1
{ 10.01.00. }
  7
GENERATED_STYLE_2
 73
     1
 44
1.0
  0
MTEXT
  5
35E
330
1F
100
AcDbEntity
  8
@__WIDOCZNE
  6
Continuous
370
    13
100
AcDbMText
 10
-409.8744154121667
 20
116.0000130985188
 30
0.0
 40
15.0
 41
0.0
 71
     1
 72
     1
  1
{ nr rys:}
  7
GENERATED_STYLE_1
 73
     1
 44
1.0
  0
MTEXT
  5
35F
330
1F
100
AcDbEntity
  8
@__WIDOCZNE
  6
Continuous
370
    13
100
AcDbMText
 10
-384.2857142859431
 20
156.5714285714761
 30
0.0
 40
15.0
 41
0.0
 71
     2
 72
     1
  1
{ data:}
  7
GENERATED_STYLE_1
 73
     1
 44
1.0
  0
MTEXT
  5
360
330
1F
100
AcDbEntity
  8
@__WIDOCZNE
  6
Continuous
370
    13
100
AcDbMText
 10
-210.4285714286565
 20
156.5714285714761
 30
0.0
 40
15.0
 41
0.0
 71
     2
 72
     1
  1
{ skala:}
  7
GENERATED_STYLE_1
 73
     1
 44
1.0
  0
MTEXT
  5
361
330
1F
100
AcDbEntity
  8
@__WIDOCZNE
  6
Continuous
370
    13
100
AcDbMText
 10
-178.5716592711405
 20
126.4371586762067
 30
0.0
 40
20.0
 41
0.0
 71
     7
 72
     1
  1
{1:10  }
  7
GENERATED_STYLE_1
 73
     1
 44
1.0
  0
MTEXT
  5
362
330
1F
100
AcDbEntity
  8
@__WIDOCZNE
  6
Continuous
370
    13
100
AcDbMText
 10
-1353.999999999905
 20
-21.58548328397641
 30
0.0
 40
15.0
 41
0.0
 71
     4
 72
     1
  1
{Rysunek nie wyczerpuje wszystkich aspektów technicznych zagadnienia, a jego integralną częścią są karty techniczne \Pposzczególnych produktów. Szczegółowych informacji udzielają technicy zastosowań i doradcy handlowo-techniczni Botament. }
  7
GENERATED_STYLE_1
 73
     1
 44
0.9278263558916975
  0
MTEXT
  5
363
330
1F
100
AcDbEntity
  8
@__WIDOCZNE
  6
Continuous
370
    13
100
AcDbMText
 10
-354.103232467245
 20
126.4371840749935
 30
0.0
 40
20.0
 41
0.0
 71
     7
 72
     1
  1
{2023.01. }
  7
GENERATED_STYLE_1
 73
     1
 44
1.0
  0
MTEXT
  5
364
330
1F
100
AcDbEntity
  8
@__WIDOCZNE
  6
Continuous
370
    13
100
AcDbMText
 10
-1632.384354501668
 20
-19.73042995344096
 30
0.0
 40
15.0
 41
0.0
 71
     5
 72
     1
  1
{ ul. Prądzyńskiego 20, 63-000 Środa Wlkp., botament.pl\P +48 606-318-643, 61-286-45-17, technik@botament.pl  }
  7
GENERATED_STYLE_1
 73
     1
 44
0.9181612291118323
  0
MTEXT
  5
365
330
1F
100
AcDbEntity
  8
@__WIDOCZNE
  6
Continuous
370
    50
100
AcDbMText
 10
-2802.221483808059
 20
1756.437311934909
 30
0.0
 40
20.0
 41
0.0
 71
     9
 72
     1
  1
{druk: 230131 }
  7
GENERATED_STYLE_1
 73
     1
 44
1.0
  0
LINE
  5
366
330
1F
100
AcDbEntity
  8
0
  6
Continuous
 62
    22
370
    50
100
AcDbLine
 10
-2797.934140990396
 20
979.7272727273219
 30
0.0
 11
-2797.934140990396
 21
913.2735790543937
 31
0.0
  0
LINE
  5
367
330
1F
100
AcDbEntity
  8
0
  6
Continuous
 62
    22
370
    50
100
AcDbLine
 10
-2797.934140990396
 20
1019.727272727322
 30
0.0
 11
-2797.934140990396
 21
1089.26333954078
 31
0.0
  0
WIPEOUT
  5
389
330
1F
100
AcDbEntity
  8
2D - Ogólne
  6
Wipeout_Contour
 62
   254
 48
5567.919090568829
370
     0
 92
      140
310
8C000000010000008400000006000000050000007BA699A524BD70C0683282D32D0B9B4000000000000000007BA699A524BD70C03ADB8F6032418F4000000000000000007EB02F49A4AF6FC03ADB8F6032418F4000000000000000007EB02F49A4AF6FC0683282D32D0B9B4000000000000000007BA699A524BD70C0683282
310
D32D0B9B400000000000000000
100
AcDbWipeout
 90
        0
 10
-267.8214469911542
 20
1000.149598239782
 30
0.0
 11
14.33264256196321
 21
0.0
 31
0.0
 12
0.0
 22
730.6451539139259
 32
0.0
 13
1.0
 23
1.0
340
0
 70
    15
280
     1
281
    50
282
    50
283
     0
360
0
 71
     2
 91
        5
 14
-0.5
 24
-0.5000000000000001
 14
-0.5
 24
0.4999999999999998
 14
0.5
 24
0.4999999999999998
 14
0.5
 24
-0.5000000000000001
 14
-0.5
 24
-0.5000000000000001
  0
INSERT
  5
38A
330
1F
100
AcDbEntity
  8
2D - Ogólne
  6
Continuous
370
    13
100
AcDbBlockReference
  2
*X19
 10
0.0
 20
0.0
 30
0.0
  0
LINE
  5
38B
330
1F
100
AcDbEntity
  8
2D - Ogólne
  6
Continuous
370
    13
100
AcDbLine
 10
-267.8214469911542
 20
1730.794752153708
 30
0.0
 11
-267.8214469911542
 21
1000.149598239782
 31
0.0
  0
LINE
  5
38C
330
1F
100
AcDbEntity
  8
2D - Ogólne
  6
Continuous
370
    13
100
AcDbLine
 10
-267.8214469911542
 20
1000.149598239782
 30
0.0
 11
-253.488804429191
 21
1000.149598239782
 31
0.0
  0
LINE
  5
38D
330
1F
100
AcDbEntity
  8
2D - Ogólne
  6
Continuous
370
    13
100
AcDbLine
 10
-253.488804429191
 20
1000.149598239782
 30
0.0
 11
-253.488804429191
 21
1730.794752153708
 31
0.0
  0
LINE
  5
38E
330
1F
100
AcDbEntity
  8
2D - Ogólne
  6
Continuous
370
    13
100
AcDbLine
 10
-253.488804429191
 20
1730.794752153708
 30
0.0
 11
-267.8214469911542
 21
1730.794752153708
 31
0.0
  0
WIPEOUT
  5
38F
330
1F
100
AcDbEntity
  8
@__WIDOCZNE
  6
Wipeout_Contour
 62
   254
 48
2746.186343309691
370
     0
 92
      140
310
8C00000001000000840000000600000005000000793806A2BFB881C0A506000000C067400000000000000000793806A2BFB881C0AD5AD6922945804000000000000000007B3806A2BFE881C0AD5AD6922945804000000000000000007B3806A2BFE881C0A506000000C067400000000000000000793806A2BFB881C0A50600
310
0000C067400000000000000000
100
AcDbWipeout
 90
        0
 10
-573.0935707555758
 20
190.0000000000483
 30
0.0
 11
6.000000000000227
 21
0.0
 31
0.0
 12
0.0
 22
330.6452996011653
 32
0.0
 13
1.0
 23
1.0
340
0
 70
    15
280
     1
281
    50
282
    50
283
     0
360
0
 71
     2
 91
        5
 14
0.5
 24
0.4999999999999999
 14
0.5
 24
-0.5
 14
-0.5
 24
-0.5
 14
-0.5
 24
0.4999999999999999
 14
0.5
 24
0.4999999999999999
  0
WIPEOUT
  5
390
330
1F
100
AcDbEntity
  8
@__WIDOCZNE
  6
Wipeout_Contour
 62
   254
 48
2813.505827329924
370
     0
 92
      140
310
8C00000001000000840000000600000005000000853806A2BF5882C0A506000000C067400000000000000000853806A2BF5882C093D5D5FC6E4280400000000000000000873806A2BF8882C093D5D5FC6E4280400000000000000000873806A2BF8882C0A506000000C067400000000000000000853806A2BF5882C0A50600
310
0000C067400000000000000000
100
AcDbWipeout
 90
        0
 10
-593.0935707555772
 20
190.0000000000483
 30
0.0
 11
6.000000000000227
 21
0.0
 31
0.0
 12
0.0
 22
330.3041931824966
 32
0.0
 13
1.0
 23
1.0
340
0
 70
    15
280
     1
281
    50
282
    50
283
     0
360
0
 71
     2
 91
        5
 14
0.5
 24
0.4999999999999999
 14
0.5
 24
-0.5
 14
-0.5
 24
-0.5
 14
-0.5
 24
0.4999999999999999
 14
0.5
 24
0.4999999999999999
  0
WIPEOUT
  5
391
330
1F
100
AcDbEntity
  8
@__WIDOCZNE
  6
Wipeout_Contour
 62
   254
 48
5084.600163570733
370
     0
 92
      140
310
8C000000010000008400000006000000050000003F1C03D15FDC92C0A506000000C0674000000000000000003F1C03D15FDC92C0AD5AD692294580400000000000000000401C03D15FF492C0AD5AD692294580400000000000000000401C03D15FF492C0A506000000C0674000000000000000003F1C03D15FDC92C0A50600
310
0000C067400000000000000000
100
AcDbWipeout
 90
        0
 10
-1213.093570755576
 20
190.0000000000483
 30
0.0
 11
6.000000000000227
 21
0.0
 31
0.0
 12
0.0
 22
330.6452996011653
 32
0.0
 13
1.0
 23
1.0
340
0
 70
    15
280
     1
281
    50
282
    50
283
     0
360
0
 71
     2
 91
        5
 14
0.500000000000019
 24
0.4999999999999999
 14
0.500000000000019
 24
-0.5
 14
-0.4999999999999811
 24
-0.5
 14
-0.4999999999999811
 24
0.4999999999999999
 14
0.500000000000019
 24
0.4999999999999999
  0
WIPEOUT
  5
392
330
1F
100
AcDbEntity
  8
@__WIDOCZNE
  6
Wipeout_Contour
 62
   254
 48
5160.645989518182
370
     0
 92
      140
310
8C00000001000000840000000600000005000000451C03D15F2C93C0A506000000C067400000000000000000451C03D15F2C93C093D5D5FC6E4280400000000000000000461C03D15F4493C093D5D5FC6E4280400000000000000000461C03D15F4493C0A506000000C067400000000000000000451C03D15F2C93C0A50600
310
0000C067400000000000000000
100
AcDbWipeout
 90
        0
 10
-1233.093570755578
 20
190.0000000000483
 30
0.0
 11
6.000000000000227
 21
0.0
 31
0.0
 12
0.0
 22
330.3041931824966
 32
0.0
 13
1.0
 23
1.0
340
0
 70
    15
280
     1
281
    50
282
    50
283
     0
360
0
 71
     2
 91
        5
 14
0.500000000000019
 24
0.4999999999999999
 14
0.500000000000019
 24
-0.5
 14
-0.4999999999999811
 24
-0.5
 14
-0.4999999999999811
 24
0.4999999999999999
 14
0.500000000000019
 24
0.4999999999999999
  0
WIPEOUT
  5
393
330
1F
100
AcDbEntity
  8
@__WIDOCZNE
  6
Wipeout_Contour
 62
   254
 48
7246.90657475536
370
     0
 92
      140
310
8C00000001000000840000000600000005000000549034077B989BC0A906000000C067400000000000000000549034077B989BC0AE5AD692294580400000000000000000559034077BB09BC0AE5AD692294580400000000000000000559034077BB09BC0A906000000C067400000000000000000549034077B989BC0A90600
310
0000C067400000000000000000
100
AcDbWipeout
 90
        0
 10
-1772.120144673642
 20
190.0000000000485
 30
0.0
 11
6.000000000000227
 21
0.0
 31
0.0
 12
0.0
 22
330.6452996011653
 32
0.0
 13
1.0
 23
1.0
340
0
 70
    15
280
     1
281
    50
282
    50
283
     0
360
0
 71
     2
 91
        5
 14
0.4999999999999811
 24
0.4999999999999999
 14
0.4999999999999811
 24
-0.5
 14
-0.500000000000019
 24
-0.5
 14
-0.500000000000019
 24
0.4999999999999999
 14
0.4999999999999811
 24
0.4999999999999999
  0
WIPEOUT
  5
394
330
1F
100
AcDbEntity
  8
@__WIDOCZNE
  6
Wipeout_Contour
 62
   254
 48
7324.878907945668
370
     0
 92
      140
310
8C000000010000008400000006000000050000005A9034077BE89BC0A906000000C0674000000000000000005A9034077BE89BC094D5D5FC6E42804000000000000000005B9034077B009CC094D5D5FC6E42804000000000000000005B9034077B009CC0A906000000C0674000000000000000005A9034077BE89BC0A90600
310
0000C067400000000000000000
100
AcDbWipeout
 90
        0
 10
-1792.120144673644
 20
190.0000000000485
 30
0.0
 11
6.000000000000227
 21
0.0
 31
0.0
 12
0.0
 22
330.3041931824966
 32
0.0
 13
1.0
 23
1.0
340
0
 70
    15
280
     1
281
    50
282
    50
283
     0
360
0
 71
     2
 91
        5
 14
0.4999999999999811
 24
0.4999999999999999
 14
0.4999999999999811
 24
-0.5
 14
-0.500000000000019
 24
-0.5
 14
-0.500000000000019
 24
0.4999999999999999
 14
0.4999999999999811
 24
0.4999999999999999
  0
WIPEOUT
  5
395
330
1F
100
AcDbEntity
  8
@__WIDOCZNE
  6
Wipeout_Contour
 62
   254
 48
9999.689589826921
370
     0
 92
      140
310
8C0000000100000084000000060000000500000029489A833D44A3C0AD06000000C06740000000000000000029489A833D44A3C0AF5AD69229458040000000000000000029489A833D50A3C0AF5AD69229458040000000000000000029489A833D50A3C0AD06000000C06740000000000000000029489A833D44A3C0AD0600
310
0000C067400000000000000000
100
AcDbWipeout
 90
        0
 10
-2472.120144673642
 20
190.0000000000486
 30
0.0
 11
6.0
 21
0.0
 31
0.0
 12
0.0
 22
330.6452996011653
 32
0.0
 13
1.0
 23
1.0
340
0
 70
    15
280
     1
281
    50
282
    50
283
     0
360
0
 71
     2
 91
        5
 14
0.5
 24
0.4999999999999999
 14
0.5
 24
-0.5
 14
-0.5
 24
-0.5
 14
-0.5
 24
0.4999999999999999
 14
0.5
 24
0.4999999999999999
  0
WIPEOUT
  5
396
330
1F
100
AcDbEntity
  8
@__WIDOCZNE
  6
Wipeout_Contour
 62
   254
 48
10078.57870520431
370
     0
 92
      140
310
8C000000010000008400000006000000050000002C489A833D6CA3C0AD06000000C0674000000000000000002C489A833D6CA3C095D5D5FC6E42804000000000000000002C489A833D78A3C095D5D5FC6E42804000000000000000002C489A833D78A3C0AD06000000C0674000000000000000002C489A833D6CA3C0AD0600
310
0000C067400000000000000000
100
AcDbWipeout
 90
        0
 10
-2492.120144673643
 20
190.0000000000486
 30
0.0
 11
6.0
 21
0.0
 31
0.0
 12
0.0
 22
330.3041931824966
 32
0.0
 13
1.0
 23
1.0
340
0
 70
    15
280
     1
281
    50
282
    50
283
     0
360
0
 71
     2
 91
        5
 14
0.5
 24
0.4999999999999999
 14
0.5
 24
-0.5
 14
-0.5
 24
-0.5
 14
-0.5
 24
0.4999999999999999
 14
0.5
 24
0.4999999999999999
  0
WIPEOUT
  5
397
330
1F
100
AcDbEntity
  8
@__WIDOCZNE
  6
Wipeout_Contour
 62
   254
 48
7057.415053105967
370
     0
 92
      140
310
8C0000000100000084000000060000000500000020509B73B60A7DC0DA00000000FC9A400000000000000000DED219CA0AFD63C0DA00000000FC9A400000000000000000DED219CA0AFD63C0DB00000000149B40000000000000000020509B73B60A7DC0DB00000000149B40000000000000000020509B73B60A7DC0DA0000
310
0000FC9A400000000000000000
100
AcDbWipeout
 90
        0
 10
-464.6695438448824
 20
1727.00000000005
 30
0.0
 11
304.761976772551
 21
0.0
 31
0.0
 12
0.0
 22
6.000000000000227
 32
0.0
 13
1.0
 23
1.0
340
0
 70
    15
280
     1
281
    50
282
    50
283
     0
360
0
 71
     2
 91
        5
 14
-0.4999999999999999
 24
0.4999999999999811
 14
0.5000000000000001
 24
0.4999999999999811
 14
0.5000000000000001
 24
-0.500000000000019
 14
-0.4999999999999999
 24
-0.500000000000019
 14
-0.4999999999999999
 24
0.4999999999999811
  0
WIPEOUT
  5
398
330
1F
100
AcDbEntity
  8
@__WIDOCZNE
  6
Wipeout_Contour
 62
   254
 48
13208.93148822263
370
     0
 92
      140
310
8C0000000100000084000000060000000500000026489A833DA6A6C0DA00000000FC9A40000000000000000030C88509754BA5C0DA00000000FC9A40000000000000000030C88509754BA5C0DB00000000149B40000000000000000026489A833DA6A6C0DB00000000149B40000000000000000026489A833DA6A6C0DA0000
310
0000FC9A400000000000000000
100
AcDbWipeout
 90
        0
 10
-2899.12014467364
 20
1727.00000000005
 30
0.0
 11
173.3915563970759
 21
0.0
 31
0.0
 12
0.0
 22
6.000000000000227
 32
0.0
 13
1.0
 23
1.0
340
0
 70
    15
280
     1
281
    50
282
    50
283
     0
360
0
 71
     2
 91
        5
 14
-0.5
 24
0.4999999999999811
 14
0.5
 24
0.4999999999999811
 14
0.5
 24
-0.500000000000019
 14
-0.5
 24
-0.500000000000019
 14
-0.5
 24
0.4999999999999811
  0
WIPEOUT
  5
399
330
1F
100
AcDbEntity
  8
@__WIDOCZNE
  6
Wipeout_Contour
 62
   254
 48
3978.646146457494
370
     0
 92
      140
310
8C00000001000000840000000600000005000000F9D219CA0A9D63C09C06000000C067400000000000000000F9D219CA0A9D63C032D2158C56159B40000000000000000001D319CA0A5D64C032D2158C56159B40000000000000000001D319CA0A5D64C09C06000000C067400000000000000000F9D219CA0A9D63C09C0600
310
0000C067400000000000000000
100
AcDbWipeout
 90
        0
 10
-162.9075670723323
 20
190.0000000000483
 30
0.0
 11
6.000000000000227
 21
0.0
 31
0.0
 12
0.0
 22
1543.334518757728
 32
0.0
 13
1.0
 23
1.0
340
0
 70
    15
280
     1
281
    50
282
    50
283
     0
360
0
 71
     2
 91
        5
 14
0.5
 24
0.5000000000000001
 14
0.5
 24
-0.5
 14
-0.5
 24
-0.5
 14
-0.5
 24
0.5000000000000001
 14
0.5
 24
0.5000000000000001
  0
WIPEOUT
  5
39A
330
1F
100
AcDbEntity
  8
@__WIDOCZNE
  6
Wipeout_Contour
 62
   254
 48
12910.32591846752
370
     0
 92
      140
310
8C0000000100000084000000060000000500000028489A833DA0A6C0F8185D74D1DD8F40000000000000000028489A833DA0A6C00E5D05A45F359B40000000000000000028489A833DACA6C00E5D05A45F359B40000000000000000028489A833DACA6C0F8185D74D1DD8F40000000000000000028489A833DA0A6C0F8185D
310
74D1DD8F400000000000000000
100
AcDbWipeout
 90
        0
 10
-2902.120144673641
 20
1019.727272727322
 30
0.0
 11
6.0
 21
0.0
 31
0.0
 12
0.0
 22
721.6161264004518
 32
0.0
 13
1.0
 23
1.0
340
0
 70
    15
280
     1
281
    50
282
    50
283
     0
360
0
 71
     2
 91
        5
 14
0.5
 24
0.5
 14
0.5
 24
-0.5
 14
-0.5
 24
-0.5
 14
-0.5
 24
0.5
 14
0.5
 24
0.5
  0
WIPEOUT
  5
39B
330
1F
100
AcDbEntity
  8
@__WIDOCZNE
  6
Wipeout_Contour
 62
   254
 48
11927.27784393043
370
     0
 92
      140
310
8C0000000100000084000000060000000500000028489A833DA0A6C0705D7CBF48C06340000000000000000028489A833DA0A6C0F7185D74D19D8E40000000000000000028489A833DACA6C0F7185D74D19D8E40000000000000000028489A833DACA6C0705D7CBF48C06340000000000000000028489A833DA0A6C0705D7C
310
BF48C063400000000000000000
100
AcDbWipeout
 90
        0
 10
-2902.120144673641
 20
158.0088803700452
 30
0.0
 11
6.0
 21
0.0
 31
0.0
 12
0.0
 22
821.7183923572768
 32
0.0
 13
1.0
 23
1.0
340
0
 70
    15
280
     1
281
    50
282
    50
283
     0
360
0
 71
     2
 91
        5
 14
0.5
 24
0.5000000000000001
 14
0.5
 24
-0.5
 14
-0.5
 24
-0.5
 14
-0.5
 24
0.5000000000000001
 14
0.5
 24
0.5000000000000001
  0
WIPEOUT
  5
39C
330
1F
100
AcDbEntity
  8
@__WIDOCZNE
  6
Wipeout_Contour
 62
   254
 48
10803.41907003229
370
     0
 92
      140
310
8C0000000100000084000000060000000500000026489A833DA6A6C0B106000000606740000000000000000026489A833D72A3C0B106000000606740000000000000000026489A833D72A3C0B906000000206840000000000000000026489A833DA6A6C0B906000000206840000000000000000026489A833DA6A6C0B10600
310
00006067400000000000000000
100
AcDbWipeout
 90
        0
 10
-2899.12014467364
 20
187.0000000000487
 30
0.0
 11
410.0
 21
0.0
 31
0.0
 12
0.0
 22
6.000000000000227
 32
0.0
 13
1.0
 23
1.0
340
0
 70
    15
280
     1
281
    50
282
    50
283
     0
360
0
 71
     2
 91
        5
 14
-0.5
 24
0.5
 14
0.5
 24
0.5
 14
0.5
 24
-0.5
 14
-0.5
 24
-0.5
 14
-0.5
 24
0.5
  0
WIPEOUT
  5
39D
330
1F
100
AcDbEntity
  8
@__WIDOCZNE
  6
Wipeout_Contour
 62
   254
 48
8551.238483057234
370
     0
 92
      140
310
8C0000000100000084000000060000000500000027489A833D4AA3C0AF0600000060674000000000000000004F9034077BF49BC0AF0600000060674000000000000000004F9034077BF49BC0B706000000206840000000000000000027489A833D4AA3C0B706000000206840000000000000000027489A833D4AA3C0AF0600
310
00006067400000000000000000
100
AcDbWipeout
 90
        0
 10
-2469.120144673641
 20
187.0000000000486
 30
0.0
 11
679.9999999999998
 21
0.0
 31
0.0
 12
0.0
 22
6.000000000000227
 32
0.0
 13
1.0
 23
1.0
340
0
 70
    15
280
     1
281
    50
282
    50
283
     0
360
0
 71
     2
 91
        5
 14
-0.5000000000000002
 24
0.5
 14
0.4999999999999998
 24
0.5
 14
0.4999999999999998
 24
-0.5
 14
-0.5000000000000002
 24
-0.5
 14
-0.5000000000000002
 24
0.5
  0
WIPEOUT
  5
39E
330
1F
100
AcDbEntity
  8
@__WIDOCZNE
  6
Wipeout_Contour
 62
   254
 48
6048.007739459022
370
     0
 92
      140
310
8C00000001000000840000000600000005000000519034077BA49BC0AF0600000060674000000000000000003A1C03D15F3893C0AF0600000060674000000000000000003A1C03D15F3893C0B7060000002068400000000000000000519034077BA49BC0B7060000002068400000000000000000519034077BA49BC0AF0600
310
00006067400000000000000000
100
AcDbWipeout
 90
        0
 10
-1769.120144673642
 20
187.0000000000486
 30
0.0
 11
539.0265739180666
 21
0.0
 31
0.0
 12
0.0
 22
6.000000000000227
 32
0.0
 13
1.0
 23
1.0
340
0
 70
    15
280
     1
281
    50
282
    50
283
     0
360
0
 71
     2
 91
        5
 14
-0.4999999999999998
 24
0.5
 14
0.5000000000000002
 24
0.5
 14
0.5000000000000002
 24
-0.5
 14
-0.4999999999999998
 24
-0.5
 14
-0.4999999999999998
 24
0.5
  0
WIPEOUT
  5
39F
330
1F
100
AcDbEntity
  8
@__WIDOCZNE
  6
Wipeout_Contour
 62
   254
 48
3689.86751188022
370
     0
 92
      140
310
8C000000010000008400000006000000050000003B1C03D15FE892C0B70600000060674000000000000000006E3806A2BF7082C0B70600000060674000000000000000006E3806A2BF7082C0BF0600000020684000000000000000003B1C03D15FE892C0BF0600000020684000000000000000003B1C03D15FE892C0B70600
310
00006067400000000000000000
100
AcDbWipeout
 90
        0
 10
-1210.093570755575
 20
187.0000000000489
 30
0.0
 11
620.0000000000009
 21
0.0
 31
0.0
 12
0.0
 22
6.000000000000227
 32
0.0
 13
1.0
 23
1.0
340
0
 70
    15
280
     1
281
    50
282
    50
283
     0
360
0
 71
     2
 91
        5
 14
-0.5
 24
0.5
 14
0.5
 24
0.5
 14
0.5
 24
-0.5
 14
-0.5
 24
-0.5
 14
-0.5
 24
0.5
  0
WIPEOUT
  5
3A0
330
1F
100
AcDbEntity
  8
@__WIDOCZNE
  6
Wipeout_Contour
 62
   254
 48
1698.999904672612
370
     0
 92
      140
310
8C00000001000000840000000600000005000000723806A2BFD081C0B7060000006067400000000000000000DDD219CA0AFD63C0B7060000006067400000000000000000DDD219CA0AFD63C0BF060000002068400000000000000000723806A2BFD081C0BF060000002068400000000000000000723806A2BFD081C0B70600
310
00006067400000000000000000
100
AcDbWipeout
 90
        0
 10
-570.0935707555748
 20
187.0000000000489
 30
0.0
 11
410.1860036832434
 21
0.0
 31
0.0
 12
0.0
 22
6.000000000000227
 32
0.0
 13
1.0
 23
1.0
340
0
 70
    15
280
     1
281
    50
282
    50
283
     0
360
0
 71
     2
 91
        5
 14
-0.4999999999999999
 24
0.5
 14
0.5000000000000001
 24
0.5
 14
0.5000000000000001
 24
-0.5
 14
-0.4999999999999999
 24
-0.5
 14
-0.4999999999999999
 24
0.5
  0
LINE
  5
3A1
330
1F
100
AcDbEntity
  8
0
  6
Continuous
370
    35
100
AcDbLine
 10
-2726.494397429473
 20
1019.727272727322
 30
0.0
 11
-2899.12014467364
 21
1019.727272727322
 31
0.0
  0
LINE
  5
3A2
330
1F
100
AcDbEntity
  8
0
  6
Continuous
370
    35
100
AcDbLine
 10
-2726.494397429473
 20
979.7272727273221
 30
0.0
 11
-2899.12014467364
 21
979.7272727273221
 31
0.0
  0
LINE
  5
3A3
330
1F
100
AcDbEntity
  8
0
  6
Continuous
370
    13
100
AcDbLine
 10
-2794.413701899715
 20
1077.118102813254
 30
0.0
 11
-2731.636047251165
 21
1140.432964753467
 31
0.0
  0
CIRCLE
  5
3A4
330
1F
100
AcDbEntity
  8
0
  6
Continuous
370
    13
100
AcDbCircle
 10
-2797.934140990396
 20
1073.567538265355
 30
0.0
 40
5.0
  0
HATCH
  5
3A5
330
1F
100
AcDbEntity
  8
0
  6
Continuous
370
    13
100
AcDbHatch
 10
0.0
 20
0.0
 30
0.0
210
0.0
220
0.0
230
1.0
  2
SOLID
 70
     1
 71
     0
 91
        1
 92
        2
 72
     0
 73
     1
 93
       16
 10
-2792.934140990396
 20
1073.567538265355
 10
-2793.31474332784
 20
1075.48095542718
 10
-2794.398607084464
 20
1077.103072171287
 10
-2796.020723828571
 20
1078.186935927911
 10
-2797.934140990396
 20
1078.567538265355
 10
-2799.847558152222
 20
1078.186935927911
 10
-2801.469674896329
 20
1077.103072171287
 10
-2802.553538652953
 20
1075.48095542718
 10
-2802.934140990396
 20
1073.567538265355
 10
-2802.553538652953
 20
1071.654121103529
 10
-2801.469674896329
 20
1070.032004359422
 10
-2799.847558152222
 20
1068.948140602798
 10
-2797.934140990396
 20
1068.567538265355
 10
-2796.020723828571
 20
1068.948140602798
 10
-2794.398607084464
 20
1070.032004359422
 10
-2793.31474332784
 20
1071.654121103529
 97
        0
 75
     0
 76
     1
 98
        0
  0
LINE
  5
3A6
330
1F
100
AcDbEntity
  8
0
  6
Continuous
370
    50
100
AcDbLine
 10
-159.9075670723313
 20
1354.57116404744
 30
0.0
 11
-1162.682395446084
 21
1354.57116404744
 31
0.0
  0
LINE
  5
3A7
330
1F
100
AcDbEntity
  8
0
  6
Continuous
 62
    22
370
    50
100
AcDbLine
 10
-991.8766473714667
 20
450.727272727321
 30
0.0
 11
-935.6141417204271
 21
450.727272727321
 31
0.0
  0
LINE
  5
3A8
330
1F
100
AcDbEntity
  8
0
  6
Continuous
 62
    22
370
    50
100
AcDbLine
 10
-884.5729997907222
 20
450.7272727273217
 30
0.0
 11
-830.6833390739947
 21
450.7272727273227
 31
0.0
  0
LINE
  5
3A9
330
1F
100
AcDbEntity
  8
0
  6
Continuous
370
    13
100
AcDbLine
 10
-981.5290047605055
 20
455.727272727321
 30
0.0
 11
-981.5290047605055
 21
522.3557965595099
 31
0.0
  0
CIRCLE
  5
3AA
330
1F
100
AcDbEntity
  8
0
  6
Continuous
370
    13
100
AcDbCircle
 10
-981.5290047605055
 20
450.727272727321
 30
0.0
 40
5.0
  0
HATCH
  5
3AB
330
1F
100
AcDbEntity
  8
0
  6
Continuous
370
    13
100
AcDbHatch
 10
0.0
 20
0.0
 30
0.0
210
0.0
220
0.0
230
1.0
  2
SOLID
 70
     1
 71
     0
 91
        1
 92
        2
 72
     0
 73
     1
 93
       16
 10
-976.5290047605054
 20
450.727272727321
 10
-976.909607097949
 20
452.6406898891464
 10
-977.9934708545727
 20
454.2628066332537
 10
-979.6155875986799
 20
455.3466703898774
 10
-981.5290047605055
 20
455.727272727321
 10
-983.4424219223309
 20
455.3466703898774
 10
-985.0645386664381
 20
454.2628066332537
 10
-986.148402423062
 20
452.6406898891464
 10
-986.5290047605055
 20
450.727272727321
 10
-986.148402423062
 20
448.8138555654955
 10
-985.0645386664381
 20
447.1917388213882
 10
-983.4424219223309
 20
446.1078750647645
 10
-981.5290047605055
 20
445.727272727321
 10
-979.6155875986799
 20
446.1078750647645
 10
-977.9934708545727
 20
447.1917388213882
 10
-976.909607097949
 20
448.8138555654955
 97
        0
 75
     0
 76
     1
 98
        0
  0
LINE
  5
3AC
330
1F
100
AcDbEntity
  8
0
  6
Continuous
370
    50
100
AcDbLine
 10
-2548.9341409904
 20
190.0000000000483
 30
0.0
 11
-2548.9341409904
 21
1003.65459697637
 31
0.0
  0
LINE
  5
3AD
330
1F
100
AcDbEntity
  8
0
  6
Continuous
 62
    22
370
    50
100
AcDbLine
 10
-261.0935707555755
 20
999.7272727273219
 30
0.0
 11
-261.0935707555755
 21
1101.288265306171
 31
0.0
  0
LINE
  5
3AE
330
1F
100
AcDbEntity
  8
@__WIDOCZNE
  6
Przerywana gęsta
370
    13
100
AcDbLine
 10
-570.0935707555748
 20
509.3019004734889
 30
0.0
 11
-570.0935707555751
 21
190.0000000000483
 31
0.0
  0
LINE
  5
3AF
330
1F
100
AcDbEntity
  8
@__WIDOCZNE
  6
Przerywana gęsta
370
    13
100
AcDbLine
 10
-590.0935707555752
 20
509.3019004734889
 30
0.0
 11
-590.0935707555756
 21
190.0000000000483
 31
0.0
  0
LINE
  5
3B0
330
1F
100
AcDbEntity
  8
@__WIDOCZNE
  6
Przerywana gęsta
370
    13
100
AcDbLine
 10
-1210.093570755575
 20
509.3019004734889
 30
0.0
 11
-1210.093570755576
 21
190.0000000000483
 31
0.0
  0
LINE
  5
3B1
330
1F
100
AcDbEntity
  8
@__WIDOCZNE
  6
Przerywana gęsta
370
    13
100
AcDbLine
 10
-1230.093570755576
 20
509.3019004734889
 30
0.0
 11
-1230.093570755576
 21
190.0000000000483
 31
0.0
  0
LINE
  5
3B2
330
1F
100
AcDbEntity
  8
@__WIDOCZNE
  6
Przerywana gęsta
370
    13
100
AcDbLine
 10
-1769.120144673642
 20
509.301900473489
 30
0.0
 11
-1769.120144673642
 21
190.0000000000485
 31
0.0
  0
LINE
  5
3B3
330
1F
100
AcDbEntity
  8
@__WIDOCZNE
  6
Przerywana gęsta
370
    13
100
AcDbLine
 10
-1789.120144673642
 20
509.301900473489
 30
0.0
 11
-1789.120144673642
 21
190.0000000000485
 31
0.0
  0
LINE
  5
3B4
330
1F
100
AcDbEntity
  8
@__WIDOCZNE
  6
Przerywana gęsta
370
    13
100
AcDbLine
 10
-2469.120144673641
 20
509.3019004734891
 30
0.0
 11
-2469.120144673641
 21
190.0000000000486
 31
0.0
  0
LINE
  5
3B5
330
1F
100
AcDbEntity
  8
@__WIDOCZNE
  6
Przerywana gęsta
370
    13
100
AcDbLine
 10
-2489.120144673641
 20
509.3019004734891
 30
0.0
 11
-2489.120144673642
 21
190.0000000000486
 31
0.0
  0
LINE
  5
3B6
330
1F
100
AcDbEntity
  8
@__WIDOCZNE
  6
Przerywana gęsta
370
    13
100
AcDbLine
 10
-159.9075670723313
 20
1730.000000000049
 30
0.0
 11
-460.961074619315
 21
1730.000000000049
 31
0.0
  0
LINE
  5
3B7
330
1F
100
AcDbEntity
  8
@__WIDOCZNE
  6
Przerywana gęsta
370
    13
100
AcDbLine
 10
-2729.705539156234
 20
1730.000000000049
 30
0.0
 11
-2899.12014467364
 21
1730.000000000049
 31
0.0
  0
LINE
  5
3B8
330
1F
100
AcDbEntity
  8
@__WIDOCZNE
  6
Przerywana gęsta
370
    13
100
AcDbLine
 10
-159.9075670723313
 20
1721.991119630052
 30
0.0
 11
-159.9075670723317
 21
202.8514336257205
 31
0.0
  0
LINE
  5
3B9
330
1F
100
AcDbEntity
  8
@__WIDOCZNE
  6
Przerywana gęsta
370
    13
100
AcDbLine
 10
-2899.12014467364
 20
1730.000000000049
 30
0.0
 11
-2899.12014467364
 21
1019.727272727322
 31
0.0
  0
LINE
  5
3BA
330
1F
100
AcDbEntity
  8
@__WIDOCZNE
  6
Przerywana gęsta
370
    13
100
AcDbLine
 10
-2899.12014467364
 20
979.7272727273221
 30
0.0
 11
-2899.120144673641
 21
205.67579074632
 31
0.0
  0
LINE
  5
3BB
330
1F
100
AcDbEntity
  8
@__WIDOCZNE
  6
Przerywana gęsta
370
    13
100
AcDbLine
 10
-2489.12014467364
 20
190.0000000000483
 30
0.0
 11
-2899.12014467364
 21
190.0000000000483
 31
0.0
  0
LINE
  5
3BC
330
1F
100
AcDbEntity
  8
@__WIDOCZNE
  6
Przerywana gęsta
370
    13
100
AcDbLine
 10
-1789.120144673641
 20
190.0000000000483
 30
0.0
 11
-2469.120144673641
 21
190.0000000000483
 31
0.0
  0
LINE
  5
3BD
330
1F
100
AcDbEntity
  8
@__WIDOCZNE
  6
Przerywana gęsta
370
    13
100
AcDbLine
 10
-1230.093570755575
 20
190.0000000000483
 30
0.0
 11
-1769.120144673642
 21
190.0000000000483
 31
0.0
  0
LINE
  5
3BE
330
1F
100
AcDbEntity
  8
@__WIDOCZNE
  6
Przerywana gęsta
370
    13
100
AcDbLine
 10
-590.0935707555743
 20
190.0000000000485
 30
0.0
 11
-1210.093570755575
 21
190.0000000000485
 31
0.0
  0
LINE
  5
3BF
330
1F
100
AcDbEntity
  8
@__WIDOCZNE
  6
Przerywana gęsta
370
    13
100
AcDbLine
 10
-159.9075670723313
 20
190.0000000000485
 30
0.0
 11
-570.0935707555748
 21
190.0000000000485
 31
0.0
  0
ARC
  5
3C0
330
1F
100
AcDbEntity
  8
0
  6
Continuous
 62
    22
370
    50
100
AcDbCircle
 10
-935.6141417204271
 20
439.3847967429414
 30
0.0
 40
11.34247598437835
100
AcDbArc
 50
0.0
 51
90.0
  0
ARC
  5
3C1
330
1F
100
AcDbEntity
  8
0
  6
Continuous
 62
    22
370
    50
100
AcDbCircle
 10
-910.0935707555747
 20
439.3847967429414
 30
0.0
 40
14.1780949804742
100
AcDbArc
 50
180.0
 51
0.0
  0
ARC
  5
3C2
330
1F
100
AcDbEntity
  8
0
  6
Continuous
 62
    22
370
    50
100
AcDbCircle
 10
-884.5729997907222
 20
439.3847967429414
 30
0.0
 40
11.34247598437835
100
AcDbArc
 50
90.0
 51
180.0
  0
VIEWPORT
  5
5D
330
1B
100
AcDbEntity
 67
     1
  8
0
  6
Continuous
370
     0
100
AcDbViewport
 10
148.4999999999999
 20
105.0
 30
0.0
 40
356.4000000000002
 41
252.0
 68
     1
 69
     1
 12
148.4999999999999
 22
105.0
 13
0.0
 23
0.0
 14
0.5
 24
0.5
 15
0.0
 25
0.0
 16
0.0
 26
0.0
 36
1.0
 17
0.0
 27
0.0
 37
0.0
 42
50.0
 43
0.0
 44
0.0
 45
252.0
 50
0.0
 51
0.0
 72
   100
 90
   557152
  1

281
     0
 71
     1
 74
     0
110
0.0
120
0.0
130
0.0
111
1.0
121
0.0
131
0.0
112
0.0
122
1.0
132
0.0
 79
     0
146
0.0
170
     0
  0
INSERT
  5
3C9
102
{ACAD_XDICTIONARY
360
3CA
102
}
330
1B
100
AcDbEntity
 67
     1
  8
0
370
    13
100
AcDbBlockReference
  2
Rysunek_1
 10
0.0
 20
0.0
 30
0.0
  0
VIEWPORT
  5
3CD
330
1B
100
AcDbEntity
 67
     1
  8
NonPlottable_0
  6
Continuous
 62
    65
370
    20
100
AcDbViewport
 10
148.4999999999999
 20
105.0779643491736
 30
0.0
 40
297.0000000000002
 41
209.8440713016528
 68
     2
 69
     2
 12
0.0
 22
0.0
 13
0.0
 23
0.0
 14
0.5
 24
0.5
 15
0.0
 25
0.0
 16
0.0
 26
0.0
 36
1.0
 17
-1534.999999999997
 27
949.2203565079492
 37
0.0
 42
50.0
 43
0.0
 44
0.0
 45
2098.440713016529
 50
0.0
 51
0.0
 72
   100
 90
   622688
340
3CF
  1

281
     0
 71
     1
 74
     0
110
0.0
120
0.0
130
0.0
111
1.0
121
0.0
131
0.0
112
0.0
122
1.0
132
0.0
 79
     0
146
0.0
170
     0
  0
LWPOLYLINE
  5
3CF
102
{ACAD_REACTORS
330
3CD
102
}
330
1B
100
AcDbEntity
 67
     1
  8
NonPlottable_0
  6
Continuous
 62
    65
370
    20
100
AcDbPolyline
 90
        4
 70
   129
 43
0.0
 10
-0.000000000000222
 20
0.1559286983471575
 10
296.9999999999999
 20
0.1559286983471575
 10
296.9999999999999
 20
210.0
 10
-0.000000000000222
 20
210.0
  0
ENDSEC
  0
SECTION
  2
OBJECTS
  0
DICTIONARY
  5
C
330
0
100
AcDbDictionary
281
     1
  3
ACAD_GROUP
350
D
  3
ACAD_LAYOUT
350
1A
  3
ACAD_MLEADERSTYLE
350
3D6
  3
ACAD_MLINESTYLE
350
17
  3
ACAD_PLOTSETTINGS
350
19
  3
ACAD_PLOTSTYLENAME
350
E
  3
ACAD_SCALELIST
350
3B
  3
ACAD_TABLESTYLE
350
3D5
  3
ACAD_VISUALSTYLE
350
2A
  3
WATERMARKS
350
3D3
  0
DICTIONARY
  5
3CA
330
3C9
100
AcDbDictionary
280
     1
281
     1
  3
ACAD_FILTER
360
3CB
  0
DICTIONARY
  5
D
102
{ACAD_REACTORS
330
C
102
}
330
C
100
AcDbDictionary
281
     1
  0
DICTIONARY
  5
1A
102
{ACAD_REACTORS
330
C
102
}
330
C
100
AcDbDictionary
281
     1
  3
02.04.2-20 ŚCIANA+PIWICA 10.01.
350
1E
  3
Layout2
350
26
  3
Model
350
22
  0
DICTIONARY
  5
3D6
102
{ACAD_REACTORS
330
C
102
}
330
C
100
AcDbDictionary
281
     1
  0
DICTIONARY
  5
17
102
{ACAD_REACTORS
330
C
102
}
330
C
100
AcDbDictionary
281
     1
  3
Standard
350
18
  0
DICTIONARY
  5
19
102
{ACAD_REACTORS
330
C
102
}
330
C
100
AcDbDictionary
281
     1
  0
ACDBDICTIONARYWDFLT
  5
E
102
{ACAD_REACTORS
330
C
102
}
330
C
100
AcDbDictionary
281
     1
  3
Normal
350
F
100
AcDbDictionaryWithDefault
340
F
  0
DICTIONARY
  5
3B
102
{ACAD_REACTORS
330
C
102
}
330
C
100
AcDbDictionary
281
     1
  3
A0
350
3C
  3
A1
350
3D
  3
A2
350
3E
  3
A3
350
3F
  3
A4
350
40
  3
A5
350
41
  3
A6
350
42
  3
A7
350
43
  3
A8
350
44
  3
A9
350
45
  3
B0
350
46
  3
B1
350
47
  3
B2
350
48
  3
B3
350
49
  3
B4
350
4A
  3
B5
350
4B
  3
B6
350
4C
  3
B7
350
4D
  3
B8
350
4E
  3
B9
350
4F
  3
C0
350
50
  3
C1
350
51
  3
C2
350
52
  3
C3
350
53
  3
C4
350
54
  3
C5
350
55
  3
C6
350
56
  3
C7
350
57
  3
C8
350
58
  3
C9
350
59
  3
D0
350
5A
  3
D1
350
5B
  3
D2
350
5C
  0
DICTIONARY
  5
3D5
102
{ACAD_REACTORS
330
C
102
}
330
C
100
AcDbDictionary
281
     1
  0
DICTIONARY
  5
2A
102
{ACAD_REACTORS
330
C
102
}
330
C
100
AcDbDictionary
281
     1
  3
2dWireframe
350
2F
  3
3D Hidden
350
31
  3
3dWireframe
350
30
  3
Basic
350
32
  3
Brighten
350
36
  3
ColorChange
350
3A
  3
Conceptual
350
34
  3
Dim
350
35
  3
Facepattern
350
39
  3
Flat
350
2B
  3
FlatWithEdges
350
2C
  3
Gouraud
350
2D
  3
GouraudWithEdges
350
2E
  3
Linepattern
350
38
  3
Realistic
350
33
  3
Thicken
350
37
  0
DICTIONARY
  5
3D3
102
{ACAD_REACTORS
330
C
102
}
330
C
100
AcDbDictionary
281
     1
  3
AC_WATERMARK
350
3D4
  0
DICTIONARY
  5
3CB
102
{ACAD_REACTORS
330
3CA
102
}
330
3CA
100
AcDbDictionary
280
     1
281
     1
  3
SPATIAL
360
3CC
  0
LAYOUT
  5
1E
102
{ACAD_REACTORS
330
1A
102
}
330
1A
100
AcDbPlotSettings
  1

  2
none_device
  4

  6

 40
0.0
 41
0.0
 42
0.0
 43
0.0
 44
297.0
 45
210.0
 46
0.0
 47
0.0
 48
0.0
 49
0.0
140
0.0
141
0.0
142
1.0
143
1.0
 70
   688
 72
     1
 73
     0
 74
     5
  7

 75
    16
 76
     0
 77
     2
 78
   300
147
1.0
148
0.0
149
0.0
100
AcDbLayout
  1
02.04.2-20 ŚCIANA+PIWICA 10.01.
 70
     0
 71
     1
 10
0.0
 20
0.0
 11
297.0
 21
210.0
 12
0.0
 22
0.0
 32
0.0
 14
-0.000000000000222
 24
0.0
 34
0.0
 15
297.0
 25
210.0
 35
0.0
146
0.0
 13
0.0
 23
0.0
 33
0.0
 16
1.0
 26
0.0
 36
0.0
 17
0.0
 27
1.0
 37
0.0
 76
     0
330
1B
331
5D
  0
LAYOUT
  5
26
102
{ACAD_REACTORS
330
1A
102
}
330
1A
100
AcDbPlotSettings
  1

  2
none_device
  4

  6

 40
0.0
 41
0.0
 42
0.0
 43
0.0
 44
0.0
 45
0.0
 46
0.0
 47
0.0
 48
0.0
 49
0.0
140
0.0
141
0.0
142
1.0
143
1.0
 70
   688
 72
     0
 73
     0
 74
     5
  7

 75
    16
 76
     0
 77
     2
 78
   300
147
1.0
148
0.0
149
0.0
100
AcDbLayout
  1
Layout2
 70
     1
 71
     2
 10
0.0
 20
0.0
 11
0.0
 21
0.0
 12
0.0
 22
0.0
 32
0.0
 14
0.0
 24
0.0
 34
0.0
 15
0.0
 25
0.0
 35
0.0
146
0.0
 13
0.0
 23
0.0
 33
0.0
 16
1.0
 26
0.0
 36
0.0
 17
0.0
 27
1.0
 37
0.0
 76
     0
330
23
  0
LAYOUT
  5
22
102
{ACAD_REACTORS
330
1A
102
}
330
1A
100
AcDbPlotSettings
  1

  2
none_device
  4

  6

 40
0.0
 41
0.0
 42
0.0
 43
0.0
 44
0.0
 45
0.0
 46
0.0
 47
0.0
 48
0.0
 49
0.0
140
0.0
141
0.0
142
1.0
143
1.0
 70
  1712
 72
     0
 73
     0
 74
     0
  7

 75
     0
 76
     0
 77
     2
 78
   300
147
1.0
148
0.0
149
0.0
100
AcDbLayout
  1
Model
 70
     1
 71
     0
 10
0.0
 20
0.0
 11
12.0
 21
9.0
 12
0.0
 22
0.0
 32
0.0
 14
1.000000000000000E+20
 24
1.000000000000000E+20
 34
1.000000000000000E+20
 15
-1.000000000000000E+20
 25
-1.000000000000000E+20
 35
-1.000000000000000E+20
146
0.0
 13
0.0
 23
0.0
 33
0.0
 16
1.0
 26
0.0
 36
0.0
 17
0.0
 27
1.0
 37
0.0
 76
     0
330
1F
331
29
  0
MLINESTYLE
  5
18
102
{ACAD_REACTORS
330
17
102
}
330
17
100
AcDbMlineStyle
  2
Standard
 70
     0
  3

 62
   256
 51
90.0
 52
90.0
 71
     2
 49
0.5
 62
   256
  6
BYLAYER
 49
-0.5
 62
   256
  6
BYLAYER
  0
ACDBPLACEHOLDER
  5
F
102
{ACAD_REACTORS
330
E
102
}
330
E
  0
SCALE
  5
3C
102
{ACAD_REACTORS
330
3B
102
}
330
3B
100
AcDbScale
 70
     0
300
1:1
140
1.0
141
1.0
290
     1
  0
SCALE
  5
3D
102
{ACAD_REACTORS
330
3B
102
}
330
3B
100
AcDbScale
 70
     0
300
1:2
140
1.0
141
2.0
290
     0
  0
SCALE
  5
3E
102
{ACAD_REACTORS
330
3B
102
}
330
3B
100
AcDbScale
 70
     0
300
1:4
140
1.0
141
4.0
290
     0
  0
SCALE
  5
3F
102
{ACAD_REACTORS
330
3B
102
}
330
3B
100
AcDbScale
 70
     0
300
1:5
140
1.0
141
5.0
290
     0
  0
SCALE
  5
40
102
{ACAD_REACTORS
330
3B
102
}
330
3B
100
AcDbScale
 70
     0
300
1:8
140
1.0
141
8.0
290
     0
  0
SCALE
  5
41
102
{ACAD_REACTORS
330
3B
102
}
330
3B
100
AcDbScale
 70
     0
300
1:10
140
1.0
141
10.0
290
     0
  0
SCALE
  5
42
102
{ACAD_REACTORS
330
3B
102
}
330
3B
100
AcDbScale
 70
     0
300
1:16
140
1.0
141
16.0
290
     0
  0
SCALE
  5
43
102
{ACAD_REACTORS
330
3B
102
}
330
3B
100
AcDbScale
 70
     0
300
1:20
140
1.0
141
20.0
290
     0
  0
SCALE
  5
44
102
{ACAD_REACTORS
330
3B
102
}
330
3B
100
AcDbScale
 70
     0
300
1:30
140
1.0
141
30.0
290
     0
  0
SCALE
  5
45
102
{ACAD_REACTORS
330
3B
102
}
330
3B
100
AcDbScale
 70
     0
300
1:40
140
1.0
141
40.0
290
     0
  0
SCALE
  5
46
102
{ACAD_REACTORS
330
3B
102
}
330
3B
100
AcDbScale
 70
     0
300
1:50
140
1.0
141
50.0
290
     0
  0
SCALE
  5
47
102
{ACAD_REACTORS
330
3B
102
}
330
3B
100
AcDbScale
 70
     0
300
1:100
140
1.0
141
100.0
290
     0
  0
SCALE
  5
48
102
{ACAD_REACTORS
330
3B
102
}
330
3B
100
AcDbScale
 70
     0
300
2:1
140
2.0
141
1.0
290
     0
  0
SCALE
  5
49
102
{ACAD_REACTORS
330
3B
102
}
330
3B
100
AcDbScale
 70
     0
300
4:1
140
4.0
141
1.0
290
     0
  0
SCALE
  5
4A
102
{ACAD_REACTORS
330
3B
102
}
330
3B
100
AcDbScale
 70
     0
300
8:1
140
8.0
141
1.0
290
     0
  0
SCALE
  5
4B
102
{ACAD_REACTORS
330
3B
102
}
330
3B
100
AcDbScale
 70
     0
300
10:1
140
10.0
141
1.0
290
     0
  0
SCALE
  5
4C
102
{ACAD_REACTORS
330
3B
102
}
330
3B
100
AcDbScale
 70
     0
300
100:1
140
100.0
141
1.0
290
     0
  0
SCALE
  5
4D
102
{ACAD_REACTORS
330
3B
102
}
330
3B
100
AcDbScale
 70
     0
300
1/128" = 1'-0"
140
0.0078125
141
12.0
290
     0
  0
SCALE
  5
4E
102
{ACAD_REACTORS
330
3B
102
}
330
3B
100
AcDbScale
 70
     0
300
1/64" = 1'-0"
140
0.015625
141
12.0
290
     0
  0
SCALE
  5
4F
102
{ACAD_REACTORS
330
3B
102
}
330
3B
100
AcDbScale
 70
     0
300
1/32" = 1'-0"
140
0.03125
141
12.0
290
     0
  0
SCALE
  5
50
102
{ACAD_REACTORS
330
3B
102
}
330
3B
100
AcDbScale
 70
     0
300
1/16" = 1'-0"
140
0.0625
141
12.0
290
     0
  0
SCALE
  5
51
102
{ACAD_REACTORS
330
3B
102
}
330
3B
100
AcDbScale
 70
     0
300
3/32" = 1'-0"
140
0.09375
141
12.0
290
     0
  0
SCALE
  5
52
102
{ACAD_REACTORS
330
3B
102
}
330
3B
100
AcDbScale
 70
     0
300
1/8" = 1'-0"
140
0.125
141
12.0
290
     0
  0
SCALE
  5
53
102
{ACAD_REACTORS
330
3B
102
}
330
3B
100
AcDbScale
 70
     0
300
3/16" = 1'-0"
140
0.1875
141
12.0
290
     0
  0
SCALE
  5
54
102
{ACAD_REACTORS
330
3B
102
}
330
3B
100
AcDbScale
 70
     0
300
1/4" = 1'-0"
140
0.25
141
12.0
290
     0
  0
SCALE
  5
55
102
{ACAD_REACTORS
330
3B
102
}
330
3B
100
AcDbScale
 70
     0
300
3/8" = 1'-0"
140
0.375
141
12.0
290
     0
  0
SCALE
  5
56
102
{ACAD_REACTORS
330
3B
102
}
330
3B
100
AcDbScale
 70
     0
300
1/2" = 1'-0"
140
0.5
141
12.0
290
     0
  0
SCALE
  5
57
102
{ACAD_REACTORS
330
3B
102
}
330
3B
100
AcDbScale
 70
     0
300
3/4" = 1'-0"
140
0.75
141
12.0
290
     0
  0
SCALE
  5
58
102
{ACAD_REACTORS
330
3B
102
}
330
3B
100
AcDbScale
 70
     0
300
1" = 1'-0"
140
1.0
141
12.0
290
     0
  0
SCALE
  5
59
102
{ACAD_REACTORS
330
3B
102
}
330
3B
100
AcDbScale
 70
     0
300
1-1/2" = 1'-0"
140
1.5
141
12.0
290
     0
  0
SCALE
  5
5A
102
{ACAD_REACTORS
330
3B
102
}
330
3B
100
AcDbScale
 70
     0
300
3" = 1'-0"
140
3.0
141
12.0
290
     0
  0
SCALE
  5
5B
102
{ACAD_REACTORS
330
3B
102
}
330
3B
100
AcDbScale
 70
     0
300
6" = 1'-0"
140
6.0
141
12.0
290
     0
  0
SCALE
  5
5C
102
{ACAD_REACTORS
330
3B
102
}
330
3B
100
AcDbScale
 70
     0
300
1'-0" = 1'-0"
140
12.0
141
12.0
290
     0
  0
VISUALSTYLE
  5
2F
102
{ACAD_REACTORS
330
2A
102
}
330
2A
100
AcDbVisualStyle
  2
2dWireframe
 70
     4
 71
     0
 72
     2
 73
     0
 90
        0
 40
-0.6
 41
-30.0
 62
     5
 63
     7
421
 16777215
 74
     1
 91
        4
 64
     7
 65
   257
 75
     1
175
     1
 42
1.0
 92
        0
 66
   257
 43
1.0
 76
     1
 77
     6
 78
     2
 67
     7
 79
     5
170
     0
171
     0
290
     0
174
     0
 93
        1
 44
0.0
173
     0
291
     0
 45
0.0
1001
ACAD
1000
AcDbSavedByObjectVersion
1070
     0
  0
VISUALSTYLE
  5
31
102
{ACAD_REACTORS
330
2A
102
}
330
2A
100
AcDbVisualStyle
  2
3D Hidden
 70
     6
 71
     1
 72
     2
 73
     2
 90
        0
 40
-0.6
 41
-30.0
 62
     5
 63
     7
421
 16777215
 74
     2
 91
        2
 64
     7
 65
   257
 75
     2
175
     1
 42
40.0
 92
        0
 66
   257
 43
1.0
 76
     1
 77
     6
 78
     2
 67
     7
 79
     3
170
     0
171
     0
290
     0
174
     0
 93
        1
 44
0.0
173
     0
291
     0
 45
0.0
1001
ACAD
1000
AcDbSavedByObjectVersion
1070
     0
  0
VISUALSTYLE
  5
30
102
{ACAD_REACTORS
330
2A
102
}
330
2A
100
AcDbVisualStyle
  2
3dWireframe
 70
     5
 71
     0
 72
     2
 73
     0
 90
        0
 40
-0.6
 41
-30.0
 62
     5
 63
     7
421
 16777215
 74
     1
 91
        4
 64
     7
 65
   257
 75
     1
175
     1
 42
1.0
 92
        0
 66
   257
 43
1.0
 76
     1
 77
     6
 78
     2
 67
     7
 79
     5
170
     0
171
     0
290
     0
174
     0
 93
        1
 44
0.0
173
     0
291
     0
 45
0.0
1001
ACAD
1000
AcDbSavedByObjectVersion
1070
     0
  0
VISUALSTYLE
  5
32
102
{ACAD_REACTORS
330
2A
102
}
330
2A
100
AcDbVisualStyle
  2
Basic
 70
     7
 71
     1
 72
     0
 73
     1
 90
        0
 40
-0.6
 41
-30.0
 62
     5
 63
     7
421
 16777215
 74
     0
 91
        4
 64
     7
 65
   257
 75
     1
175
     1
 42
1.0
 92
        8
 66
     7
 43
1.0
 76
     1
 77
     6
 78
     2
 67
     7
 79
     5
170
     0
171
     0
290
     0
174
     0
 93
        1
 44
0.0
173
     0
291
     1
 45
0.0
1001
ACAD
1000
AcDbSavedByObjectVersion
1070
     0
  0
VISUALSTYLE
  5
36
102
{ACAD_REACTORS
330
2A
102
}
330
2A
100
AcDbVisualStyle
  2
Brighten
 70
    12
 71
     2
 72
     2
 73
     0
 90
        0
 40
-0.6
 41
-30.0
 62
     5
 63
     7
421
 16777215
 74
     1
 91
        4
 64
     7
 65
   257
 75
     1
175
     1
 42
1.0
 92
        8
 66
     7
 43
1.0
 76
     1
 77
     6
 78
     2
 67
     7
 79
     5
170
     0
171
     0
290
     0
174
     0
 93
        1
 44
50.0
173
     0
291
     1
 45
0.0
1001
ACAD
1000
AcDbSavedByObjectVersion
1070
     0
  0
VISUALSTYLE
  5
3A
102
{ACAD_REACTORS
330
2A
102
}
330
2A
100
AcDbVisualStyle
  2
ColorChange
 70
    16
 71
     2
 72
     2
 73
     3
 90
        0
 40
-0.6
 41
-30.0
 62
     5
 63
     8
421
  8421504
 74
     1
 91
        4
 64
     7
 65
   257
 75
     1
175
     1
 42
1.0
 92
        8
 66
     8
424
  8421504
 43
1.0
 76
     1
 77
     6
 78
     2
 67
     7
 79
     5
170
     0
171
     0
290
     0
174
     0
 93
        1
 44
0.0
173
     0
291
     1
 45
0.0
1001
ACAD
1000
AcDbSavedByObjectVersion
1070
     0
  0
VISUALSTYLE
  5
34
102
{ACAD_REACTORS
330
2A
102
}
330
2A
100
AcDbVisualStyle
  2
Conceptual
 70
     9
 71
     3
 72
     2
 73
     0
 90
        0
 40
-0.6
 41
-30.0
 62
     5
 63
     7
421
 16777215
 74
     2
 91
        2
 64
     7
 65
   257
 75
     1
175
     1
 42
40.0
 92
        8
 66
     7
 43
1.0
 76
     1
 77
     6
 78
     2
 67
     7
 79
     3
170
     0
171
     0
290
     0
174
     0
 93
        1
 44
0.0
173
     0
291
     0
 45
0.0
1001
ACAD
1000
AcDbSavedByObjectVersion
1070
     0
  0
VISUALSTYLE
  5
35
102
{ACAD_REACTORS
330
2A
102
}
330
2A
100
AcDbVisualStyle
  2
Dim
 70
    11
 71
     2
 72
     2
 73
     0
 90
        0
 40
-0.6
 41
-30.0
 62
     5
 63
     7
421
 16777215
 74
     1
 91
        4
 64
     7
 65
   257
 75
     1
175
     1
 42
1.0
 92
        8
 66
     7
 43
1.0
 76
     1
 77
     6
 78
     2
 67
     7
 79
     5
170
     0
171
     0
290
     0
174
     0
 93
        1
 44
-50.0
173
     0
291
     1
 45
0.0
1001
ACAD
1000
AcDbSavedByObjectVersion
1070
     0
  0
VISUALSTYLE
  5
39
102
{ACAD_REACTORS
330
2A
102
}
330
2A
100
AcDbVisualStyle
  2
Facepattern
 70
    15
 71
     2
 72
     2
 73
     0
 90
        0
 40
-0.6
 41
-30.0
 62
     5
 63
     7
421
 16777215
 74
     1
 91
        4
 64
     7
 65
   257
 75
     1
175
     1
 42
1.0
 92
        8
 66
     7
 43
1.0
 76
     1
 77
     6
 78
     2
 67
     7
 79
     5
170
     0
171
     0
290
     0
174
     0
 93
        1
 44
0.0
173
     0
291
     1
 45
0.0
1001
ACAD
1000
AcDbSavedByObjectVersion
1070
     0
  0
VISUALSTYLE
  5
2B
102
{ACAD_REACTORS
330
2A
102
}
330
2A
100
AcDbVisualStyle
  2
Flat
 70
     0
 71
     2
 72
     1
 73
     1
 90
        2
 40
-0.6
 41
30.0
 62
     5
 63
     7
421
 16777215
 74
     0
 91
        4
 64
     7
 65
   257
 75
     1
175
     1
 42
1.0
 92
        8
 66
     7
 43
1.0
 76
     1
 77
     6
 78
     2
 67
     7
 79
     5
170
     0
171
     0
290
     0
174
     0
 93
       13
 44
0.0
173
     0
291
     1
 45
0.0
1001
ACAD
1000
AcDbSavedByObjectVersion
1070
     0
  0
VISUALSTYLE
  5
2C
102
{ACAD_REACTORS
330
2A
102
}
330
2A
100
AcDbVisualStyle
  2
FlatWithEdges
 70
     1
 71
     2
 72
     1
 73
     1
 90
        2
 40
-0.6
 41
30.0
 62
     5
 63
     7
421
 16777215
 74
     1
 91
        4
 64
     7
 65
   257
 75
     1
175
     1
 42
1.0
 92
        0
 66
   257
 43
1.0
 76
     1
 77
     6
 78
     2
 67
     7
 79
     5
170
     0
171
     0
290
     0
174
     0
 93
       13
 44
0.0
173
     0
291
     1
 45
0.0
1001
ACAD
1000
AcDbSavedByObjectVersion
1070
     0
  0
VISUALSTYLE
  5
2D
102
{ACAD_REACTORS
330
2A
102
}
330
2A
100
AcDbVisualStyle
  2
Gouraud
 70
     2
 71
     2
 72
     2
 73
     1
 90
        2
 40
-0.6
 41
30.0
 62
     5
 63
     7
421
 16777215
 74
     0
 91
        4
 64
     7
 65
   257
 75
     1
175
     1
 42
1.0
 92
        0
 66
     7
 43
1.0
 76
     1
 77
     6
 78
     2
 67
     7
 79
     5
170
     0
171
     0
290
     0
174
     0
 93
       13
 44
0.0
173
     0
291
     1
 45
0.0
1001
ACAD
1000
AcDbSavedByObjectVersion
1070
     0
  0
VISUALSTYLE
  5
2E
102
{ACAD_REACTORS
330
2A
102
}
330
2A
100
AcDbVisualStyle
  2
GouraudWithEdges
 70
     3
 71
     2
 72
     2
 73
     1
 90
        2
 40
-0.6
 41
30.0
 62
     5
 63
     7
421
 16777215
 74
     1
 91
        4
 64
     7
 65
   257
 75
     1
175
     1
 42
1.0
 92
        0
 66
   257
 43
1.0
 76
     1
 77
     6
 78
     2
 67
     7
 79
     5
170
     0
171
     0
290
     0
174
     0
 93
       13
 44
0.0
173
     0
291
     1
 45
0.0
1001
ACAD
1000
AcDbSavedByObjectVersion
1070
     0
  0
VISUALSTYLE
  5
38
102
{ACAD_REACTORS
330
2A
102
}
330
2A
100
AcDbVisualStyle
  2
Linepattern
 70
    14
 71
     2
 72
     2
 73
     0
 90
        0
 40
-0.6
 41
-30.0
 62
     5
 63
     7
421
 16777215
 74
     1
 91
        4
 64
     7
 65
   257
 75
     7
175
     7
 42
1.0
 92
        8
 66
     7
 43
1.0
 76
     1
 77
     6
 78
     2
 67
     7
 79
     5
170
     0
171
     0
290
     0
174
     0
 93
        1
 44
0.0
173
     0
291
     1
 45
0.0
1001
ACAD
1000
AcDbSavedByObjectVersion
1070
     0
  0
VISUALSTYLE
  5
33
102
{ACAD_REACTORS
330
2A
102
}
330
2A
100
AcDbVisualStyle
  2
Realistic
 70
     8
 71
     2
 72
     2
 73
     0
 90
        0
 40
-0.6
 41
-30.0
 62
     5
 63
     7
421
 16777215
 74
     1
 91
        0
 64
     7
 65
   257
 75
     1
175
     1
 42
1.0
 92
        8
 66
     8
424
  7895160
 43
1.0
 76
     1
 77
     6
 78
     2
 67
     7
 79
     5
170
     0
171
     0
290
     0
174
     0
 93
       13
 44
0.0
173
     0
291
     0
 45
0.0
1001
ACAD
1000
AcDbSavedByObjectVersion
1070
     0
  0
VISUALSTYLE
  5
37
102
{ACAD_REACTORS
330
2A
102
}
330
2A
100
AcDbVisualStyle
  2
Thicken
 70
    13
 71
     2
 72
     2
 73
     0
 90
        0
 40
-0.6
 41
-30.0
 62
     5
 63
     7
421
 16777215
 74
     1
 91
        4
 64
     7
 65
   257
 75
     1
175
     1
 42
1.0
 92
       12
 66
     7
 43
1.0
 76
     1
 77
     6
 78
     2
 67
     7
 79
     5
170
     0
171
     0
290
     0
174
     0
 93
        1
 44
0.0
173
     0
291
     1
 45
0.0
1001
ACAD
1000
AcDbSavedByObjectVersion
1070
     0
  0
XRECORD
  5
3D4
102
{ACAD_REACTORS
330
3D3
102
}
330
3D3
100
AcDbXrecord
280
     1
1000
Ten plik DWG został utworzony w programie ArchiCAD(TM)®
  0
SPATIAL_FILTER
  5
3CC
102
{ACAD_REACTORS
330
3CB
102
}
330
3CB
100
AcDbFilter
100
AcDbSpatialFilter
 70
     4
 10
0.0
 20
0.0
 10
297.0
 20
0.0
 10
297.0
 20
210.0
 10
0.0
 20
210.0
210
0.0
220
0.0
230
1.0
 11
0.0
 21
0.0
 31
0.0
 71
     1
 72
     0
 73
     0
 40
1.0
 40
0.0
 40
0.0
 40
0.0
 40
0.0
 40
1.0
 40
0.0
 40
0.0
 40
0.0
 40
0.0
 40
1.0
 40
0.0
 40
1.0
 40
0.0
 40
0.0
 40
0.0
 40
0.0
 40
1.0
 40
0.0
 40
0.0
 40
0.0
 40
0.0
 40
1.0
 40
0.0
  0
ENDSEC
  0
EOF
