  0
SECTION
  2
HEADER
  9
$ACADVER
  1
AC1018
  9
$ACADMAINTVER
 70
     0
  9
$DWGCODEPAGE
  3
ANSI_1250
  9
$INSBASE
 10
0.0
 20
0.0
 30
0.0
  9
$EXTMIN
 10
1.000000000000000E+20
 20
1.000000000000000E+20
 30
1.000000000000000E+20
  9
$EXTMAX
 10
-1.000000000000000E+20
 20
-1.000000000000000E+20
 30
-1.000000000000000E+20
  9
$LIMMIN
 10
0.0
 20
0.0
  9
$LIMMAX
 10
12.0
 20
9.0
  9
$ORTHOMODE
 70
     0
  9
$REGENMODE
 70
     1
  9
$FILLMODE
 70
     1
  9
$QTEXTMODE
 70
     0
  9
$MIRRTEXT
 70
     1
  9
$LTSCALE
 40
1.0
  9
$ATTMODE
 70
     1
  9
$TEXTSIZE
 40
0.2
  9
$TRACEWID
 40
0.05
  9
$TEXTSTYLE
  7
Standard
  9
$CLAYER
  8
0
  9
$CELTYPE
  6
ByLayer
  9
$CECOLOR
 62
   256
  9
$CELTSCALE
 40
1.0
  9
$DISPSILH
 70
     0
  9
$DIMSCALE
 40
1.0
  9
$DIMASZ
 40
0.18
  9
$DIMEXO
 40
0.0625
  9
$DIMDLI
 40
0.38
  9
$DIMRND
 40
0.0
  9
$DIMDLE
 40
0.0
  9
$DIMEXE
 40
0.18
  9
$DIMTP
 40
0.0
  9
$DIMTM
 40
0.0
  9
$DIMTXT
 40
0.18
  9
$DIMCEN
 40
0.09
  9
$DIMTSZ
 40
0.0
  9
$DIMTOL
 70
     0
  9
$DIMLIM
 70
     0
  9
$DIMTIH
 70
     1
  9
$DIMTOH
 70
     1
  9
$DIMSE1
 70
     0
  9
$DIMSE2
 70
     0
  9
$DIMTAD
 70
     0
  9
$DIMZIN
 70
     0
  9
$DIMBLK
  1

  9
$DIMASO
 70
     1
  9
$DIMSHO
 70
     1
  9
$DIMPOST
  1

  9
$DIMAPOST
  1

  9
$DIMALT
 70
     0
  9
$DIMALTD
 70
     2
  9
$DIMALTF
 40
25.4
  9
$DIMLFAC
 40
1.0
  9
$DIMTOFL
 70
     0
  9
$DIMTVP
 40
0.0
  9
$DIMTIX
 70
     0
  9
$DIMSOXD
 70
     0
  9
$DIMSAH
 70
     0
  9
$DIMBLK1
  1

  9
$DIMBLK2
  1

  9
$DIMSTYLE
  2
Standard
  9
$DIMCLRD
 70
     0
  9
$DIMCLRE
 70
     0
  9
$DIMCLRT
 70
     0
  9
$DIMTFAC
 40
1.0
  9
$DIMGAP
 40
0.09
  9
$DIMJUST
 70
     0
  9
$DIMSD1
 70
     0
  9
$DIMSD2
 70
     0
  9
$DIMTOLJ
 70
     1
  9
$DIMTZIN
 70
     0
  9
$DIMALTZ
 70
     0
  9
$DIMALTTZ
 70
     0
  9
$DIMUPT
 70
     0
  9
$DIMDEC
 70
     4
  9
$DIMTDEC
 70
     4
  9
$DIMALTU
 70
     2
  9
$DIMALTTD
 70
     2
  9
$DIMTXSTY
  7
Standard
  9
$DIMAUNIT
 70
     0
  9
$DIMADEC
 70
     0
  9
$DIMALTRND
 40
0.0
  9
$DIMAZIN
 70
     0
  9
$DIMDSEP
 70
    46
  9
$DIMATFIT
 70
     3
  9
$DIMFRAC
 70
     0
  9
$DIMLDRBLK
  1

  9
$DIMLUNIT
 70
     2
  9
$DIMLWD
 70
    -2
  9
$DIMLWE
 70
    -2
  9
$DIMTMOVE
 70
     0
  9
$LUNITS
 70
     2
  9
$LUPREC
 70
     4
  9
$SKETCHINC
 40
0.1
  9
$FILLETRAD
 40
0.5
  9
$AUNITS
 70
     0
  9
$AUPREC
 70
     0
  9
$MENU
  1
.
  9
$ELEVATION
 40
0.0
  9
$PELEVATION
 40
0.0
  9
$THICKNESS
 40
0.0
  9
$LIMCHECK
 70
     0
  9
$CHAMFERA
 40
0.5
  9
$CHAMFERB
 40
0.5
  9
$CHAMFERC
 40
1.0
  9
$CHAMFERD
 40
0.0
  9
$SKPOLY
 70
     0
  9
$TDCREATE
 40
2459892.608688588
  9
$TDUCREATE
 40
2459892.567021921
  9
$TDUPDATE
 40
2459892.608688599
  9
$TDUUPDATE
 40
2459892.567021933
  9
$TDINDWG
 40
0.0000000116
  9
$TDUSRTIMER
 40
0.0000000116
  9
$USRTIMER
 70
     1
  9
$ANGBASE
 50
0.0
  9
$ANGDIR
 70
     0
  9
$PDMODE
 70
     0
  9
$PDSIZE
 40
0.0
  9
$PLINEWID
 40
0.0
  9
$SPLFRAME
 70
     0
  9
$SPLINETYPE
 70
     6
  9
$SPLINESEGS
 70
     8
  9
$HANDSEED
  5
1D3
  9
$SURFTAB1
 70
     6
  9
$SURFTAB2
 70
     6
  9
$SURFTYPE
 70
     6
  9
$SURFU
 70
     6
  9
$SURFV
 70
     6
  9
$UCSBASE
  2

  9
$UCSNAME
  2

  9
$UCSORG
 10
0.0
 20
0.0
 30
0.0
  9
$UCSXDIR
 10
1.0
 20
0.0
 30
0.0
  9
$UCSYDIR
 10
0.0
 20
1.0
 30
0.0
  9
$UCSORTHOREF
  2

  9
$UCSORTHOVIEW
 70
     0
  9
$UCSORGTOP
 10
0.0
 20
0.0
 30
0.0
  9
$UCSORGBOTTOM
 10
0.0
 20
0.0
 30
0.0
  9
$UCSORGLEFT
 10
0.0
 20
0.0
 30
0.0
  9
$UCSORGRIGHT
 10
0.0
 20
0.0
 30
0.0
  9
$UCSORGFRONT
 10
0.0
 20
0.0
 30
0.0
  9
$UCSORGBACK
 10
0.0
 20
0.0
 30
0.0
  9
$PUCSBASE
  2

  9
$PUCSNAME
  2

  9
$PUCSORG
 10
0.0
 20
0.0
 30
0.0
  9
$PUCSXDIR
 10
1.0
 20
0.0
 30
0.0
  9
$PUCSYDIR
 10
0.0
 20
1.0
 30
0.0
  9
$PUCSORTHOREF
  2

  9
$PUCSORTHOVIEW
 70
     0
  9
$PUCSORGTOP
 10
0.0
 20
0.0
 30
0.0
  9
$PUCSORGBOTTOM
 10
0.0
 20
0.0
 30
0.0
  9
$PUCSORGLEFT
 10
0.0
 20
0.0
 30
0.0
  9
$PUCSORGRIGHT
 10
0.0
 20
0.0
 30
0.0
  9
$PUCSORGFRONT
 10
0.0
 20
0.0
 30
0.0
  9
$PUCSORGBACK
 10
0.0
 20
0.0
 30
0.0
  9
$USERI1
 70
     0
  9
$USERI2
 70
     0
  9
$USERI3
 70
     0
  9
$USERI4
 70
     0
  9
$USERI5
 70
     0
  9
$USERR1
 40
0.0
  9
$USERR2
 40
0.0
  9
$USERR3
 40
0.0
  9
$USERR4
 40
0.0
  9
$USERR5
 40
0.0
  9
$WORLDVIEW
 70
     1
  9
$SHADEDGE
 70
     3
  9
$SHADEDIF
 70
    70
  9
$TILEMODE
 70
     0
  9
$MAXACTVP
 70
    64
  9
$PINSBASE
 10
0.0
 20
0.0
 30
0.0
  9
$PLIMCHECK
 70
     0
  9
$PEXTMIN
 10
-0.071063948859405
 20
0.0
 30
0.0
  9
$PEXTMAX
 10
297.0
 20
210.0643390919704
 30
0.0
  9
$PLIMMIN
 10
-0.071063948859405
 20
0.0
  9
$PLIMMAX
 10
297.0
 20
210.0643390919704
  9
$UNITMODE
 70
     0
  9
$VISRETAIN
 70
     1
  9
$PLINEGEN
 70
     0
  9
$PSLTSCALE
 70
     0
  9
$TREEDEPTH
 70
  3020
  9
$CMLSTYLE
  2
Standard
  9
$CMLJUST
 70
     0
  9
$CMLSCALE
 40
1.0
  9
$PROXYGRAPHICS
 70
     1
  9
$MEASUREMENT
 70
     0
  9
$CELWEIGHT
370
    -1
  9
$ENDCAPS
280
     0
  9
$JOINSTYLE
280
     0
  9
$LWDISPLAY
290
     1
  9
$INSUNITS
 70
     0
  9
$HYPERLINKBASE
  1

  9
$STYLESHEET
  1

  9
$XEDIT
290
     1
  9
$CEPSNTYPE
380
     0
  9
$PSTYLEMODE
290
     1
  9
$FINGERPRINTGUID
  2
{0E05DB00-8264-4269-A9C8-CE0BE82A986B}
  9
$VERSIONGUID
  2
{FAEB1C32-E019-11D5-929B-00C0DF256EC4}
  9
$EXTNAMES
290
     1
  9
$PSVPSCALE
 40
0.0
  9
$OLESTARTUP
290
     0
  9
$SORTENTS
280
   127
  9
$INDEXCTL
280
     0
  9
$HIDETEXT
280
     1
  9
$XCLIPFRAME
290
     0
  9
$HALOGAP
280
     0
  9
$OBSCOLOR
 70
   257
  9
$OBSLTYPE
280
     0
  9
$INTERSECTIONDISPLAY
280
     0
  9
$INTERSECTIONCOLOR
 70
   257
  9
$DIMASSOC
280
     2
  9
$PROJECTNAME
  1

  0
ENDSEC
  0
SECTION
  2
CLASSES
  0
CLASS
  1
ACDBDICTIONARYWDFLT
  2
AcDbDictionaryWithDefault
  3
ObjectDBX Classes
 90
        0
 91
        3
280
     0
281
     0
  0
CLASS
  1
VISUALSTYLE
  2
AcDbVisualStyle
  3
ObjectDBX Classes
 90
     4095
 91
        3
280
     0
281
     0
  0
CLASS
  1
SCALE
  2
AcDbScale
  3
ObjectDBX Classes
 90
     1153
 91
        3
280
     0
281
     0
  0
CLASS
  1
WIPEOUT
  2
AcDbWipeout
  3
WipeOut|AutoCAD Express Tool|expresstools@autodesk.com
 90
      127
 91
        3
280
     0
281
     1
  0
CLASS
  1
SPATIAL_FILTER
  2
AcDbSpatialFilter
  3
ObjectDBX Classes
 90
        0
 91
        3
280
     0
281
     0
  0
ENDSEC
  0
SECTION
  2
TABLES
  0
TABLE
  2
VPORT
  5
8
330
0
100
AcDbSymbolTable
 70
     1
  0
VPORT
  5
29
330
8
100
AcDbSymbolTableRecord
100
AcDbViewportTableRecord
  2
*Active
 70
     0
 10
0.0
 20
0.0
 11
1.0
 21
1.0
 12
10.42990654205607
 22
4.5
 13
0.0
 23
0.0
 14
0.5
 24
0.5
 15
0.5
 25
0.5
 16
0.0
 26
0.0
 36
1.0
 17
0.0
 27
0.0
 37
0.0
 40
9.0
 41
1.972972972850329
 42
50.0
 43
0.0
 44
0.0
 50
0.0
 51
0.0
 71
     0
 72
   100
 73
     1
 74
     3
 75
     0
 76
     0
 77
     0
 78
     0
281
     0
 65
     1
110
0.0
120
0.0
130
0.0
111
1.0
121
0.0
131
0.0
112
0.0
122
1.0
132
0.0
 79
     0
146
0.0
  0
ENDTAB
  0
TABLE
  2
LTYPE
  5
5
330
0
100
AcDbSymbolTable
 70
     6
  0
LTYPE
  5
14
330
5
100
AcDbSymbolTableRecord
100
AcDbLinetypeTableRecord
  2
ByBlock
 70
     0
  3

 72
    65
 73
     0
 40
0.0
  0
LTYPE
  5
15
330
5
100
AcDbSymbolTableRecord
100
AcDbLinetypeTableRecord
  2
ByLayer
 70
     0
  3

 72
    65
 73
     0
 40
0.0
  0
LTYPE
  5
16
330
5
100
AcDbSymbolTableRecord
100
AcDbLinetypeTableRecord
  2
Continuous
 70
     0
  3
Solid line
 72
    65
 73
     0
 40
0.0
  0
LTYPE
  5
BF
330
5
100
AcDbSymbolTableRecord
100
AcDbLinetypeTableRecord
  2
IZOLACJA GRUBA
 70
     0
  3
??????????
 72
    65
 73
     3
 40
20.0
 49
0.0
 74
     4
 75
     1
340
C0
 46
0.1587301587301587
 50
0.0
 44
0.0
 45
0.0
 49
-20.0
 74
     0
 49
0.0
 74
     0
  0
LTYPE
  5
125
330
5
100
AcDbSymbolTableRecord
100
AcDbLinetypeTableRecord
  2
Przerywana
 70
     0
  3
- - - - - 
 72
    65
 73
     2
 40
11.28888893127441
 49
5.644444465637208
 74
     0
 49
-5.644444465637206
 74
     0
  0
LTYPE
  5
13A
330
5
100
AcDbSymbolTableRecord
100
AcDbLinetypeTableRecord
  2
Kreski i kropki
 70
     0
  3
- - - - - 
 72
    65
 73
     4
 40
13.4055552482605
 49
7.05555534362793
 74
     0
 49
-3.527777671813965
 74
     0
 49
0.0
 74
     0
 49
-2.822222232818604
 74
     0
  0
LTYPE
  5
1B4
330
5
100
AcDbSymbolTableRecord
100
AcDbLinetypeTableRecord
  2
Przerywana gęsta
 70
     0
  3
- - - - - 
 72
    65
 73
     2
 40
6.0
 49
4.0
 74
     0
 49
-2.0
 74
     0
  0
LTYPE
  5
1B6
330
5
100
AcDbSymbolTableRecord
100
AcDbLinetypeTableRecord
  2
Wipeout_Contour
 70
     0
  3
- - - - - 
 72
    65
 73
     2
 40
1000.0
 49
0.0
 74
     0
 49
-1000.0
 74
     0
  0
ENDTAB
  0
TABLE
  2
LAYER
  5
2
330
0
100
AcDbSymbolTable
 70
     4
  0
LAYER
  5
10
330
2
100
AcDbSymbolTableRecord
100
AcDbLayerTableRecord
  2
0
 70
     0
 62
     7
  6
Continuous
370
    -3
390
F
  0
LAYER
  5
71
330
2
100
AcDbSymbolTableRecord
100
AcDbLayerTableRecord
  2
@__WIDOCZNE
 70
     0
 62
     7
  6
Continuous
370
    -3
390
F
  0
LAYER
  5
C2
330
2
100
AcDbSymbolTableRecord
100
AcDbLayerTableRecord
  2
Linia Izolacji - ARCHICAD
 70
     0
 62
     7
  6
Continuous
370
    -3
390
F
  0
LAYER
  5
1CA
330
2
100
AcDbSymbolTableRecord
100
AcDbLayerTableRecord
  2
NonPlottable_0
 70
     0
 62
     7
  6
Continuous
290
     0
370
    -3
390
F
  0
ENDTAB
  0
TABLE
  2
STYLE
  5
3
330
0
100
AcDbSymbolTable
 70
     4
  0
STYLE
  5
11
330
3
100
AcDbSymbolTableRecord
100
AcDbTextStyleTableRecord
  2
Standard
 70
     0
 40
0.0
 41
1.0
 50
0.0
 71
     0
 42
0.2
  3
txt
  4
BIGFONT.SHX
  0
STYLE
  5
8C
330
3
100
AcDbSymbolTableRecord
100
AcDbTextStyleTableRecord
  2
GENERATED_STYLE_1
 70
     0
 40
0.0
 41
1.0
 50
0.0
 71
     0
 42
0.2
  3

  4

1001
ACAD
1000
Arial
1071
    60966
  0
STYLE
  5
C0
330
3
100
AcDbSymbolTableRecord
100
AcDbTextStyleTableRecord
  2

 70
     1
 40
0.2
 41
1.0
 50
0.0
 71
     0
 42
0.2
  3
08.01.03 BASEN_przejście1.Shx
  4

  0
STYLE
  5
1A4
330
3
100
AcDbSymbolTableRecord
100
AcDbTextStyleTableRecord
  2
GENERATED_STYLE_2
 70
     0
 40
0.0
 41
1.0
 50
0.0
 71
     0
 42
0.2
  3

  4

1001
ACAD
1000
Arial
1071
 33615398
  0
ENDTAB
  0
TABLE
  2
VIEW
  5
6
330
0
100
AcDbSymbolTable
 70
     0
  0
ENDTAB
  0
TABLE
  2
UCS
  5
7
330
0
100
AcDbSymbolTable
 70
     0
  0
ENDTAB
  0
TABLE
  2
APPID
  5
9
330
0
100
AcDbSymbolTable
 70
     1
  0
APPID
  5
12
330
9
100
AcDbSymbolTableRecord
100
AcDbRegAppTableRecord
  2
ACAD
 70
     0
  0
ENDTAB
  0
TABLE
  2
DIMSTYLE
  5
A
330
0
100
AcDbSymbolTable
 70
     1
100
AcDbDimStyleTable
  0
DIMSTYLE
105
27
330
A
100
AcDbSymbolTableRecord
100
AcDbDimStyleTableRecord
  2
Standard
 70
     0
340
11
  0
ENDTAB
  0
TABLE
  2
BLOCK_RECORD
  5
1
330
0
100
AcDbSymbolTable
 70
     8
  0
BLOCK_RECORD
  5
1F
330
1
100
AcDbSymbolTableRecord
100
AcDbBlockTableRecord
  2
*Model_Space
340
22
  0
BLOCK_RECORD
  5
1B
330
1
100
AcDbSymbolTableRecord
100
AcDbBlockTableRecord
  2
*Paper_Space
340
1E
  0
BLOCK_RECORD
  5
23
330
1
100
AcDbSymbolTableRecord
100
AcDbBlockTableRecord
  2
*Paper_Space0
340
26
  0
BLOCK_RECORD
  5
88
330
1
100
AcDbSymbolTableRecord
100
AcDbBlockTableRecord
  2
Sygnał termostatu 12
340
0
102
{BLKREFS
331
8E
331
A9
331
B2
102
}
  0
BLOCK_RECORD
  5
91
330
1
100
AcDbSymbolTableRecord
100
AcDbBlockTableRecord
  2
Sygnał termostatu 12_2
340
0
102
{BLKREFS
331
96
331
AC
331
B5
102
}
  0
BLOCK_RECORD
  5
99
330
1
100
AcDbSymbolTableRecord
100
AcDbBlockTableRecord
  2
Sygnał termostatu 12_3
340
0
102
{BLKREFS
331
9E
331
AF
331
B8
102
}
  0
BLOCK_RECORD
  5
A1
330
1
100
AcDbSymbolTableRecord
100
AcDbBlockTableRecord
  2
Sygnał termostatu 12_4
340
0
102
{BLKREFS
331
A6
331
BB
102
}
  0
BLOCK_RECORD
  5
1BF
330
1
100
AcDbSymbolTableRecord
100
AcDbBlockTableRecord
  2
Bez nazwy_STORY_MARKER
340
0
  0
BLOCK_RECORD
  5
1C2
330
1
100
AcDbSymbolTableRecord
100
AcDbBlockTableRecord
  2
Rysunek_1
340
0
102
{BLKREFS
331
1C5
102
}
  0
BLOCK_RECORD
  5
1CC
330
1
100
AcDbSymbolTableRecord
100
AcDbBlockTableRecord
  2
02.04.2-20 \U+FF8CCIANA+PIWICA 08.01._STORY_MARKER
340
0
  0
ENDTAB
  0
ENDSEC
  0
SECTION
  2
BLOCKS
  0
BLOCK
  5
20
330
1F
100
AcDbEntity
  8
0
100
AcDbBlockBegin
  2
*Model_Space
 70
     0
 10
0.0
 20
0.0
 30
0.0
  3
*Model_Space
  1

  0
ENDBLK
  5
21
330
1F
100
AcDbEntity
  8
0
100
AcDbBlockEnd
  0
BLOCK
  5
1C
330
1B
100
AcDbEntity
 67
     1
  8
0
100
AcDbBlockBegin
  2
*Paper_Space
 70
     0
 10
0.0
 20
0.0
 30
0.0
  3
*Paper_Space
  1

  0
ENDBLK
  5
1D
330
1B
100
AcDbEntity
 67
     1
  8
0
100
AcDbBlockEnd
  0
BLOCK
  5
24
330
23
100
AcDbEntity
  8
0
100
AcDbBlockBegin
  2
*Paper_Space0
 70
     0
 10
0.0
 20
0.0
 30
0.0
  3
*Paper_Space0
  1

  0
ENDBLK
  5
25
330
23
100
AcDbEntity
  8
0
100
AcDbBlockEnd
  0
BLOCK
  5
89
330
88
100
AcDbEntity
  8
0
100
AcDbBlockBegin
  2
Sygnał termostatu 12
 70
     2
 10
0.0
 20
0.0
 30
0.0
  3
Sygnał termostatu 12
  1

  0
CIRCLE
  5
8B
330
88
100
AcDbEntity
  8
@__WIDOCZNE
  6
Continuous
370
    13
100
AcDbCircle
 10
0.0
 20
0.0
 30
0.0
 40
6.0
  0
ATTDEF
  5
8D
330
88
100
AcDbEntity
  8
@__WIDOCZNE
370
    13
100
AcDbText
 10
-4.553160645023535
 20
-2.657131557799008
 30
0.0
 40
6.0
  1
01
  7
GENERATED_STYLE_1
 11
-4.553160645023535
 21
-4.430412807799009
 31
0.0
100
AcDbAttributeDefinition
  3
Tekst
  2
txt
 70
     0
 74
     1
  0
ENDBLK
  5
8A
330
88
100
AcDbEntity
  8
0
100
AcDbBlockEnd
  0
BLOCK
  5
92
330
91
100
AcDbEntity
  8
0
100
AcDbBlockBegin
  2
Sygnał termostatu 12_2
 70
     2
 10
0.0
 20
0.0
 30
0.0
  3
Sygnał termostatu 12_2
  1

  0
CIRCLE
  5
94
330
91
100
AcDbEntity
  8
@__WIDOCZNE
  6
Continuous
370
    13
100
AcDbCircle
 10
0.0
 20
0.0
 30
0.0
 40
6.0
  0
ATTDEF
  5
95
330
91
100
AcDbEntity
  8
@__WIDOCZNE
370
    13
100
AcDbText
 10
-4.553160645023535
 20
-2.657131557799008
 30
0.0
 40
6.0
  1
02
  7
GENERATED_STYLE_1
 11
-4.553160645023535
 21
-4.430412807799009
 31
0.0
100
AcDbAttributeDefinition
  3
Tekst
  2
txt
 70
     0
 74
     1
  0
ENDBLK
  5
93
330
91
100
AcDbEntity
  8
0
100
AcDbBlockEnd
  0
BLOCK
  5
9A
330
99
100
AcDbEntity
  8
0
100
AcDbBlockBegin
  2
Sygnał termostatu 12_3
 70
     2
 10
0.0
 20
0.0
 30
0.0
  3
Sygnał termostatu 12_3
  1

  0
CIRCLE
  5
9C
330
99
100
AcDbEntity
  8
@__WIDOCZNE
  6
Continuous
370
    13
100
AcDbCircle
 10
0.0
 20
0.0
 30
0.0
 40
6.0
  0
ATTDEF
  5
9D
330
99
100
AcDbEntity
  8
@__WIDOCZNE
370
    13
100
AcDbText
 10
-4.553160645023535
 20
-2.657131557799008
 30
0.0
 40
6.0
  1
03
  7
GENERATED_STYLE_1
 11
-4.553160645023535
 21
-4.430412807799009
 31
0.0
100
AcDbAttributeDefinition
  3
Tekst
  2
txt
 70
     0
 74
     1
  0
ENDBLK
  5
9B
330
99
100
AcDbEntity
  8
0
100
AcDbBlockEnd
  0
BLOCK
  5
A2
330
A1
100
AcDbEntity
  8
0
100
AcDbBlockBegin
  2
Sygnał termostatu 12_4
 70
     2
 10
0.0
 20
0.0
 30
0.0
  3
Sygnał termostatu 12_4
  1

  0
CIRCLE
  5
A4
330
A1
100
AcDbEntity
  8
@__WIDOCZNE
  6
Continuous
370
    13
100
AcDbCircle
 10
0.0
 20
0.0
 30
0.0
 40
6.0
  0
ATTDEF
  5
A5
330
A1
100
AcDbEntity
  8
@__WIDOCZNE
370
    13
100
AcDbText
 10
-4.553160645023535
 20
-2.657131557799008
 30
0.0
 40
6.0
  1
04
  7
GENERATED_STYLE_1
 11
-4.553160645023535
 21
-4.430412807799009
 31
0.0
100
AcDbAttributeDefinition
  3
Tekst
  2
txt
 70
     0
 74
     1
  0
ENDBLK
  5
A3
330
A1
100
AcDbEntity
  8
0
100
AcDbBlockEnd
  0
BLOCK
  5
1C0
330
1BF
100
AcDbEntity
  8
0
100
AcDbBlockBegin
  2
Bez nazwy_STORY_MARKER
 70
     0
 10
0.0
 20
0.0
 30
0.0
  3
Bez nazwy_STORY_MARKER
  1

  0
ENDBLK
  5
1C1
330
1BF
100
AcDbEntity
  8
0
100
AcDbBlockEnd
  0
BLOCK
  5
1C3
330
1C2
100
AcDbEntity
  8
0
100
AcDbBlockBegin
  2
Rysunek_1
 70
     0
 10
0.0
 20
0.0
 30
0.0
  3
Rysunek_1
  1

  0
ENDBLK
  5
1C4
330
1C2
100
AcDbEntity
  8
0
100
AcDbBlockEnd
  0
BLOCK
  5
1CD
330
1CC
100
AcDbEntity
  8
0
100
AcDbBlockBegin
  2
02.04.2-20 \U+FF8CCIANA+PIWICA 08.01._STORY_MARKER
 70
     0
 10
0.0
 20
0.0
 30
0.0
  3
02.04.2-20 \U+FF8CCIANA+PIWICA 08.01._STORY_MARKER
  1

  0
ENDBLK
  5
1CE
330
1CC
100
AcDbEntity
  8
0
100
AcDbBlockEnd
  0
ENDSEC
  0
SECTION
  2
ENTITIES
  0
HATCH
  5
5E
330
1F
100
AcDbEntity
  8
0
  6
Continuous
370
    13
100
AcDbHatch
 10
0.0
 20
0.0
 30
0.0
210
0.0
220
0.0
230
1.0
  2
Bloczki_ceramiczne_0002
 70
     0
 71
     0
 91
        1
 92
        2
 72
     0
 73
     1
 93
       30
 10
-2706.625608063332
 20
1048.396599609132
 10
-2698.625608063329
 20
1048.396599609132
 10
-2698.625608063329
 20
1045.396599609132
 10
-2688.625608063329
 20
1045.396599609132
 10
-2688.625608063329
 20
1048.396599609132
 10
-2678.62560806333
 20
1048.396599609132
 10
-2678.62560806333
 20
1045.396599609132
 10
-2668.62560806333
 20
1045.396599609132
 10
-2668.62560806333
 20
1048.396599609132
 10
-2658.62560806333
 20
1048.396599609132
 10
-2658.62560806333
 20
1045.396599609132
 10
-2648.62560806333
 20
1045.396599609132
 10
-2648.62560806333
 20
1048.396599609132
 10
-2638.625608063331
 20
1048.396599609132
 10
-2638.625608063331
 20
1045.396599609132
 10
-2628.625608063331
 20
1045.396599609132
 10
-2628.625608063331
 20
1048.396599609132
 10
-2622.913748472717
 20
1048.396599609132
 10
-2618.625608063331
 20
1048.396599609132
 10
-2618.625608063331
 20
1045.396599609132
 10
-2608.625608063331
 20
1045.396599609132
 10
-2608.625608063331
 20
1048.396599609132
 10
-2598.625608063332
 20
1048.396599609132
 10
-2598.625608063332
 20
1045.396599609132
 10
-2588.625608063332
 20
1045.396599609132
 10
-2588.625608063332
 20
1050.733530700864
 10
-2588.625608063332
 20
1055.396599609132
 10
-2591.455133178179
 20
1055.396599609132
 10
-2627.161310795637
 20
1055.396599609132
 10
-2706.625608063332
 20
1055.396599609132
 97
        0
 75
     0
 76
     2
 52
0.0
 41
1.0
 77
     0
 78
     1
 53
44.99999999999999
 43
0.0
 44
0.0
 45
-2.545584344836613
 46
2.545584344836613
 79
     0
 98
        0
  0
HATCH
  5
5F
330
1F
100
AcDbEntity
  8
0
  6
Continuous
370
    13
100
AcDbHatch
 10
0.0
 20
0.0
 30
0.0
210
0.0
220
0.0
230
1.0
  2
Bloczki_ceramiczne_0002
 70
     0
 71
     0
 91
        1
 92
        2
 72
     0
 73
     1
 93
       30
 10
-2180.625608063332
 20
1048.396599609132
 10
-2188.625608063335
 20
1048.396599609132
 10
-2188.625608063335
 20
1045.396599609132
 10
-2198.625608063335
 20
1045.396599609132
 10
-2198.625608063335
 20
1048.396599609132
 10
-2208.625608063334
 20
1048.396599609132
 10
-2208.625608063334
 20
1045.396599609132
 10
-2218.625608063334
 20
1045.396599609132
 10
-2218.625608063334
 20
1048.396599609132
 10
-2228.625608063334
 20
1048.396599609132
 10
-2228.625608063334
 20
1045.396599609132
 10
-2238.625608063334
 20
1045.396599609132
 10
-2238.625608063334
 20
1048.396599609132
 10
-2248.625608063333
 20
1048.396599609132
 10
-2248.625608063333
 20
1045.396599609132
 10
-2258.625608063333
 20
1045.396599609132
 10
-2258.625608063333
 20
1048.396599609132
 10
-2264.337467653947
 20
1048.396599609132
 10
-2268.625608063333
 20
1048.396599609132
 10
-2268.625608063333
 20
1045.396599609132
 10
-2278.625608063333
 20
1045.396599609132
 10
-2278.625608063333
 20
1048.396599609132
 10
-2288.625608063332
 20
1048.396599609132
 10
-2288.625608063332
 20
1045.396599609132
 10
-2298.625608063332
 20
1045.396599609132
 10
-2298.625608063332
 20
1050.733530700864
 10
-2298.625608063332
 20
1055.396599609132
 10
-2295.796082948485
 20
1055.396599609132
 10
-2260.089905331027
 20
1055.396599609132
 10
-2180.625608063332
 20
1055.396599609132
 97
        0
 75
     0
 76
     2
 52
0.0
 41
1.0
 77
     0
 78
     1
 53
44.99999999999999
 43
0.0
 44
0.0
 45
-2.545584344836613
 46
2.545584344836613
 79
     0
 98
        0
  0
HATCH
  5
60
330
1F
100
AcDbEntity
  8
0
  6
Continuous
370
    13
100
AcDbHatch
 10
0.0
 20
0.0
 30
0.0
210
0.0
220
0.0
230
1.0
  2
Płyty_kamienne_0002
 70
     0
 71
     0
 91
        1
 92
        2
 72
     0
 73
     1
 93
       28
 10
-2654.478259800172
 20
1032.396599609132
 10
-2646.406957736623
 20
1036.396599609132
 10
-2588.625608063332
 20
1036.396599609132
 10
-2588.625608063332
 20
1045.396599609132
 10
-2598.625608063332
 20
1045.396599609132
 10
-2598.625608063332
 20
1048.396599609132
 10
-2608.625608063331
 20
1048.396599609132
 10
-2608.625608063331
 20
1045.396599609132
 10
-2618.625608063331
 20
1045.396599609132
 10
-2618.625608063331
 20
1048.396599609132
 10
-2628.625608063331
 20
1048.396599609132
 10
-2628.625608063331
 20
1045.396599609132
 10
-2638.625608063331
 20
1045.396599609132
 10
-2638.625608063331
 20
1048.396599609132
 10
-2648.62560806333
 20
1048.396599609132
 10
-2648.62560806333
 20
1045.396599609132
 10
-2658.62560806333
 20
1045.396599609132
 10
-2658.62560806333
 20
1048.396599609132
 10
-2668.62560806333
 20
1048.396599609132
 10
-2668.62560806333
 20
1045.396599609132
 10
-2678.62560806333
 20
1045.396599609132
 10
-2678.62560806333
 20
1048.396599609132
 10
-2688.625608063329
 20
1048.396599609132
 10
-2688.625608063329
 20
1045.396599609132
 10
-2698.625608063329
 20
1045.396599609132
 10
-2698.625608063329
 20
1048.396599609132
 10
-2706.625608063334
 20
1048.396599609132
 10
-2706.625608063332
 20
1032.396599609132
 97
        0
 75
     0
 76
     2
 52
0.0
 41
1.0
 77
     0
 78
     2
 53
44.99999999999999
 43
0.0
 44
7.0
 45
-2.227386360737624
 46
2.227386360737625
 79
     4
 49
0.0
 49
-2.1
 49
0.0
 49
-3.15
 53
110.0
 43
7.0
 44
7.0
 45
2.960031755475611
 46
1.077363451475858
 79
     4
 49
0.0
 49
-1.54
 49
0.0
 49
-2.66
 98
        0
  0
HATCH
  5
61
330
1F
100
AcDbEntity
  8
0
  6
Continuous
370
    13
100
AcDbHatch
 10
0.0
 20
0.0
 30
0.0
210
0.0
220
0.0
230
1.0
  2
Płyty_kamienne_0002
 70
     0
 71
     0
 91
        1
 92
        2
 72
     0
 73
     1
 93
       28
 10
-2232.772956326492
 20
1032.396599609132
 10
-2240.844258390041
 20
1036.396599609132
 10
-2298.625608063332
 20
1036.396599609132
 10
-2298.625608063332
 20
1045.396599609132
 10
-2288.625608063332
 20
1045.396599609132
 10
-2288.625608063332
 20
1048.396599609132
 10
-2278.625608063333
 20
1048.396599609132
 10
-2278.625608063333
 20
1045.396599609132
 10
-2268.625608063333
 20
1045.396599609132
 10
-2268.625608063333
 20
1048.396599609132
 10
-2258.625608063333
 20
1048.396599609132
 10
-2258.625608063333
 20
1045.396599609132
 10
-2248.625608063333
 20
1045.396599609132
 10
-2248.625608063333
 20
1048.396599609132
 10
-2238.625608063334
 20
1048.396599609132
 10
-2238.625608063334
 20
1045.396599609132
 10
-2228.625608063334
 20
1045.396599609132
 10
-2228.625608063334
 20
1048.396599609132
 10
-2218.625608063334
 20
1048.396599609132
 10
-2218.625608063334
 20
1045.396599609132
 10
-2208.625608063334
 20
1045.396599609132
 10
-2208.625608063334
 20
1048.396599609132
 10
-2198.625608063335
 20
1048.396599609132
 10
-2198.625608063335
 20
1045.396599609132
 10
-2188.625608063335
 20
1045.396599609132
 10
-2188.625608063335
 20
1048.396599609132
 10
-2180.62560806333
 20
1048.396599609132
 10
-2180.625608063332
 20
1032.396599609132
 97
        0
 75
     0
 76
     2
 52
0.0
 41
1.0
 77
     0
 78
     2
 53
44.99999999999999
 43
0.0
 44
7.0
 45
-2.227386360737624
 46
2.227386360737625
 79
     4
 49
0.0
 49
-2.1
 49
0.0
 49
-3.15
 53
110.0
 43
7.0
 44
7.0
 45
2.960031755475611
 46
1.077363451475858
 79
     4
 49
0.0
 49
-1.54
 49
0.0
 49
-2.66
 98
        0
  0
HATCH
  5
62
330
1F
100
AcDbEntity
  8
0
  6
Continuous
370
    13
100
AcDbHatch
 10
0.0
 20
0.0
 30
0.0
210
0.0
220
0.0
230
1.0
  2
A_kratka_gesto_0002
 70
     0
 71
     0
 91
        1
 92
        2
 72
     0
 73
     1
 93
        4
 10
-2486.125608063334
 20
1042.396599609132
 10
-2486.125608063334
 20
1055.396599609132
 10
-2501.125608063333
 20
1055.396599609132
 10
-2501.125608063333
 20
1042.396599609132
 97
        0
 75
     0
 76
     2
 52
0.0
 41
1.0
 77
     0
 78
     2
 53
45.0
 43
0.0
 44
0.0
 45
-0.7071067811865475
 46
0.7071067811865476
 79
     0
 53
135.0
 43
0.0
 44
0.0
 45
0.7071067811865474
 46
0.7071067811865477
 79
     0
 98
        0
  0
HATCH
  5
63
330
1F
100
AcDbEntity
  8
0
  6
Continuous
370
    13
100
AcDbHatch
 10
0.0
 20
0.0
 30
0.0
210
0.0
220
0.0
230
1.0
  2
A_kratka_gesto_0002
 70
     0
 71
     0
 91
        1
 92
        2
 72
     0
 73
     1
 93
        4
 10
-2461.125608063336
 20
1042.396599609132
 10
-2461.125608063336
 20
1055.396599609132
 10
-2476.125608063334
 20
1055.396599609132
 10
-2476.125608063334
 20
1042.396599609132
 97
        0
 75
     0
 76
     2
 52
0.0
 41
1.0
 77
     0
 78
     2
 53
45.0
 43
0.0
 44
0.0
 45
-0.7071067811865475
 46
0.7071067811865476
 79
     0
 53
135.0
 43
0.0
 44
0.0
 45
0.7071067811865474
 46
0.7071067811865477
 79
     0
 98
        0
  0
HATCH
  5
64
330
1F
100
AcDbEntity
  8
0
  6
Continuous
370
    13
100
AcDbHatch
 10
0.0
 20
0.0
 30
0.0
210
0.0
220
0.0
230
1.0
  2
A_kratka_gesto_0002
 70
     0
 71
     0
 91
        1
 92
        2
 72
     0
 73
     1
 93
        4
 10
-2443.625608063332
 20
1042.396599609132
 10
-2451.125608063336
 20
1042.396599609132
 10
-2451.125608063336
 20
1055.396599609132
 10
-2443.625608063332
 20
1055.396599609132
 97
        0
 75
     0
 76
     2
 52
0.0
 41
1.0
 77
     0
 78
     2
 53
45.0
 43
0.0
 44
0.0
 45
-0.7071067811865475
 46
0.7071067811865476
 79
     0
 53
135.0
 43
0.0
 44
0.0
 45
0.7071067811865474
 46
0.7071067811865477
 79
     0
 98
        0
  0
HATCH
  5
65
330
1F
100
AcDbEntity
  8
0
  6
Continuous
370
    13
100
AcDbHatch
 10
0.0
 20
0.0
 30
0.0
210
0.0
220
0.0
230
1.0
  2
A_kratka_gesto_0002
 70
     0
 71
     0
 91
        1
 92
        2
 72
     0
 73
     1
 93
       12
 10
-2551.625608063332
 20
1042.396599609132
 10
-2550.625608063333
 20
1042.396599609132
 10
-2548.625608063332
 20
1042.396599609132
 10
-2546.625608063332
 20
1042.396599609132
 10
-2545.625608063332
 20
1042.396599609132
 10
-2511.125608063333
 20
1042.396599609132
 10
-2511.125608063333
 20
1055.396599609132
 10
-2543.625608063332
 20
1055.396599609132
 10
-2548.625608063332
 20
1055.396599609132
 10
-2553.625608063333
 20
1055.396599609132
 10
-2566.625608063332
 20
1055.396599609132
 10
-2566.625608063332
 20
1042.396599609132
 97
        0
 75
     0
 76
     2
 52
0.0
 41
1.0
 77
     0
 78
     2
 53
45.0
 43
0.0
 44
0.0
 45
-0.7071067811865475
 46
0.7071067811865476
 79
     0
 53
135.0
 43
0.0
 44
0.0
 45
0.7071067811865474
 46
0.7071067811865477
 79
     0
 98
        0
  0
HATCH
  5
66
330
1F
100
AcDbEntity
  8
0
  6
Continuous
370
    13
100
AcDbHatch
 10
0.0
 20
0.0
 30
0.0
210
0.0
220
0.0
230
1.0
  2
A_kratka_gesto_0002
 70
     0
 71
     0
 91
        1
 92
        2
 72
     0
 73
     1
 93
        4
 10
-2426.125608063328
 20
1042.396599609132
 10
-2426.125608063328
 20
1055.396599609132
 10
-2411.12560806333
 20
1055.396599609132
 10
-2411.12560806333
 20
1042.396599609132
 97
        0
 75
     0
 76
     2
 52
0.0
 41
1.0
 77
     0
 78
     2
 53
45.0
 43
0.0
 44
0.0
 45
-0.7071067811865475
 46
0.7071067811865476
 79
     0
 53
135.0
 43
0.0
 44
0.0
 45
0.7071067811865474
 46
0.7071067811865477
 79
     0
 98
        0
  0
HATCH
  5
67
330
1F
100
AcDbEntity
  8
0
  6
Continuous
370
    13
100
AcDbHatch
 10
0.0
 20
0.0
 30
0.0
210
0.0
220
0.0
230
1.0
  2
A_kratka_gesto_0002
 70
     0
 71
     0
 91
        1
 92
        2
 72
     0
 73
     1
 93
        4
 10
-2401.12560806333
 20
1042.396599609132
 10
-2401.12560806333
 20
1055.396599609132
 10
-2386.125608063331
 20
1055.396599609132
 10
-2386.125608063331
 20
1042.396599609132
 97
        0
 75
     0
 76
     2
 52
0.0
 41
1.0
 77
     0
 78
     2
 53
45.0
 43
0.0
 44
0.0
 45
-0.7071067811865475
 46
0.7071067811865476
 79
     0
 53
135.0
 43
0.0
 44
0.0
 45
0.7071067811865474
 46
0.7071067811865477
 79
     0
 98
        0
  0
HATCH
  5
68
330
1F
100
AcDbEntity
  8
0
  6
Continuous
370
    13
100
AcDbHatch
 10
0.0
 20
0.0
 30
0.0
210
0.0
220
0.0
230
1.0
  2
A_kratka_gesto_0002
 70
     0
 71
     0
 91
        1
 92
        2
 72
     0
 73
     1
 93
        4
 10
-2443.625608063332
 20
1042.396599609132
 10
-2436.125608063328
 20
1042.396599609132
 10
-2436.125608063328
 20
1055.396599609132
 10
-2443.625608063332
 20
1055.396599609132
 97
        0
 75
     0
 76
     2
 52
0.0
 41
1.0
 77
     0
 78
     2
 53
45.0
 43
0.0
 44
0.0
 45
-0.7071067811865475
 46
0.7071067811865476
 79
     0
 53
135.0
 43
0.0
 44
0.0
 45
0.7071067811865474
 46
0.7071067811865477
 79
     0
 98
        0
  0
HATCH
  5
69
330
1F
100
AcDbEntity
  8
0
  6
Continuous
370
    13
100
AcDbHatch
 10
0.0
 20
0.0
 30
0.0
210
0.0
220
0.0
230
1.0
  2
A_kratka_gesto_0002
 70
     0
 71
     0
 91
        1
 92
        2
 72
     0
 73
     1
 93
       12
 10
-2335.625608063332
 20
1042.396599609132
 10
-2336.625608063331
 20
1042.396599609132
 10
-2338.625608063332
 20
1042.396599609132
 10
-2340.625608063332
 20
1042.396599609132
 10
-2341.625608063332
 20
1042.396599609132
 10
-2376.125608063331
 20
1042.396599609132
 10
-2376.125608063331
 20
1055.396599609132
 10
-2343.625608063332
 20
1055.396599609132
 10
-2338.625608063332
 20
1055.396599609132
 10
-2333.625608063331
 20
1055.396599609132
 10
-2320.625608063333
 20
1055.396599609132
 10
-2320.625608063333
 20
1042.396599609132
 97
        0
 75
     0
 76
     2
 52
0.0
 41
1.0
 77
     0
 78
     2
 53
45.0
 43
0.0
 44
0.0
 45
-0.7071067811865475
 46
0.7071067811865476
 79
     0
 53
135.0
 43
0.0
 44
0.0
 45
0.7071067811865474
 46
0.7071067811865477
 79
     0
 98
        0
  0
HATCH
  5
6A
330
1F
100
AcDbEntity
  8
0
  6
Continuous
370
    13
100
AcDbHatch
 10
0.0
 20
0.0
 30
0.0
210
0.0
220
0.0
230
1.0
  2
Beton_zbrojony_0002
 70
     0
 71
     0
 91
        1
 92
        2
 72
     1
 73
     1
 93
       12
 10
-2318.625608063332
 20
1020.396599609132
 42
0.0
 10
-2348.62560806333
 20
1000.396599609132
 42
0.0
 10
-2348.625608063332
 20
969.3965996091318
 42
0.0
 10
-2378.625608063332
 20
969.3965996091318
 42
0.0
 10
-2378.625608063332
 20
925.396599609132
 42
-0.414213562373095
 10
-2398.625608063332
 20
905.3965996091318
 42
0.0
 10
-2423.625608063332
 20
905.3965996091318
 42
0.0
 10
-2423.625608063332
 20
895.3965996091318
 42
0.0
 10
-2180.625608063334
 20
895.3965996091318
 42
0.0
 10
-2180.625608063334
 20
1025.396599609132
 42
0.0
 10
-2278.625608063333
 20
1025.396599609132
 42
0.0
 10
-2278.625608063333
 20
1020.396599609132
 42
0.0
 97
        0
 75
     0
 76
     2
 52
0.0
 41
1.0
 77
     0
 78
     2
 53
44.99999999999999
 43
0.0
 44
0.0
 45
-3.676955127300131
 46
3.676955127300132
 79
     0
 53
44.99999999999999
 43
-1.838477563650065
 44
1.838477563650066
 45
-3.676955127300131
 46
3.676955127300132
 79
     2
 49
3.899999856948852
 49
-1.299999952316284
 98
        0
  0
HATCH
  5
6B
330
1F
100
AcDbEntity
  8
0
  6
Continuous
370
    13
100
AcDbHatch
 10
0.0
 20
0.0
 30
0.0
210
0.0
220
0.0
230
1.0
  2
Beton_zbrojony_0002
 70
     0
 71
     0
 91
        1
 92
        2
 72
     1
 73
     1
 93
       12
 10
-2568.625608063332
 20
1020.396599609132
 42
0.0
 10
-2538.625608063334
 20
1000.396599609132
 42
0.0
 10
-2538.625608063332
 20
969.3965996091318
 42
0.0
 10
-2508.625608063332
 20
969.3965996091318
 42
0.0
 10
-2508.625608063332
 20
925.396599609132
 42
0.414213562373095
 10
-2488.625608063332
 20
905.3965996091318
 42
0.0
 10
-2463.625608063332
 20
905.3965996091318
 42
0.0
 10
-2463.625608063332
 20
895.3965996091318
 42
0.0
 10
-2706.625608063332
 20
895.3965996091318
 42
0.0
 10
-2706.625608063332
 20
1025.396599609132
 42
0.0
 10
-2608.625608063331
 20
1025.396599609132
 42
0.0
 10
-2608.625608063331
 20
1020.396599609132
 42
0.0
 97
        0
 75
     0
 76
     2
 52
0.0
 41
1.0
 77
     0
 78
     2
 53
44.99999999999999
 43
0.0
 44
0.0
 45
-3.676955127300131
 46
3.676955127300132
 79
     0
 53
44.99999999999999
 43
-1.838477563650065
 44
1.838477563650066
 45
-3.676955127300131
 46
3.676955127300132
 79
     2
 49
3.899999856948852
 49
-1.299999952316284
 98
        0
  0
HATCH
  5
6C
330
1F
100
AcDbEntity
  8
0
  6
Continuous
370
    13
100
AcDbHatch
 10
0.0
 20
0.0
 30
0.0
210
0.0
220
0.0
230
1.0
  2
A_kratka_gesto_0002
 70
     0
 71
     0
 91
        1
 92
        2
 72
     1
 73
     1
 93
       24
 10
-2551.625608063332
 20
1040.396599609132
 42
0.0
 10
-2568.625608063332
 20
1040.396599609132
 42
0.0
 10
-2568.625608063332
 20
1055.396599609132
 42
0.0
 10
-2578.625608063332
 20
1055.396599609132
 42
0.0
 10
-2578.625608063332
 20
1025.396599609132
 42
0.0
 10
-2608.625608063331
 20
1025.396599609132
 42
0.0
 10
-2608.625608063331
 20
1020.396599609132
 42
0.0
 10
-2568.625608063332
 20
1020.396599609132
 42
0.0
 10
-2538.625608063332
 20
1000.396599609134
 42
0.0
 10
-2538.625608063332
 20
969.3965996091318
 42
0.0
 10
-2508.625608063332
 20
969.3965996091318
 42
0.0
 10
-2508.625608063332
 20
925.396599609132
 42
0.4142135623730999
 10
-2488.625608063332
 20
905.3965996091318
 42
0.0
 10
-2463.625608063332
 20
905.3965996091318
 42
0.0
 10
-2463.625608063332
 20
915.3965996091318
 42
0.0
 10
-2488.62560806333
 20
915.3965996091318
 42
-0.4142135623731438
 10
-2498.625608063332
 20
925.3965996091318
 42
0.0
 10
-2498.625608063332
 20
979.3965996091318
 42
0.0
 10
-2528.625608063333
 20
979.3965996091318
 42
0.0
 10
-2528.625608063333
 20
1040.396599609132
 42
0.0
 10
-2545.625608063332
 20
1040.396599609132
 42
0.0
 10
-2546.625608063332
 20
1040.396599609132
 42
0.0
 10
-2548.625608063332
 20
1040.396599609132
 42
0.0
 10
-2550.625608063333
 20
1040.396599609132
 42
0.0
 97
        0
 75
     0
 76
     2
 52
0.0
 41
1.0
 77
     0
 78
     2
 53
45.0
 43
0.0
 44
0.0
 45
-0.7071067811865475
 46
0.7071067811865476
 79
     0
 53
135.0
 43
0.0
 44
0.0
 45
0.7071067811865474
 46
0.7071067811865477
 79
     0
 98
        0
  0
HATCH
  5
6D
330
1F
100
AcDbEntity
  8
0
  6
Continuous
370
    13
100
AcDbHatch
 10
0.0
 20
0.0
 30
0.0
210
0.0
220
0.0
230
1.0
  2
A_kratka_gesto_0002
 70
     0
 71
     0
 91
        1
 92
        2
 72
     1
 73
     1
 93
       24
 10
-2335.625608063332
 20
1040.396599609132
 42
0.0
 10
-2318.625608063332
 20
1040.396599609132
 42
0.0
 10
-2318.625608063332
 20
1055.396599609132
 42
0.0
 10
-2308.625608063332
 20
1055.396599609132
 42
0.0
 10
-2308.625608063332
 20
1025.396599609132
 42
0.0
 10
-2278.625608063333
 20
1025.396599609132
 42
0.0
 10
-2278.625608063333
 20
1020.396599609132
 42
0.0
 10
-2318.625608063332
 20
1020.396599609132
 42
0.0
 10
-2348.625608063332
 20
1000.396599609134
 42
0.0
 10
-2348.625608063332
 20
969.3965996091318
 42
0.0
 10
-2378.625608063332
 20
969.3965996091318
 42
0.0
 10
-2378.625608063332
 20
925.396599609132
 42
-0.4142135623730999
 10
-2398.625608063332
 20
905.3965996091318
 42
0.0
 10
-2423.625608063332
 20
905.3965996091318
 42
0.0
 10
-2423.625608063332
 20
915.3965996091318
 42
0.0
 10
-2398.625608063334
 20
915.3965996091318
 42
0.4142135623731438
 10
-2388.625608063332
 20
925.3965996091318
 42
0.0
 10
-2388.625608063332
 20
979.3965996091318
 42
0.0
 10
-2358.625608063331
 20
979.3965996091318
 42
0.0
 10
-2358.625608063331
 20
1040.396599609132
 42
0.0
 10
-2341.625608063332
 20
1040.396599609132
 42
0.0
 10
-2340.625608063332
 20
1040.396599609132
 42
0.0
 10
-2338.625608063332
 20
1040.396599609132
 42
0.0
 10
-2336.625608063331
 20
1040.396599609132
 42
0.0
 97
        0
 75
     0
 76
     2
 52
0.0
 41
1.0
 77
     0
 78
     2
 53
45.0
 43
0.0
 44
0.0
 45
-0.7071067811865475
 46
0.7071067811865476
 79
     0
 53
135.0
 43
0.0
 44
0.0
 45
0.7071067811865474
 46
0.7071067811865477
 79
     0
 98
        0
  0
HATCH
  5
6E
330
1F
100
AcDbEntity
  8
0
  6
Continuous
370
    13
100
AcDbHatch
 10
0.0
 20
0.0
 30
0.0
210
0.0
220
0.0
230
1.0
  2
A_kratka_gesto_0002
 70
     0
 71
     0
 91
        1
 92
        2
 72
     0
 73
     1
 93
        4
 10
-2458.625608063331
 20
895.3965996091318
 10
-2463.625608063332
 20
895.3965996091318
 10
-2463.625608063332
 20
915.3965996091318
 10
-2458.625608063331
 20
915.3965996091318
 97
        0
 75
     0
 76
     2
 52
0.0
 41
1.0
 77
     0
 78
     2
 53
45.0
 43
0.0
 44
0.0
 45
-0.7071067811865475
 46
0.7071067811865476
 79
     0
 53
135.0
 43
0.0
 44
0.0
 45
0.7071067811865474
 46
0.7071067811865477
 79
     0
 98
        0
  0
HATCH
  5
6F
330
1F
100
AcDbEntity
  8
0
  6
Continuous
370
    13
100
AcDbHatch
 10
0.0
 20
0.0
 30
0.0
210
0.0
220
0.0
230
1.0
  2
A_kratka_gesto_0002
 70
     0
 71
     0
 91
        1
 92
        2
 72
     0
 73
     1
 93
        4
 10
-2428.625608063333
 20
895.3965996091318
 10
-2423.625608063332
 20
895.3965996091318
 10
-2423.625608063332
 20
915.3965996091318
 10
-2428.625608063333
 20
915.3965996091318
 97
        0
 75
     0
 76
     2
 52
0.0
 41
1.0
 77
     0
 78
     2
 53
45.0
 43
0.0
 44
0.0
 45
-0.7071067811865475
 46
0.7071067811865476
 79
     0
 53
135.0
 43
0.0
 44
0.0
 45
0.7071067811865474
 46
0.7071067811865477
 79
     0
 98
        0
  0
HATCH
  5
70
330
1F
100
AcDbEntity
  8
@__WIDOCZNE
  6
Continuous
 62
   142
370
    13
100
AcDbHatch
 10
0.0
 20
0.0
 30
0.0
210
0.0
220
0.0
230
1.0
  2
SOLID
 70
     1
 71
     1
 91
        1
 92
        2
 72
     1
 73
     1
 93
        6
 10
-2423.626005855263
 20
871.7666889917217
 42
0.0
 10
-2423.626005855263
 20
876.6823334668694
 42
0.0
 10
-2428.54165033041
 20
876.6823334668694
 42
0.414213562373095
 10
-2434.440423700588
 20
870.7835600966924
 42
0.0
 10
-2434.440423700588
 20
865.8679156215447
 42
0.0
 10
-2429.52477922544
 20
865.8679156215447
 42
0.414213562373095
 97
        1
330
72
 75
     0
 76
     1
 98
        0
  0
LWPOLYLINE
  5
72
102
{ACAD_REACTORS
330
70
102
}
330
1F
100
AcDbEntity
  8
@__WIDOCZNE
  6
Continuous
 62
   142
370
    13
100
AcDbPolyline
 90
        6
 70
   129
 43
0.0
 10
-2423.626005855263
 20
871.7666889917217
 10
-2423.626005855263
 20
876.6823334668694
 10
-2428.54165033041
 20
876.6823334668694
 42
0.414213562373095
 10
-2434.440423700588
 20
870.7835600966924
 10
-2434.440423700588
 20
865.8679156215447
 10
-2429.52477922544
 20
865.8679156215447
 42
0.414213562373095
  0
HATCH
  5
73
330
1F
100
AcDbEntity
  8
@__WIDOCZNE
  6
Continuous
370
    13
100
AcDbHatch
 10
0.0
 20
0.0
 30
0.0
210
0.0
220
0.0
230
1.0
  2
SOLID
 70
     1
 71
     1
 91
        3
 92
        2
 72
     1
 73
     1
 93
        8
 10
-2514.547403782554
 20
866.030920045605
 42
0.0723831287448308
 10
-2521.681784879062
 20
865.9700903381333
 42
0.0
 10
-2521.681784879062
 20
852.2439536421069
 42
0.0475754375093521
 10
-2517.823701398099
 20
851.82319796543
 42
0.0
 10
-2517.269809384014
 20
851.82319796543
 42
0.0201526900432898
 10
-2515.625192095099
 20
851.9118457211056
 42
0.1117820670402823
 10
-2512.118599654272
 20
853.019556107745
 42
0.5989391739264164
 10
-2513.282374331724
 20
859.5947703170599
 42
0.7144612958116017
 97
        1
330
74
 92
        2
 72
     1
 73
     1
 93
        4
 10
-2519.114932937483
 20
860.4086240476306
 42
0.018587651104709
 10
-2515.595626942521
 20
860.4120126602265
 42
0.8637728306683231
 10
-2515.698244880111
 20
864.0681224238001
 42
0.0363046036528515
 10
-2519.114932937483
 20
864.0681224238001
 42
0.0
 97
        1
330
75
 92
        2
 72
     1
 73
     1
 93
        4
 10
-2519.075250793954
 20
854.0580935954117
 42
0.0570602598095221
 10
-2515.447067937268
 20
854.0931082231257
 42
0.9504624262000833
 10
-2515.485126794582
 20
858.3593049569758
 42
0.0333151677067815
 10
-2519.075250793954
 20
858.3593049569758
 42
0.0
 97
        1
330
76
 75
     0
 76
     1
 98
        0
  0
LWPOLYLINE
  5
74
102
{ACAD_REACTORS
330
73
102
}
330
1F
100
AcDbEntity
  8
@__WIDOCZNE
  6
Continuous
370
    13
100
AcDbPolyline
 90
        8
 70
   129
 43
0.0
 10
-2514.547403782554
 20
866.030920045605
 42
0.0723831287448308
 10
-2521.681784879062
 20
865.9700903381333
 10
-2521.681784879062
 20
852.2439536421069
 42
0.0475754375093521
 10
-2517.823701398099
 20
851.82319796543
 10
-2517.269809384014
 20
851.82319796543
 42
0.0201526900432898
 10
-2515.625192095099
 20
851.9118457211056
 42
0.1117820670402823
 10
-2512.118599654272
 20
853.019556107745
 42
0.5989391739264164
 10
-2513.282374331724
 20
859.5947703170599
 42
0.7144612958116017
  0
LWPOLYLINE
  5
75
102
{ACAD_REACTORS
330
73
102
}
330
1F
100
AcDbEntity
  8
@__WIDOCZNE
  6
Continuous
370
    13
100
AcDbPolyline
 90
        4
 70
   129
 43
0.0
 10
-2519.114932937483
 20
860.4086240476306
 42
0.018587651104709
 10
-2515.595626942521
 20
860.4120126602265
 42
0.8637728306683231
 10
-2515.698244880111
 20
864.0681224238001
 42
0.0363046036528515
 10
-2519.114932937483
 20
864.0681224238001
  0
LWPOLYLINE
  5
76
102
{ACAD_REACTORS
330
73
102
}
330
1F
100
AcDbEntity
  8
@__WIDOCZNE
  6
Continuous
370
    13
100
AcDbPolyline
 90
        4
 70
   129
 43
0.0
 10
-2519.075250793954
 20
854.0580935954117
 42
0.0570602598095221
 10
-2515.447067937268
 20
854.0931082231257
 42
0.9504624262000833
 10
-2515.485126794582
 20
858.3593049569758
 42
0.0333151677067815
 10
-2519.075250793954
 20
858.3593049569758
  0
HATCH
  5
77
330
1F
100
AcDbEntity
  8
@__WIDOCZNE
  6
Continuous
370
    13
100
AcDbHatch
 10
0.0
 20
0.0
 30
0.0
210
0.0
220
0.0
230
1.0
  2
SOLID
 70
     1
 71
     1
 91
        1
 92
        2
 72
     1
 73
     1
 93
       12
 10
-2491.506150951371
 20
862.8888847177035
 42
0.0
 10
-2494.690434846465
 20
862.8888847177035
 42
0.0
 10
-2494.690434846465
 20
865.9860464447971
 42
0.0
 10
-2497.146287785164
 20
865.4865509318412
 42
0.0
 10
-2497.146287785164
 20
855.2760487094149
 42
0.3686923280690939
 10
-2493.693457616871
 20
851.8351180815943
 42
0.0
 10
-2491.20415918774
 20
851.8437118220901
 42
0.0
 10
-2490.673658429778
 20
854.1646526381758
 42
0.0
 10
-2493.21574150392
 20
854.1646526381758
 42
-0.3159610186060354
 10
-2494.690434846465
 20
855.6393459807201
 42
0.0
 10
-2494.690434846465
 20
860.595657367482
 42
0.0
 10
-2491.506150951371
 20
860.595657367482
 42
0.0
 97
        1
330
78
 75
     0
 76
     1
 98
        0
  0
LWPOLYLINE
  5
78
102
{ACAD_REACTORS
330
77
102
}
330
1F
100
AcDbEntity
  8
@__WIDOCZNE
  6
Continuous
370
    13
100
AcDbPolyline
 90
       12
 70
   129
 43
0.0
 10
-2491.506150951371
 20
862.8888847177035
 10
-2494.690434846465
 20
862.8888847177035
 10
-2494.690434846465
 20
865.9860464447971
 10
-2497.146287785164
 20
865.4865509318412
 10
-2497.146287785164
 20
855.2760487094149
 42
0.3686923280690939
 10
-2493.693457616871
 20
851.8351180815943
 10
-2491.20415918774
 20
851.8437118220901
 10
-2490.673658429778
 20
854.1646526381758
 10
-2493.21574150392
 20
854.1646526381758
 42
-0.3159610186060354
 10
-2494.690434846465
 20
855.6393459807201
 10
-2494.690434846465
 20
860.595657367482
 10
-2491.506150951371
 20
860.595657367482
  0
HATCH
  5
79
330
1F
100
AcDbEntity
  8
@__WIDOCZNE
  6
Continuous
370
    13
100
AcDbHatch
 10
0.0
 20
0.0
 30
0.0
210
0.0
220
0.0
230
1.0
  2
SOLID
 70
     1
 71
     1
 91
        2
 92
        2
 72
     1
 73
     1
 93
       14
 10
-2484.701397169121
 20
860.5287717929641
 42
-0.387209016979461
 10
-2483.154297949205
 20
858.9054869871292
 42
0.0
 10
-2483.140473691134
 20
858.2914481411829
 42
0.1185067504646354
 10
-2486.695295697823
 20
858.3234724651115
 42
0.2642193030162518
 10
-2489.23871810427
 20
856.3045844905124
 42
0.1757337626801403
 10
-2489.24179341717
 20
854.0691103013319
 42
0.2604621029539542
 10
-2486.786503840156
 20
851.8851575469506
 42
0.0083652857947627
 10
-2486.077665736779
 20
851.82319796543
 42
0.0
 10
-2483.083387937561
 20
851.82319796543
 42
0.028992295246684
 10
-2480.639530920168
 20
852.1387912587664
 42
0.0
 10
-2480.764909817065
 20
859.0719098801765
 42
0.4278697545607686
 10
-2484.24847174912
 20
862.7517809192104
 42
0.0
 10
-2487.739158187794
 20
862.7664347519767
 42
0.0
 10
-2488.291521168491
 20
860.5287717929641
 42
0.0
 97
        1
330
7A
 92
        2
 72
     1
 73
     1
 93
        6
 10
-2483.118512995768
 20
856.590491550724
 42
0.1273826308893613
 10
-2485.834960536997
 20
856.6604120181946
 42
0.2091253650713026
 10
-2486.908548432195
 20
855.6412925723433
 42
0.067218802794298
 10
-2486.895936742597
 20
854.8597848508861
 42
0.2977682718343915
 10
-2485.79186610439
 20
853.7247768106184
 42
0.0710664823309622
 10
-2483.118512995768
 20
853.7300029240122
 42
0.0
 97
        1
330
7B
 75
     0
 76
     1
 98
        0
  0
LWPOLYLINE
  5
7A
102
{ACAD_REACTORS
330
79
102
}
330
1F
100
AcDbEntity
  8
@__WIDOCZNE
  6
Continuous
370
    13
100
AcDbPolyline
 90
       14
 70
   129
 43
0.0
 10
-2484.701397169121
 20
860.5287717929641
 42
-0.387209016979461
 10
-2483.154297949205
 20
858.9054869871292
 10
-2483.140473691134
 20
858.2914481411829
 42
0.1185067504646354
 10
-2486.695295697823
 20
858.3234724651115
 42
0.2642193030162518
 10
-2489.23871810427
 20
856.3045844905124
 42
0.1757337626801403
 10
-2489.24179341717
 20
854.0691103013319
 42
0.2604621029539542
 10
-2486.786503840156
 20
851.8851575469506
 42
0.0083652857947627
 10
-2486.077665736779
 20
851.82319796543
 10
-2483.083387937561
 20
851.82319796543
 42
0.028992295246684
 10
-2480.639530920168
 20
852.1387912587664
 10
-2480.764909817065
 20
859.0719098801765
 42
0.4278697545607686
 10
-2484.24847174912
 20
862.7517809192104
 10
-2487.739158187794
 20
862.7664347519767
 10
-2488.291521168491
 20
860.5287717929641
  0
LWPOLYLINE
  5
7B
102
{ACAD_REACTORS
330
79
102
}
330
1F
100
AcDbEntity
  8
@__WIDOCZNE
  6
Continuous
370
    13
100
AcDbPolyline
 90
        6
 70
   129
 43
0.0
 10
-2483.118512995768
 20
856.590491550724
 42
0.1273826308893613
 10
-2485.834960536997
 20
856.6604120181946
 42
0.2091253650713026
 10
-2486.908548432195
 20
855.6412925723433
 42
0.067218802794298
 10
-2486.895936742597
 20
854.8597848508861
 42
0.2977682718343915
 10
-2485.79186610439
 20
853.7247768106184
 42
0.0710664823309622
 10
-2483.118512995768
 20
853.7300029240122
  0
HATCH
  5
7C
330
1F
100
AcDbEntity
  8
@__WIDOCZNE
  6
Continuous
370
    13
100
AcDbHatch
 10
0.0
 20
0.0
 30
0.0
210
0.0
220
0.0
230
1.0
  2
SOLID
 70
     1
 71
     1
 91
        1
 92
        2
 72
     1
 73
     1
 93
       26
 10
-2476.465285734514
 20
862.8021319091596
 42
0.0863077155126181
 10
-2478.782157313774
 20
862.2344350835925
 42
0.0
 10
-2478.782157313774
 20
851.82319796543
 42
0.0
 10
-2476.182616953877
 20
851.82319796543
 42
0.0
 10
-2476.182616953877
 20
860.5404910279606
 42
-0.12168371550613
 10
-2474.250061072119
 20
860.7309771676465
 42
-0.3861329478031837
 10
-2472.673133199012
 20
858.894442223623
 42
0.0
 10
-2472.673133199012
 20
851.82319796543
 42
0.0
 10
-2470.175655634232
 20
851.82319796543
 42
0.0
 10
-2470.212036729775
 20
858.663624743887
 42
0.0
 10
-2470.175655634232
 20
858.6643750073381
 42
0.0799288732000265
 10
-2470.426366923722
 20
860.085306820094
 42
0.0
 10
-2470.173428202151
 20
860.2417296097592
 42
-0.1916235362829357
 10
-2467.938158905266
 20
860.6768069771178
 42
-0.3589776600930252
 10
-2466.582290022379
 20
859.0552263782738
 42
0.0
 10
-2466.581041407727
 20
851.82319796543
 42
0.0
 10
-2464.199374250633
 20
851.82319796543
 42
0.0
 10
-2464.200432756926
 20
859.5568035685687
 42
0.3475935087177212
 10
-2467.098940180801
 20
862.8888847177035
 42
0.0
 10
-2469.059786595019
 20
862.8888847177035
 42
0.0002381544695914
 10
-2469.07327745867
 20
862.8879352913491
 42
0.1173548723086789
 10
-2470.273428159893
 20
862.5409964525209
 42
0.1053500657717058
 10
-2471.515601018903
 20
861.7604514597423
 42
0.1560368886834541
 10
-2473.355918680512
 20
862.8244959577906
 42
0.0158994515272265
 10
-2474.241330547747
 20
862.8888847177035
 42
0.0
 10
-2475.380280426679
 20
862.8888847177035
 42
0.0194967579096993
 97
        1
330
7D
 75
     0
 76
     1
 98
        0
  0
LWPOLYLINE
  5
7D
102
{ACAD_REACTORS
330
7C
102
}
330
1F
100
AcDbEntity
  8
@__WIDOCZNE
  6
Continuous
370
    13
100
AcDbPolyline
 90
       26
 70
   129
 43
0.0
 10
-2476.465285734514
 20
862.8021319091596
 42
0.0863077155126181
 10
-2478.782157313774
 20
862.2344350835925
 10
-2478.782157313774
 20
851.82319796543
 10
-2476.182616953877
 20
851.82319796543
 10
-2476.182616953877
 20
860.5404910279606
 42
-0.12168371550613
 10
-2474.250061072119
 20
860.7309771676465
 42
-0.3861329478031837
 10
-2472.673133199012
 20
858.894442223623
 10
-2472.673133199012
 20
851.82319796543
 10
-2470.175655634232
 20
851.82319796543
 10
-2470.212036729775
 20
858.663624743887
 10
-2470.175655634232
 20
858.6643750073381
 42
0.0799288732000265
 10
-2470.426366923722
 20
860.085306820094
 10
-2470.173428202151
 20
860.2417296097592
 42
-0.1916235362829357
 10
-2467.938158905266
 20
860.6768069771178
 42
-0.3589776600930252
 10
-2466.582290022379
 20
859.0552263782738
 10
-2466.581041407727
 20
851.82319796543
 10
-2464.199374250633
 20
851.82319796543
 10
-2464.200432756926
 20
859.5568035685687
 42
0.3475935087177212
 10
-2467.098940180801
 20
862.8888847177035
 10
-2469.059786595019
 20
862.8888847177035
 42
0.0002381544695914
 10
-2469.07327745867
 20
862.8879352913491
 42
0.1173548723086789
 10
-2470.273428159893
 20
862.5409964525209
 42
0.1053500657717058
 10
-2471.515601018903
 20
861.7604514597423
 42
0.1560368886834541
 10
-2473.355918680512
 20
862.8244959577906
 42
0.0158994515272265
 10
-2474.241330547747
 20
862.8888847177035
 10
-2475.380280426679
 20
862.8888847177035
 42
0.0194967579096993
  0
HATCH
  5
7E
330
1F
100
AcDbEntity
  8
@__WIDOCZNE
  6
Continuous
370
    13
100
AcDbHatch
 10
0.0
 20
0.0
 30
0.0
210
0.0
220
0.0
230
1.0
  2
SOLID
 70
     1
 71
     1
 91
        2
 92
        2
 72
     1
 73
     1
 93
       14
 10
-2458.458466071281
 20
862.639854619105
 42
0.2809658966461606
 10
-2462.137563669937
 20
858.8337670508688
 42
0.1091159824470767
 10
-2462.134804663504
 20
855.4400056761613
 42
0.2766399819923606
 10
-2458.438823765718
 20
851.9714375514071
 42
0.0392105095801167
 10
-2457.425317669712
 20
851.8276366645536
 42
0.0
 10
-2453.902218047439
 20
851.82319796543
 42
0.0
 10
-2453.462492807562
 20
853.9980945913009
 42
0.0
 10
-2457.14290171791
 20
853.9980945913009
 42
-0.1667294674755062
 10
-2458.738470998816
 20
854.5453648340359
 42
-0.081638462027361
 10
-2459.558015248861
 20
855.5993138532158
 42
-0.0661503038161424
 10
-2459.668675054782
 20
856.3070755389192
 42
0.0
 10
-2452.634113247322
 20
856.3070755389192
 42
0.0
 10
-2452.634113247322
 20
858.5548053472204
 42
0.3105787245802772
 10
-2455.99088325308
 20
862.6453497681547
 42
0.1083142208160692
 97
        1
330
7F
 92
        2
 72
     1
 73
     1
 93
        5
 10
-2456.657770702568
 20
860.766582405726
 42
0.1431069476368757
 10
-2457.846719370181
 20
860.8087734786749
 42
0.3279495498710064
 10
-2459.667746214723
 20
858.3268103395112
 42
0.0
 10
-2454.993167215924
 20
858.3268103395112
 42
0.0
 10
-2454.993167215924
 20
858.517925197374
 42
0.3298596086471468
 97
        1
330
80
 75
     0
 76
     1
 98
        0
  0
LWPOLYLINE
  5
7F
102
{ACAD_REACTORS
330
7E
102
}
330
1F
100
AcDbEntity
  8
@__WIDOCZNE
  6
Continuous
370
    13
100
AcDbPolyline
 90
       14
 70
   129
 43
0.0
 10
-2458.458466071281
 20
862.639854619105
 42
0.2809658966461606
 10
-2462.137563669937
 20
858.8337670508688
 42
0.1091159824470767
 10
-2462.134804663504
 20
855.4400056761613
 42
0.2766399819923606
 10
-2458.438823765718
 20
851.9714375514071
 42
0.0392105095801167
 10
-2457.425317669712
 20
851.8276366645536
 10
-2453.902218047439
 20
851.82319796543
 10
-2453.462492807562
 20
853.9980945913009
 10
-2457.14290171791
 20
853.9980945913009
 42
-0.1667294674755062
 10
-2458.738470998816
 20
854.5453648340359
 42
-0.081638462027361
 10
-2459.558015248861
 20
855.5993138532158
 42
-0.0661503038161424
 10
-2459.668675054782
 20
856.3070755389192
 10
-2452.634113247322
 20
856.3070755389192
 10
-2452.634113247322
 20
858.5548053472204
 42
0.3105787245802772
 10
-2455.99088325308
 20
862.6453497681547
 42
0.1083142208160692
  0
LWPOLYLINE
  5
80
102
{ACAD_REACTORS
330
7E
102
}
330
1F
100
AcDbEntity
  8
@__WIDOCZNE
  6
Continuous
370
    13
100
AcDbPolyline
 90
        5
 70
   129
 43
0.0
 10
-2456.657770702568
 20
860.766582405726
 42
0.1431069476368757
 10
-2457.846719370181
 20
860.8087734786749
 42
0.3279495498710064
 10
-2459.667746214723
 20
858.3268103395112
 10
-2454.993167215924
 20
858.3268103395112
 10
-2454.993167215924
 20
858.517925197374
 42
0.3298596086471468
  0
HATCH
  5
81
330
1F
100
AcDbEntity
  8
@__WIDOCZNE
  6
Continuous
370
    13
100
AcDbHatch
 10
0.0
 20
0.0
 30
0.0
210
0.0
220
0.0
230
1.0
  2
SOLID
 70
     1
 71
     1
 91
        1
 92
        2
 72
     1
 73
     1
 93
       13
 10
-2445.136251788857
 20
862.8175413071888
 42
0.0175531184166386
 10
-2446.25951648094
 20
862.8888847177035
 42
0.0
 10
-2447.167840338066
 20
862.8888847177035
 42
0.0177750747803509
 10
-2448.305267442916
 20
862.8161349795229
 42
0.0683229953867364
 10
-2450.833444599997
 20
862.3174176331917
 42
0.0
 10
-2450.833444599997
 20
851.82319796543
 42
0.0
 10
-2448.334050483036
 20
851.82319796543
 42
0.0
 10
-2448.334050483036
 20
860.5493858064168
 42
-0.0958663550348273
 10
-2445.897718033606
 20
860.6604879685392
 42
-0.3633763851128492
 10
-2444.426615511768
 20
858.9035567664102
 42
0.0
 10
-2444.426615511768
 20
851.82319796543
 42
0.0
 10
-2441.992587406759
 20
851.82319796543
 42
0.0
 10
-2441.992587406759
 20
859.2821932860528
 42
0.3803017440747632
 97
        1
330
82
 75
     0
 76
     1
 98
        0
  0
LWPOLYLINE
  5
82
102
{ACAD_REACTORS
330
81
102
}
330
1F
100
AcDbEntity
  8
@__WIDOCZNE
  6
Continuous
370
    13
100
AcDbPolyline
 90
       13
 70
   129
 43
0.0
 10
-2445.136251788857
 20
862.8175413071888
 42
0.0175531184166386
 10
-2446.25951648094
 20
862.8888847177035
 10
-2447.167840338066
 20
862.8888847177035
 42
0.0177750747803509
 10
-2448.305267442916
 20
862.8161349795229
 42
0.0683229953867364
 10
-2450.833444599997
 20
862.3174176331917
 10
-2450.833444599997
 20
851.82319796543
 10
-2448.334050483036
 20
851.82319796543
 10
-2448.334050483036
 20
860.5493858064168
 42
-0.0958663550348273
 10
-2445.897718033606
 20
860.6604879685392
 42
-0.3633763851128492
 10
-2444.426615511768
 20
858.9035567664102
 10
-2444.426615511768
 20
851.82319796543
 10
-2441.992587406759
 20
851.82319796543
 10
-2441.992587406759
 20
859.2821932860528
 42
0.3803017440747632
  0
HATCH
  5
83
330
1F
100
AcDbEntity
  8
@__WIDOCZNE
  6
Continuous
370
    13
100
AcDbHatch
 10
0.0
 20
0.0
 30
0.0
210
0.0
220
0.0
230
1.0
  2
SOLID
 70
     1
 71
     1
 91
        1
 92
        2
 72
     1
 73
     1
 93
       12
 10
-2440.096185578891
 20
855.2760487094149
 42
0.3564817226562251
 10
-2436.643355410599
 20
851.8351180815943
 42
0.0
 10
-2434.154056981467
 20
851.8437118220901
 42
0.0
 10
-2433.623556223505
 20
854.1646526381758
 42
0.0
 10
-2436.165639297647
 20
854.1646526381758
 42
-0.3014632934563285
 10
-2437.640332640191
 20
855.6393459807201
 42
0.0
 10
-2437.640332640191
 20
860.595657367482
 42
0.0
 10
-2434.456048745098
 20
860.595657367482
 42
0.0
 10
-2434.456048745098
 20
862.8888847177035
 42
0.0
 10
-2437.640332640191
 20
862.8888847177035
 42
0.0
 10
-2437.640332640191
 20
865.9860464447971
 42
0.0
 10
-2440.096185578891
 20
865.4865509318412
 42
0.0
 97
        1
330
84
 75
     0
 76
     1
 98
        0
  0
LWPOLYLINE
  5
84
102
{ACAD_REACTORS
330
83
102
}
330
1F
100
AcDbEntity
  8
@__WIDOCZNE
  6
Continuous
370
    13
100
AcDbPolyline
 90
       12
 70
   129
 43
0.0
 10
-2440.096185578891
 20
855.2760487094149
 42
0.3564817226562251
 10
-2436.643355410599
 20
851.8351180815943
 10
-2434.154056981467
 20
851.8437118220901
 10
-2433.623556223505
 20
854.1646526381758
 10
-2436.165639297647
 20
854.1646526381758
 42
-0.3014632934563285
 10
-2437.640332640191
 20
855.6393459807201
 10
-2437.640332640191
 20
860.595657367482
 10
-2434.456048745098
 20
860.595657367482
 10
-2434.456048745098
 20
862.8888847177035
 10
-2437.640332640191
 20
862.8888847177035
 10
-2437.640332640191
 20
865.9860464447971
 10
-2440.096185578891
 20
865.4865509318412
  0
HATCH
  5
85
330
1F
100
AcDbEntity
  8
@__WIDOCZNE
  6
Continuous
370
    13
100
AcDbHatch
 10
0.0
 20
0.0
 30
0.0
210
0.0
220
0.0
230
1.0
  2
SOLID
 70
     1
 71
     1
 91
        2
 92
        2
 72
     1
 73
     1
 93
        9
 10
-2505.296243169098
 20
862.7939151499804
 42
0.2820479307333718
 10
-2509.065074413409
 20
858.9834332139897
 42
0.0886832537999132
 10
-2509.058217284432
 20
855.5234049671144
 42
0.2508564250541997
 10
-2505.571814352811
 20
851.82319796543
 42
0.0
 10
-2502.568870292325
 20
851.82319796543
 42
0.2670900430231695
 10
-2499.039840502928
 20
855.8595980536411
 42
0.1207336614180937
 10
-2499.031030958587
 20
858.7973297206896
 42
0.3094451166888095
 10
-2502.767952069912
 20
862.7870081643481
 42
0.0268897328129527
 10
-2503.436974476382
 20
862.8888847177035
 42
0.074328415179198
 97
        1
330
86
 92
        2
 72
     1
 73
     1
 93
        8
 10
-2506.583599239755
 20
858.4611582457397
 42
0.0948073731652809
 10
-2506.602810578765
 20
856.2174064046684
 42
0.0590800675341869
 10
-2506.384511885975
 20
855.4711122116763
 42
0.6394418664691048
 10
-2501.800298847891
 20
855.3318573748855
 42
0.0835238969854629
 10
-2501.51334728701
 20
856.2705584509523
 42
0.0916297819744675
 10
-2501.558854957812
 20
858.574460297684
 42
0.2559732989582162
 10
-2503.241263476182
 20
860.6603435534112
 42
0.1954327814670101
 10
-2504.951829666254
 20
860.5906368683094
 42
0.2505066079508973
 97
        1
330
87
 75
     0
 76
     1
 98
        0
  0
LWPOLYLINE
  5
86
102
{ACAD_REACTORS
330
85
102
}
330
1F
100
AcDbEntity
  8
@__WIDOCZNE
  6
Continuous
370
    13
100
AcDbPolyline
 90
        9
 70
   129
 43
0.0
 10
-2505.296243169098
 20
862.7939151499804
 42
0.2820479307333718
 10
-2509.065074413409
 20
858.9834332139897
 42
0.0886832537999132
 10
-2509.058217284432
 20
855.5234049671144
 42
0.2508564250541997
 10
-2505.571814352811
 20
851.82319796543
 10
-2502.568870292325
 20
851.82319796543
 42
0.2670900430231695
 10
-2499.039840502928
 20
855.8595980536411
 42
0.1207336614180937
 10
-2499.031030958587
 20
858.7973297206896
 42
0.3094451166888095
 10
-2502.767952069912
 20
862.7870081643481
 42
0.0268897328129527
 10
-2503.436974476382
 20
862.8888847177035
 42
0.074328415179198
  0
LWPOLYLINE
  5
87
102
{ACAD_REACTORS
330
85
102
}
330
1F
100
AcDbEntity
  8
@__WIDOCZNE
  6
Continuous
370
    13
100
AcDbPolyline
 90
        8
 70
   129
 43
0.0
 10
-2506.583599239755
 20
858.4611582457397
 42
0.0948073731652809
 10
-2506.602810578765
 20
856.2174064046684
 42
0.0590800675341869
 10
-2506.384511885975
 20
855.4711122116763
 42
0.6394418664691048
 10
-2501.800298847891
 20
855.3318573748855
 42
0.0835238969854629
 10
-2501.51334728701
 20
856.2705584509523
 42
0.0916297819744675
 10
-2501.558854957812
 20
858.574460297684
 42
0.2559732989582162
 10
-2503.241263476182
 20
860.6603435534112
 42
0.1954327814670101
 10
-2504.951829666254
 20
860.5906368683094
 42
0.2505066079508973
  0
INSERT
  5
8E
330
1F
100
AcDbEntity
  8
@__WIDOCZNE
  6
Continuous
370
    13
100
AcDbBlockReference
 66
     1
  2
Sygnał termostatu 12
 10
-2653.165021527615
 20
1079.713560310023
 30
0.0
  0
ATTRIB
  5
8F
330
8E
100
AcDbEntity
  8
@__WIDOCZNE
  6
Continuous
370
    13
100
AcDbText
 10
-2657.718182172638
 20
1077.056428752224
 30
0.0
 40
6.0
  1
01
  7
GENERATED_STYLE_1
 11
-2657.718182172638
 21
1075.283147502224
 31
0.0
100
AcDbAttribute
  2
txt
 70
     0
 74
     1
  0
SEQEND
  5
90
330
8E
100
AcDbEntity
  8
@__WIDOCZNE
  6
Continuous
370
    13
  0
INSERT
  5
96
330
1F
100
AcDbEntity
  8
@__WIDOCZNE
  6
Continuous
370
    13
100
AcDbBlockReference
 66
     1
  2
Sygnał termostatu 12_2
 10
-2612.278480222507
 20
1079.713560310023
 30
0.0
  0
ATTRIB
  5
97
330
96
100
AcDbEntity
  8
@__WIDOCZNE
  6
Continuous
370
    13
100
AcDbText
 10
-2616.83164086753
 20
1077.056428752224
 30
0.0
 40
6.0
  1
02
  7
GENERATED_STYLE_1
 11
-2616.83164086753
 21
1075.283147502224
 31
0.0
100
AcDbAttribute
  2
txt
 70
     0
 74
     1
  0
SEQEND
  5
98
330
96
100
AcDbEntity
  8
@__WIDOCZNE
  6
Continuous
370
    13
  0
INSERT
  5
9E
330
1F
100
AcDbEntity
  8
@__WIDOCZNE
  6
Continuous
370
    13
100
AcDbBlockReference
 66
     1
  2
Sygnał termostatu 12_3
 10
-2583.849430775681
 20
1079.713560310023
 30
0.0
  0
ATTRIB
  5
9F
330
9E
100
AcDbEntity
  8
@__WIDOCZNE
  6
Continuous
370
    13
100
AcDbText
 10
-2588.402591420704
 20
1077.056428752224
 30
0.0
 40
6.0
  1
03
  7
GENERATED_STYLE_1
 11
-2588.402591420704
 21
1075.283147502224
 31
0.0
100
AcDbAttribute
  2
txt
 70
     0
 74
     1
  0
SEQEND
  5
A0
330
9E
100
AcDbEntity
  8
@__WIDOCZNE
  6
Continuous
370
    13
  0
INSERT
  5
A6
330
1F
100
AcDbEntity
  8
@__WIDOCZNE
  6
Continuous
370
    13
100
AcDbBlockReference
 66
     1
  2
Sygnał termostatu 12_4
 10
-2465.292704716328
 20
1079.713560310023
 30
0.0
  0
ATTRIB
  5
A7
330
A6
100
AcDbEntity
  8
@__WIDOCZNE
  6
Continuous
370
    13
100
AcDbText
 10
-2469.845865361351
 20
1077.056428752224
 30
0.0
 40
6.0
  1
04
  7
GENERATED_STYLE_1
 11
-2469.845865361351
 21
1075.283147502224
 31
0.0
100
AcDbAttribute
  2
txt
 70
     0
 74
     1
  0
SEQEND
  5
A8
330
A6
100
AcDbEntity
  8
@__WIDOCZNE
  6
Continuous
370
    13
  0
INSERT
  5
A9
330
1F
100
AcDbEntity
  8
@__WIDOCZNE
  6
Continuous
370
    13
100
AcDbBlockReference
 66
     1
  2
Sygnał termostatu 12
 10
-2234.922257888813
 20
1079.713560310023
 30
0.0
  0
ATTRIB
  5
AA
330
A9
100
AcDbEntity
  8
@__WIDOCZNE
  6
Continuous
370
    13
100
AcDbText
 10
-2239.475418533837
 20
1077.056428752224
 30
0.0
 40
6.0
  1
01
  7
GENERATED_STYLE_1
 11
-2239.475418533837
 21
1075.283147502224
 31
0.0
100
AcDbAttribute
  2
txt
 70
     0
 74
     1
  0
SEQEND
  5
AB
330
A9
100
AcDbEntity
  8
@__WIDOCZNE
  6
Continuous
370
    13
  0
INSERT
  5
AC
330
1F
100
AcDbEntity
  8
@__WIDOCZNE
  6
Continuous
370
    13
100
AcDbBlockReference
 66
     1
  2
Sygnał termostatu 12_2
 10
-2274.972735904157
 20
1079.713560310023
 30
0.0
  0
ATTRIB
  5
AD
330
AC
100
AcDbEntity
  8
@__WIDOCZNE
  6
Continuous
370
    13
100
AcDbText
 10
-2279.52589654918
 20
1077.056428752224
 30
0.0
 40
6.0
  1
02
  7
GENERATED_STYLE_1
 11
-2279.52589654918
 21
1075.283147502224
 31
0.0
100
AcDbAttribute
  2
txt
 70
     0
 74
     1
  0
SEQEND
  5
AE
330
AC
100
AcDbEntity
  8
@__WIDOCZNE
  6
Continuous
370
    13
  0
INSERT
  5
AF
330
1F
100
AcDbEntity
  8
@__WIDOCZNE
  6
Continuous
370
    13
100
AcDbBlockReference
 66
     1
  2
Sygnał termostatu 12_3
 10
-2303.401785350984
 20
1079.713560310023
 30
0.0
  0
ATTRIB
  5
B0
330
AF
100
AcDbEntity
  8
@__WIDOCZNE
  6
Continuous
370
    13
100
AcDbText
 10
-2307.954945996007
 20
1077.056428752224
 30
0.0
 40
6.0
  1
03
  7
GENERATED_STYLE_1
 11
-2307.954945996007
 21
1075.283147502224
 31
0.0
100
AcDbAttribute
  2
txt
 70
     0
 74
     1
  0
SEQEND
  5
B1
330
AF
100
AcDbEntity
  8
@__WIDOCZNE
  6
Continuous
370
    13
  0
INSERT
  5
B2
330
1F
100
AcDbEntity
  8
@__WIDOCZNE
  6
Continuous
370
    13
100
AcDbBlockReference
 66
     1
  2
Sygnał termostatu 12
 10
-2389.488544068276
 20
1161.815936536466
 30
0.0
  0
ATTRIB
  5
B3
330
B2
100
AcDbEntity
  8
@__WIDOCZNE
  6
Continuous
370
    13
100
AcDbText
 10
-2394.0417047133
 20
1159.158804978667
 30
0.0
 40
6.0
  1
01
  7
GENERATED_STYLE_1
 11
-2394.0417047133
 21
1157.385523728667
 31
0.0
100
AcDbAttribute
  2
txt
 70
     0
 74
     1
  0
SEQEND
  5
B4
330
B2
100
AcDbEntity
  8
@__WIDOCZNE
  6
Continuous
370
    13
  0
INSERT
  5
B5
330
1F
100
AcDbEntity
  8
@__WIDOCZNE
  6
Continuous
370
    13
100
AcDbBlockReference
 66
     1
  2
Sygnał termostatu 12_2
 10
-2389.488544068276
 20
1141.600129481991
 30
0.0
  0
ATTRIB
  5
B6
330
B5
100
AcDbEntity
  8
@__WIDOCZNE
  6
Continuous
370
    13
100
AcDbText
 10
-2394.0417047133
 20
1138.942997924191
 30
0.0
 40
6.0
  1
02
  7
GENERATED_STYLE_1
 11
-2394.0417047133
 21
1137.169716674191
 31
0.0
100
AcDbAttribute
  2
txt
 70
     0
 74
     1
  0
SEQEND
  5
B7
330
B5
100
AcDbEntity
  8
@__WIDOCZNE
  6
Continuous
370
    13
  0
INSERT
  5
B8
330
1F
100
AcDbEntity
  8
@__WIDOCZNE
  6
Continuous
370
    13
100
AcDbBlockReference
 66
     1
  2
Sygnał termostatu 12_3
 10
-2389.488544068276
 20
1127.60012948199
 30
0.0
  0
ATTRIB
  5
B9
330
B8
100
AcDbEntity
  8
@__WIDOCZNE
  6
Continuous
370
    13
100
AcDbText
 10
-2394.0417047133
 20
1124.942997924191
 30
0.0
 40
6.0
  1
03
  7
GENERATED_STYLE_1
 11
-2394.0417047133
 21
1123.169716674191
 31
0.0
100
AcDbAttribute
  2
txt
 70
     0
 74
     1
  0
SEQEND
  5
BA
330
B8
100
AcDbEntity
  8
@__WIDOCZNE
  6
Continuous
370
    13
  0
INSERT
  5
BB
330
1F
100
AcDbEntity
  8
@__WIDOCZNE
  6
Continuous
370
    13
100
AcDbBlockReference
 66
     1
  2
Sygnał termostatu 12_4
 10
-2389.488544068276
 20
1113.60012948199
 30
0.0
  0
ATTRIB
  5
BC
330
BB
100
AcDbEntity
  8
@__WIDOCZNE
  6
Continuous
370
    13
100
AcDbText
 10
-2394.0417047133
 20
1110.942997924191
 30
0.0
 40
6.0
  1
04
  7
GENERATED_STYLE_1
 11
-2394.0417047133
 21
1109.169716674191
 31
0.0
100
AcDbAttribute
  2
txt
 70
     0
 74
     1
  0
SEQEND
  5
BD
330
BB
100
AcDbEntity
  8
@__WIDOCZNE
  6
Continuous
370
    13
  0
LINE
  5
BE
330
1F
100
AcDbEntity
  8
0
  6
Continuous
 62
     2
370
    15
100
AcDbLine
 10
-2588.625608063332
 20
1045.396599609132
 30
0.0
 11
-2588.625608063332
 21
1036.096895292546
 31
0.0
  0
LINE
  5
C1
330
1F
100
AcDbEntity
  8
Linia Izolacji - ARCHICAD
  6
IZOLACJA GRUBA
370
    13
100
AcDbLine
 10
-2232.772956326494
 20
1030.396599609132
 30
0.0
 11
-2239.66258710565
 21
1033.810983422258
 31
0.0
  0
LINE
  5
C3
330
1F
100
AcDbEntity
  8
Linia Izolacji - ARCHICAD
  6
IZOLACJA GRUBA
370
    13
100
AcDbLine
 10
-2239.66258710565
 20
1033.810983422258
 30
0.0
 11
-2240.844258390041
 21
1034.396599609132
 31
0.0
  0
LINE
  5
C4
330
1F
100
AcDbEntity
  8
0
  6
Continuous
370
    50
100
AcDbLine
 10
-2308.625608063332
 20
1030.396599609132
 30
0.0
 11
-2241.640558208671
 21
1030.396599609132
 31
0.0
  0
LINE
  5
C5
330
1F
100
AcDbEntity
  8
0
  6
Continuous
370
    50
100
AcDbLine
 10
-2308.625608063332
 20
1031.396599609132
 30
0.0
 11
-2241.640558208671
 21
1031.396599609132
 31
0.0
  0
LINE
  5
C6
330
1F
100
AcDbEntity
  8
0
  6
Continuous
370
    50
100
AcDbLine
 10
-2298.625608063332
 20
1055.396599609132
 30
0.0
 11
-2180.625608063334
 21
1055.396599609132
 31
0.0
  0
LINE
  5
C7
330
1F
100
AcDbEntity
  8
Linia Izolacji - ARCHICAD
  6
IZOLACJA GRUBA
370
    13
100
AcDbLine
 10
-2654.47825980017
 20
1030.396599609132
 30
0.0
 11
-2647.588629021014
 21
1033.810983422258
 31
0.0
  0
LINE
  5
C8
330
1F
100
AcDbEntity
  8
Linia Izolacji - ARCHICAD
  6
IZOLACJA GRUBA
370
    13
100
AcDbLine
 10
-2647.588629021014
 20
1033.810983422258
 30
0.0
 11
-2646.406957736623
 21
1034.396599609132
 31
0.0
  0
LINE
  5
C9
330
1F
100
AcDbEntity
  8
0
  6
Continuous
370
    50
100
AcDbLine
 10
-2578.625608063332
 20
1030.396599609132
 30
0.0
 11
-2645.610657917994
 21
1030.396599609132
 31
0.0
  0
LINE
  5
CA
330
1F
100
AcDbEntity
  8
0
  6
Continuous
370
    50
100
AcDbLine
 10
-2578.625608063332
 20
1031.396599609132
 30
0.0
 11
-2645.610657917994
 21
1031.396599609132
 31
0.0
  0
LINE
  5
CB
330
1F
100
AcDbEntity
  8
0
  6
Continuous
 62
     2
370
    15
100
AcDbLine
 10
-2298.625608063332
 20
1045.396599609132
 30
0.0
 11
-2298.625608063332
 21
1036.04627432452
 31
0.0
  0
LINE
  5
CC
330
1F
100
AcDbEntity
  8
0
  6
Continuous
370
    50
100
AcDbLine
 10
-2188.625608063335
 20
1048.396599609132
 30
0.0
 11
-2180.625608063334
 21
1048.396599609132
 31
0.0
  0
LINE
  5
CD
330
1F
100
AcDbEntity
  8
Linia Izolacji - ARCHICAD
  6
IZOLACJA GRUBA
370
    13
100
AcDbLine
 10
-2308.625608063334
 20
1027.196599609132
 30
0.0
 11
-2180.625608063334
 21
1027.196599609132
 31
0.0
  0
LINE
  5
CE
330
1F
100
AcDbEntity
  8
Linia Izolacji - ARCHICAD
  6
IZOLACJA GRUBA
370
    13
100
AcDbLine
 10
-2578.62560806333
 20
1027.196599609132
 30
0.0
 11
-2706.625608063332
 21
1027.196599609132
 31
0.0
  0
LINE
  5
CF
330
1F
100
AcDbEntity
  8
Linia Izolacji - ARCHICAD
  6
IZOLACJA GRUBA
370
    13
100
AcDbLine
 10
-2240.124601883476
 20
1034.396599609132
 30
0.0
 11
-2308.625608063332
 21
1034.396599609132
 31
0.0
  0
LINE
  5
D0
330
1F
100
AcDbEntity
  8
0
  6
Continuous
370
    50
100
AcDbLine
 10
-2588.625608063332
 20
1055.396599609132
 30
0.0
 11
-2706.625608063332
 21
1055.396599609132
 31
0.0
  0
LINE
  5
D1
330
1F
100
AcDbEntity
  8
0
  6
Continuous
370
    50
100
AcDbLine
 10
-2698.625608063329
 20
1048.396599609132
 30
0.0
 11
-2706.625608063332
 21
1048.396599609132
 31
0.0
  0
LINE
  5
D2
330
1F
100
AcDbEntity
  8
Linia Izolacji - ARCHICAD
  6
IZOLACJA GRUBA
370
    13
100
AcDbLine
 10
-2180.625608063334
 20
1030.396599609132
 30
0.0
 11
-2233.393573355572
 21
1030.396599609132
 31
0.0
  0
LINE
  5
D3
330
1F
100
AcDbEntity
  8
Linia Izolacji - ARCHICAD
  6
IZOLACJA GRUBA
370
    13
100
AcDbLine
 10
-2647.081218483406
 20
1034.396599609132
 30
0.0
 11
-2578.625608063332
 21
1034.396599609132
 31
0.0
  0
LINE
  5
D4
330
1F
100
AcDbEntity
  8
Linia Izolacji - ARCHICAD
  6
IZOLACJA GRUBA
370
    13
100
AcDbLine
 10
-2706.625608063332
 20
1030.396599609132
 30
0.0
 11
-2653.714909930127
 21
1030.396599609132
 31
0.0
  0
LINE
  5
D5
330
1F
100
AcDbEntity
  8
0
  6
Continuous
370
    50
100
AcDbLine
 10
-2486.125608063334
 20
1055.396599609132
 30
0.0
 11
-2486.125608063334
 21
1042.396599609132
 31
0.0
  0
LINE
  5
D6
330
1F
100
AcDbEntity
  8
0
  6
Continuous
370
    50
100
AcDbLine
 10
-2476.125608063334
 20
1055.396599609132
 30
0.0
 11
-2476.125608063334
 21
1042.396599609132
 31
0.0
  0
LINE
  5
D7
330
1F
100
AcDbEntity
  8
0
  6
Continuous
370
    50
100
AcDbLine
 10
-2501.125608063333
 20
1055.396599609132
 30
0.0
 11
-2486.125608063334
 21
1055.396599609132
 31
0.0
  0
LINE
  5
D8
330
1F
100
AcDbEntity
  8
0
  6
Continuous
370
    50
100
AcDbLine
 10
-2501.125608063333
 20
1042.396599609132
 30
0.0
 11
-2486.125608063334
 21
1042.396599609132
 31
0.0
  0
LINE
  5
D9
330
1F
100
AcDbEntity
  8
0
  6
Continuous
370
    13
100
AcDbLine
 10
-2486.125608063334
 20
1055.396599609132
 30
0.0
 11
-2476.125608063334
 21
1055.396599609132
 31
0.0
  0
LINE
  5
DA
330
1F
100
AcDbEntity
  8
0
  6
Continuous
370
    13
100
AcDbLine
 10
-2476.125608063334
 20
1042.396599609132
 30
0.0
 11
-2486.125608063334
 21
1042.396599609132
 31
0.0
  0
LINE
  5
DB
330
1F
100
AcDbEntity
  8
0
  6
Continuous
370
    50
100
AcDbLine
 10
-2461.125608063336
 20
1055.396599609132
 30
0.0
 11
-2461.125608063336
 21
1042.396599609132
 31
0.0
  0
LINE
  5
DC
330
1F
100
AcDbEntity
  8
0
  6
Continuous
370
    50
100
AcDbLine
 10
-2451.125608063336
 20
1055.396599609132
 30
0.0
 11
-2451.125608063336
 21
1042.396599609132
 31
0.0
  0
LINE
  5
DD
330
1F
100
AcDbEntity
  8
0
  6
Continuous
370
    50
100
AcDbLine
 10
-2476.125608063334
 20
1042.396599609132
 30
0.0
 11
-2461.125608063336
 21
1042.396599609132
 31
0.0
  0
LINE
  5
DE
330
1F
100
AcDbEntity
  8
0
  6
Continuous
370
    50
100
AcDbLine
 10
-2451.125608063336
 20
1042.396599609132
 30
0.0
 11
-2443.625608063332
 21
1042.396599609132
 31
0.0
  0
LINE
  5
DF
330
1F
100
AcDbEntity
  8
0
  6
Continuous
370
    50
100
AcDbLine
 10
-2476.125608063334
 20
1055.396599609132
 30
0.0
 11
-2461.125608063336
 21
1055.396599609132
 31
0.0
  0
LINE
  5
E0
330
1F
100
AcDbEntity
  8
0
  6
Continuous
370
    50
100
AcDbLine
 10
-2451.125608063336
 20
1055.396599609132
 30
0.0
 11
-2443.625608063332
 21
1055.396599609132
 31
0.0
  0
LINE
  5
E1
330
1F
100
AcDbEntity
  8
0
  6
Continuous
370
    13
100
AcDbLine
 10
-2461.125608063336
 20
1055.396599609132
 30
0.0
 11
-2451.125608063336
 21
1055.396599609132
 31
0.0
  0
LINE
  5
E2
330
1F
100
AcDbEntity
  8
0
  6
Continuous
370
    13
100
AcDbLine
 10
-2461.125608063336
 20
1042.396599609132
 30
0.0
 11
-2451.125608063336
 21
1042.396599609132
 31
0.0
  0
LINE
  5
E3
330
1F
100
AcDbEntity
  8
0
  6
Continuous
370
    50
100
AcDbLine
 10
-2511.125608063333
 20
1055.396599609132
 30
0.0
 11
-2511.125608063333
 21
1042.396599609132
 31
0.0
  0
LINE
  5
E4
330
1F
100
AcDbEntity
  8
0
  6
Continuous
370
    50
100
AcDbLine
 10
-2501.125608063333
 20
1055.396599609132
 30
0.0
 11
-2501.125608063333
 21
1042.396599609132
 31
0.0
  0
LINE
  5
E5
330
1F
100
AcDbEntity
  8
0
  6
Continuous
370
    50
100
AcDbLine
 10
-2566.625608063332
 20
1055.396599609132
 30
0.0
 11
-2511.125608063333
 21
1055.396599609132
 31
0.0
  0
LINE
  5
E6
330
1F
100
AcDbEntity
  8
0
  6
Continuous
370
    50
100
AcDbLine
 10
-2566.625608063332
 20
1042.396599609132
 30
0.0
 11
-2511.125608063333
 21
1042.396599609132
 31
0.0
  0
LINE
  5
E7
330
1F
100
AcDbEntity
  8
0
  6
Continuous
370
    13
100
AcDbLine
 10
-2511.125608063333
 20
1055.396599609132
 30
0.0
 11
-2501.125608063333
 21
1055.396599609132
 31
0.0
  0
LINE
  5
E8
330
1F
100
AcDbEntity
  8
0
  6
Continuous
370
    13
100
AcDbLine
 10
-2501.125608063333
 20
1042.396599609132
 30
0.0
 11
-2511.125608063333
 21
1042.396599609132
 31
0.0
  0
LINE
  5
E9
330
1F
100
AcDbEntity
  8
0
  6
Continuous
370
    50
100
AcDbLine
 10
-2401.12560806333
 20
1055.396599609132
 30
0.0
 11
-2401.12560806333
 21
1042.396599609132
 31
0.0
  0
LINE
  5
EA
330
1F
100
AcDbEntity
  8
0
  6
Continuous
370
    50
100
AcDbLine
 10
-2411.12560806333
 20
1055.396599609132
 30
0.0
 11
-2411.12560806333
 21
1042.396599609132
 31
0.0
  0
LINE
  5
EB
330
1F
100
AcDbEntity
  8
0
  6
Continuous
370
    50
100
AcDbLine
 10
-2386.125608063331
 20
1055.396599609132
 30
0.0
 11
-2401.12560806333
 21
1055.396599609132
 31
0.0
  0
LINE
  5
EC
330
1F
100
AcDbEntity
  8
0
  6
Continuous
370
    50
100
AcDbLine
 10
-2386.125608063331
 20
1042.396599609132
 30
0.0
 11
-2401.12560806333
 21
1042.396599609132
 31
0.0
  0
LINE
  5
ED
330
1F
100
AcDbEntity
  8
0
  6
Continuous
370
    13
100
AcDbLine
 10
-2401.12560806333
 20
1055.396599609132
 30
0.0
 11
-2411.12560806333
 21
1055.396599609132
 31
0.0
  0
LINE
  5
EE
330
1F
100
AcDbEntity
  8
0
  6
Continuous
370
    13
100
AcDbLine
 10
-2411.12560806333
 20
1042.396599609132
 30
0.0
 11
-2401.12560806333
 21
1042.396599609132
 31
0.0
  0
LINE
  5
EF
330
1F
100
AcDbEntity
  8
0
  6
Continuous
370
    50
100
AcDbLine
 10
-2426.125608063328
 20
1055.396599609132
 30
0.0
 11
-2426.125608063328
 21
1042.396599609132
 31
0.0
  0
LINE
  5
F0
330
1F
100
AcDbEntity
  8
0
  6
Continuous
370
    50
100
AcDbLine
 10
-2436.125608063328
 20
1055.396599609132
 30
0.0
 11
-2436.125608063328
 21
1042.396599609132
 31
0.0
  0
LINE
  5
F1
330
1F
100
AcDbEntity
  8
0
  6
Continuous
370
    50
100
AcDbLine
 10
-2411.12560806333
 20
1042.396599609132
 30
0.0
 11
-2426.125608063328
 21
1042.396599609132
 31
0.0
  0
LINE
  5
F2
330
1F
100
AcDbEntity
  8
0
  6
Continuous
370
    50
100
AcDbLine
 10
-2436.125608063328
 20
1042.396599609132
 30
0.0
 11
-2443.625608063332
 21
1042.396599609132
 31
0.0
  0
LINE
  5
F3
330
1F
100
AcDbEntity
  8
0
  6
Continuous
370
    50
100
AcDbLine
 10
-2411.12560806333
 20
1055.396599609132
 30
0.0
 11
-2426.125608063328
 21
1055.396599609132
 31
0.0
  0
LINE
  5
F4
330
1F
100
AcDbEntity
  8
0
  6
Continuous
370
    50
100
AcDbLine
 10
-2436.125608063328
 20
1055.396599609132
 30
0.0
 11
-2443.625608063332
 21
1055.396599609132
 31
0.0
  0
LINE
  5
F5
330
1F
100
AcDbEntity
  8
0
  6
Continuous
370
    13
100
AcDbLine
 10
-2426.125608063328
 20
1055.396599609132
 30
0.0
 11
-2436.125608063328
 21
1055.396599609132
 31
0.0
  0
LINE
  5
F6
330
1F
100
AcDbEntity
  8
0
  6
Continuous
370
    13
100
AcDbLine
 10
-2426.125608063328
 20
1042.396599609132
 30
0.0
 11
-2436.125608063328
 21
1042.396599609132
 31
0.0
  0
LINE
  5
F7
330
1F
100
AcDbEntity
  8
0
  6
Continuous
370
    50
100
AcDbLine
 10
-2376.125608063331
 20
1055.396599609132
 30
0.0
 11
-2376.125608063331
 21
1042.396599609132
 31
0.0
  0
LINE
  5
F8
330
1F
100
AcDbEntity
  8
0
  6
Continuous
370
    50
100
AcDbLine
 10
-2386.125608063331
 20
1055.396599609132
 30
0.0
 11
-2386.125608063331
 21
1042.396599609132
 31
0.0
  0
LINE
  5
F9
330
1F
100
AcDbEntity
  8
0
  6
Continuous
370
    50
100
AcDbLine
 10
-2320.625608063333
 20
1055.396599609132
 30
0.0
 11
-2376.125608063331
 21
1055.396599609132
 31
0.0
  0
LINE
  5
FA
330
1F
100
AcDbEntity
  8
0
  6
Continuous
370
    50
100
AcDbLine
 10
-2320.625608063333
 20
1042.396599609132
 30
0.0
 11
-2376.125608063331
 21
1042.396599609132
 31
0.0
  0
LINE
  5
FB
330
1F
100
AcDbEntity
  8
0
  6
Continuous
370
    50
100
AcDbLine
 10
-2578.625608063332
 20
1055.396599609132
 30
0.0
 11
-2568.625608063332
 21
1055.396599609132
 31
0.0
  0
LINE
  5
FC
330
1F
100
AcDbEntity
  8
0
  6
Continuous
370
    13
100
AcDbLine
 10
-2376.125608063331
 20
1055.396599609132
 30
0.0
 11
-2386.125608063331
 21
1055.396599609132
 31
0.0
  0
LINE
  5
FD
330
1F
100
AcDbEntity
  8
0
  6
Continuous
370
    13
100
AcDbLine
 10
-2386.125608063331
 20
1042.396599609132
 30
0.0
 11
-2376.125608063331
 21
1042.396599609132
 31
0.0
  0
LINE
  5
FE
330
1F
100
AcDbEntity
  8
0
  6
Continuous
370
    13
100
AcDbLine
 10
-2465.292704716328
 20
1051.254708453984
 30
0.0
 11
-2465.292704716328
 21
1073.713560310023
 31
0.0
  0
CIRCLE
  5
FF
330
1F
100
AcDbEntity
  8
0
  6
Continuous
370
    13
100
AcDbCircle
 10
-2465.292704716328
 20
1050.254708453984
 30
0.0
 40
1.0
  0
HATCH
  5
100
330
1F
100
AcDbEntity
  8
0
  6
Continuous
370
    13
100
AcDbHatch
 10
0.0
 20
0.0
 30
0.0
210
0.0
220
0.0
230
1.0
  2
SOLID
 70
     1
 71
     0
 91
        1
 92
        2
 72
     0
 73
     1
 93
       16
 10
-2464.292704716328
 20
1050.254708453984
 10
-2464.368825183816
 20
1050.637391886349
 10
-2464.585597935141
 20
1050.96181523517
 10
-2464.910021283963
 20
1051.178587986495
 10
-2465.292704716328
 20
1051.254708453984
 10
-2465.675388148693
 20
1051.178587986495
 10
-2465.999811497514
 20
1050.96181523517
 10
-2466.216584248839
 20
1050.637391886349
 10
-2466.292704716328
 20
1050.254708453984
 10
-2466.216584248839
 20
1049.872025021619
 10
-2465.999811497514
 20
1049.547601672797
 10
-2465.675388148693
 20
1049.330828921472
 10
-2465.292704716328
 20
1049.254708453984
 10
-2464.910021283963
 20
1049.330828921472
 10
-2464.585597935141
 20
1049.547601672797
 10
-2464.368825183816
 20
1049.872025021619
 97
        0
 75
     0
 76
     1
 98
        0
  0
LINE
  5
101
330
1F
100
AcDbEntity
  8
0
  6
Continuous
370
    13
100
AcDbLine
 10
-2618.369467518454
 20
1032.203370892054
 30
0.0
 11
-2649.619838387933
 21
1074.872932612492
 31
0.0
  0
CIRCLE
  5
102
330
1F
100
AcDbEntity
  8
0
  6
Continuous
370
    13
100
AcDbCircle
 10
-2617.77860366184
 20
1031.396599609132
 30
0.0
 40
1.0
  0
HATCH
  5
103
330
1F
100
AcDbEntity
  8
0
  6
Continuous
370
    13
100
AcDbHatch
 10
0.0
 20
0.0
 30
0.0
210
0.0
220
0.0
230
1.0
  2
SOLID
 70
     1
 71
     0
 91
        1
 92
        2
 72
     0
 73
     1
 93
       16
 10
-2616.77860366184
 20
1031.396599609132
 10
-2616.854724129329
 20
1031.779283041497
 10
-2617.071496880654
 20
1032.103706390318
 10
-2617.395920229475
 20
1032.320479141643
 10
-2617.77860366184
 20
1032.396599609132
 10
-2618.161287094205
 20
1032.320479141643
 10
-2618.485710443026
 20
1032.103706390318
 10
-2618.702483194351
 20
1031.779283041497
 10
-2618.77860366184
 20
1031.396599609132
 10
-2618.702483194351
 20
1031.013916176767
 10
-2618.485710443026
 20
1030.689492827945
 10
-2618.161287094205
 20
1030.472720076621
 10
-2617.77860366184
 20
1030.396599609132
 10
-2617.395920229475
 20
1030.472720076621
 10
-2617.071496880654
 20
1030.689492827945
 10
-2616.854724129329
 20
1031.013916176767
 97
        0
 75
     0
 76
     1
 98
        0
  0
LINE
  5
104
330
1F
100
AcDbEntity
  8
0
  6
Continuous
370
    13
100
AcDbLine
 10
-2269.710062297341
 20
1032.19763764119
 30
0.0
 11
-2238.034821411727
 21
1074.584042953017
 31
0.0
  0
CIRCLE
  5
105
330
1F
100
AcDbEntity
  8
0
  6
Continuous
370
    13
100
AcDbCircle
 10
-2270.308675754588
 20
1031.396599609132
 30
0.0
 40
1.0
  0
HATCH
  5
106
330
1F
100
AcDbEntity
  8
0
  6
Continuous
370
    13
100
AcDbHatch
 10
0.0
 20
0.0
 30
0.0
210
0.0
220
0.0
230
1.0
  2
SOLID
 70
     1
 71
     0
 91
        1
 92
        2
 72
     0
 73
     1
 93
       16
 10
-2269.308675754588
 20
1031.396599609132
 10
-2269.384796222077
 20
1031.779283041497
 10
-2269.601568973402
 20
1032.103706390318
 10
-2269.925992322223
 20
1032.320479141643
 10
-2270.308675754588
 20
1032.396599609132
 10
-2270.691359186953
 20
1032.320479141643
 10
-2271.015782535775
 20
1032.103706390318
 10
-2271.2325552871
 20
1031.779283041497
 10
-2271.308675754588
 20
1031.396599609132
 10
-2271.2325552871
 20
1031.013916176767
 10
-2271.015782535775
 20
1030.689492827945
 10
-2270.691359186953
 20
1030.472720076621
 10
-2270.308675754588
 20
1030.396599609132
 10
-2269.925992322223
 20
1030.472720076621
 10
-2269.601568973402
 20
1030.689492827945
 10
-2269.384796222077
 20
1031.013916176767
 97
        0
 75
     0
 76
     1
 98
        0
  0
LINE
  5
107
330
1F
100
AcDbEntity
  8
0
  6
Continuous
370
    50
100
AcDbLine
 10
-2529.625608063332
 20
1040.396599609132
 30
0.0
 11
-2529.625608063332
 21
1042.396599609132
 31
0.0
  0
LINE
  5
108
330
1F
100
AcDbEntity
  8
0
  6
Continuous
370
    50
100
AcDbLine
 10
-2538.625608063332
 20
969.3965996091318
 30
0.0
 11
-2538.625608063332
 21
1000.396599609132
 31
0.0
  0
LINE
  5
109
330
1F
100
AcDbEntity
  8
0
  6
Continuous
370
    50
100
AcDbLine
 10
-2588.625608063332
 20
1045.396599609132
 30
0.0
 11
-2588.625608063332
 21
1055.396599609132
 31
0.0
  0
LINE
  5
10A
330
1F
100
AcDbEntity
  8
0
  6
Continuous
370
    50
100
AcDbLine
 10
-2588.625608063332
 20
1045.396599609132
 30
0.0
 11
-2598.625608063332
 21
1045.396599609132
 31
0.0
  0
LINE
  5
10B
330
1F
100
AcDbEntity
  8
0
  6
Continuous
370
    50
100
AcDbLine
 10
-2598.625608063332
 20
1045.396599609132
 30
0.0
 11
-2598.625608063332
 21
1048.396599609132
 31
0.0
  0
LINE
  5
10C
330
1F
100
AcDbEntity
  8
0
  6
Continuous
370
    50
100
AcDbLine
 10
-2568.625608063332
 20
1040.396599609132
 30
0.0
 11
-2528.625608063333
 21
1040.396599609132
 31
0.0
  0
LINE
  5
10D
330
1F
100
AcDbEntity
  8
0
  6
Continuous
370
    50
100
AcDbLine
 10
-2568.625608063332
 20
1055.396599609132
 30
0.0
 11
-2568.625608063332
 21
1040.396599609132
 31
0.0
  0
LINE
  5
10E
330
1F
100
AcDbEntity
  8
0
  6
Continuous
370
    50
100
AcDbLine
 10
-2566.625608063332
 20
1055.396599609132
 30
0.0
 11
-2566.625608063332
 21
1042.396599609132
 31
0.0
  0
LINE
  5
10F
330
1F
100
AcDbEntity
  8
0
  6
Continuous
370
    50
100
AcDbLine
 10
-2598.625608063332
 20
1048.396599609132
 30
0.0
 11
-2608.625608063331
 21
1048.396599609132
 31
0.0
  0
LINE
  5
110
330
1F
100
AcDbEntity
  8
0
  6
Continuous
370
    50
100
AcDbLine
 10
-2588.625608063332
 20
1045.396599609132
 30
0.0
 11
-2588.625608063332
 21
1048.396599609132
 31
0.0
  0
LINE
  5
111
330
1F
100
AcDbEntity
  8
0
  6
Continuous
370
    50
100
AcDbLine
 10
-2608.625608063331
 20
1045.396599609132
 30
0.0
 11
-2618.625608063331
 21
1045.396599609132
 31
0.0
  0
LINE
  5
112
330
1F
100
AcDbEntity
  8
0
  6
Continuous
370
    50
100
AcDbLine
 10
-2618.625608063331
 20
1045.396599609132
 30
0.0
 11
-2618.625608063331
 21
1048.396599609132
 31
0.0
  0
LINE
  5
113
330
1F
100
AcDbEntity
  8
0
  6
Continuous
370
    50
100
AcDbLine
 10
-2565.625608063332
 20
1042.396599609132
 30
0.0
 11
-2565.625608063332
 21
1040.396599609132
 31
0.0
  0
LINE
  5
114
330
1F
100
AcDbEntity
  8
0
  6
Continuous
370
    50
100
AcDbLine
 10
-2618.625608063331
 20
1048.396599609132
 30
0.0
 11
-2628.625608063331
 21
1048.396599609132
 31
0.0
  0
LINE
  5
115
330
1F
100
AcDbEntity
  8
0
  6
Continuous
370
    50
100
AcDbLine
 10
-2608.625608063331
 20
1045.396599609132
 30
0.0
 11
-2608.625608063331
 21
1048.396599609132
 31
0.0
  0
LINE
  5
116
330
1F
100
AcDbEntity
  8
0
  6
Continuous
370
    50
100
AcDbLine
 10
-2628.625608063331
 20
1045.396599609132
 30
0.0
 11
-2638.625608063331
 21
1045.396599609132
 31
0.0
  0
LINE
  5
117
330
1F
100
AcDbEntity
  8
0
  6
Continuous
370
    50
100
AcDbLine
 10
-2638.625608063331
 20
1045.396599609132
 30
0.0
 11
-2638.625608063331
 21
1048.396599609132
 31
0.0
  0
LINE
  5
118
330
1F
100
AcDbEntity
  8
0
  6
Continuous
370
    50
100
AcDbLine
 10
-2638.625608063331
 20
1048.396599609132
 30
0.0
 11
-2648.62560806333
 21
1048.396599609132
 31
0.0
  0
LINE
  5
119
330
1F
100
AcDbEntity
  8
0
  6
Continuous
370
    50
100
AcDbLine
 10
-2628.625608063331
 20
1045.396599609132
 30
0.0
 11
-2628.625608063331
 21
1048.396599609132
 31
0.0
  0
LINE
  5
11A
330
1F
100
AcDbEntity
  8
0
  6
Continuous
370
    50
100
AcDbLine
 10
-2648.62560806333
 20
1045.396599609132
 30
0.0
 11
-2658.62560806333
 21
1045.396599609132
 31
0.0
  0
LINE
  5
11B
330
1F
100
AcDbEntity
  8
0
  6
Continuous
370
    50
100
AcDbLine
 10
-2658.62560806333
 20
1045.396599609132
 30
0.0
 11
-2658.62560806333
 21
1048.396599609132
 31
0.0
  0
LINE
  5
11C
330
1F
100
AcDbEntity
  8
0
  6
Continuous
370
    50
100
AcDbLine
 10
-2658.62560806333
 20
1048.396599609132
 30
0.0
 11
-2668.62560806333
 21
1048.396599609132
 31
0.0
  0
LINE
  5
11D
330
1F
100
AcDbEntity
  8
0
  6
Continuous
370
    50
100
AcDbLine
 10
-2648.62560806333
 20
1045.396599609132
 30
0.0
 11
-2648.62560806333
 21
1048.396599609132
 31
0.0
  0
LINE
  5
11E
330
1F
100
AcDbEntity
  8
0
  6
Continuous
370
    50
100
AcDbLine
 10
-2668.62560806333
 20
1045.396599609132
 30
0.0
 11
-2678.62560806333
 21
1045.396599609132
 31
0.0
  0
LINE
  5
11F
330
1F
100
AcDbEntity
  8
0
  6
Continuous
370
    50
100
AcDbLine
 10
-2678.62560806333
 20
1045.396599609132
 30
0.0
 11
-2678.62560806333
 21
1048.396599609132
 31
0.0
  0
LINE
  5
120
330
1F
100
AcDbEntity
  8
0
  6
Continuous
370
    50
100
AcDbLine
 10
-2678.62560806333
 20
1048.396599609132
 30
0.0
 11
-2688.625608063329
 21
1048.396599609132
 31
0.0
  0
LINE
  5
121
330
1F
100
AcDbEntity
  8
0
  6
Continuous
370
    50
100
AcDbLine
 10
-2668.62560806333
 20
1045.396599609132
 30
0.0
 11
-2668.62560806333
 21
1048.396599609132
 31
0.0
  0
LINE
  5
122
330
1F
100
AcDbEntity
  8
0
  6
Continuous
370
    50
100
AcDbLine
 10
-2688.625608063329
 20
1045.396599609132
 30
0.0
 11
-2698.625608063329
 21
1045.396599609132
 31
0.0
  0
LINE
  5
123
330
1F
100
AcDbEntity
  8
0
  6
Continuous
370
    50
100
AcDbLine
 10
-2698.625608063329
 20
1045.396599609132
 30
0.0
 11
-2698.625608063329
 21
1048.396599609132
 31
0.0
  0
LINE
  5
124
330
1F
100
AcDbEntity
  8
0
  6
Continuous
370
    50
100
AcDbLine
 10
-2688.625608063329
 20
1045.396599609132
 30
0.0
 11
-2688.625608063329
 21
1048.396599609132
 31
0.0
  0
LINE
  5
126
330
1F
100
AcDbEntity
  8
0
  6
Przerywana
370
    13
100
AcDbLine
 10
-2553.625608063333
 20
1055.396599609132
 30
0.0
 11
-2553.625608063333
 21
1049.396599609132
 31
0.0
  0
LINE
  5
127
330
1F
100
AcDbEntity
  8
0
  6
Przerywana
370
    13
100
AcDbLine
 10
-2543.625608063332
 20
1049.396599609132
 30
0.0
 11
-2553.625608063333
 21
1049.396599609132
 31
0.0
  0
LINE
  5
128
330
1F
100
AcDbEntity
  8
0
  6
Przerywana
370
    13
100
AcDbLine
 10
-2543.625608063332
 20
1055.396599609132
 30
0.0
 11
-2543.625608063332
 21
1049.396599609132
 31
0.0
  0
LINE
  5
129
330
1F
100
AcDbEntity
  8
0
  6
Continuous
370
    50
100
AcDbLine
 10
-2578.625608063332
 20
1055.396599609132
 30
0.0
 11
-2588.625608063332
 21
1055.396599609132
 31
0.0
  0
LINE
  5
12A
330
1F
100
AcDbEntity
  8
0
  6
Continuous
370
    50
100
AcDbLine
 10
-2568.625608063332
 20
1020.396599609132
 30
0.0
 11
-2538.625608063332
 21
1000.396599609132
 31
0.0
  0
LINE
  5
12B
330
1F
100
AcDbEntity
  8
0
  6
Continuous
370
    50
100
AcDbLine
 10
-2608.625608063331
 20
1020.396599609132
 30
0.0
 11
-2568.625608063332
 21
1020.396599609132
 31
0.0
  0
LINE
  5
12C
330
1F
100
AcDbEntity
  8
0
  6
Continuous
370
    50
100
AcDbLine
 10
-2608.625608063331
 20
1025.396599609132
 30
0.0
 11
-2608.625608063331
 21
1020.396599609132
 31
0.0
  0
LINE
  5
12D
330
1F
100
AcDbEntity
  8
0
  6
Continuous
370
    50
100
AcDbLine
 10
-2578.625608063332
 20
1025.396599609132
 30
0.0
 11
-2608.625608063331
 21
1025.396599609132
 31
0.0
  0
LINE
  5
12E
330
1F
100
AcDbEntity
  8
0
  6
Continuous
370
    50
100
AcDbLine
 10
-2578.625608063332
 20
1055.396599609132
 30
0.0
 11
-2578.625608063332
 21
1025.396599609132
 31
0.0
  0
LINE
  5
12F
330
1F
100
AcDbEntity
  8
0
  6
Continuous
370
    50
100
AcDbLine
 10
-2528.625608063333
 20
1040.396599609132
 30
0.0
 11
-2528.625608063333
 21
979.3965996091318
 31
0.0
  0
LINE
  5
130
330
1F
100
AcDbEntity
  8
0
  6
Continuous
370
    50
100
AcDbLine
 10
-2538.625608063332
 20
969.3965996091318
 30
0.0
 11
-2508.625608063332
 21
969.3965996091318
 31
0.0
  0
LINE
  5
131
330
1F
100
AcDbEntity
  8
0
  6
Continuous
370
    50
100
AcDbLine
 10
-2528.625608063333
 20
979.3965996091318
 30
0.0
 11
-2498.625608063332
 21
979.3965996091318
 31
0.0
  0
LINE
  5
132
330
1F
100
AcDbEntity
  8
0
  6
Przerywana
370
    13
100
AcDbLine
 10
-2545.625608063332
 20
1020.396599609132
 30
0.0
 11
-2546.625608063332
 21
1019.396599609132
 31
0.0
  0
LINE
  5
133
330
1F
100
AcDbEntity
  8
0
  6
Przerywana
370
    13
100
AcDbLine
 10
-2546.625608063332
 20
1019.396599609132
 30
0.0
 11
-2550.625608063333
 21
1019.396599609132
 31
0.0
  0
LINE
  5
134
330
1F
100
AcDbEntity
  8
0
  6
Przerywana
370
    13
100
AcDbLine
 10
-2551.625608063332
 20
1020.396599609132
 30
0.0
 11
-2545.625608063332
 21
1020.396599609132
 31
0.0
  0
LINE
  5
135
330
1F
100
AcDbEntity
  8
0
  6
Przerywana
370
    13
100
AcDbLine
 10
-2551.625608063332
 20
1049.396599609132
 30
0.0
 11
-2551.625608063332
 21
1020.396599609132
 31
0.0
  0
LINE
  5
136
330
1F
100
AcDbEntity
  8
0
  6
Przerywana
370
    13
100
AcDbLine
 10
-2545.625608063332
 20
1049.396599609132
 30
0.0
 11
-2545.625608063332
 21
1020.396599609132
 31
0.0
  0
LINE
  5
137
330
1F
100
AcDbEntity
  8
0
  6
Przerywana
370
    13
100
AcDbLine
 10
-2551.625608063332
 20
1020.396599609132
 30
0.0
 11
-2550.625608063333
 21
1019.396599609132
 31
0.0
  0
LINE
  5
138
330
1F
100
AcDbEntity
  8
0
  6
Przerywana
370
    13
100
AcDbLine
 10
-2550.625608063333
 20
1020.396599609132
 30
0.0
 11
-2550.625608063333
 21
1049.396599609132
 31
0.0
  0
LINE
  5
139
330
1F
100
AcDbEntity
  8
0
  6
Przerywana
370
    13
100
AcDbLine
 10
-2546.625608063332
 20
1020.396599609132
 30
0.0
 11
-2546.625608063332
 21
1049.396599609132
 31
0.0
  0
LINE
  5
13B
330
1F
100
AcDbEntity
  8
0
  6
Kreski i kropki
370
    13
100
AcDbLine
 10
-2548.625608063332
 20
1063.190421489754
 30
0.0
 11
-2548.625608063332
 21
1014.158867799915
 31
0.0
  0
LINE
  5
13C
330
1F
100
AcDbEntity
  8
0
  6
Continuous
370
    13
100
AcDbLine
 10
-2498.625608063332
 20
979.3965996091318
 30
0.0
 11
-2443.625608063332
 21
979.3965996091318
 31
0.0
  0
LINE
  5
13D
330
1F
100
AcDbEntity
  8
0
  6
Continuous
370
    50
100
AcDbLine
 10
-2308.625608063332
 20
1055.396599609132
 30
0.0
 11
-2318.625608063332
 21
1055.396599609132
 31
0.0
  0
LINE
  5
13E
330
1F
100
AcDbEntity
  8
0
  6
Continuous
370
    50
100
AcDbLine
 10
-2357.625608063332
 20
1040.396599609132
 30
0.0
 11
-2357.625608063332
 21
1042.396599609132
 31
0.0
  0
LINE
  5
13F
330
1F
100
AcDbEntity
  8
0
  6
Continuous
370
    50
100
AcDbLine
 10
-2348.625608063332
 20
969.3965996091318
 30
0.0
 11
-2348.625608063332
 21
1000.396599609132
 31
0.0
  0
LINE
  5
140
330
1F
100
AcDbEntity
  8
0
  6
Continuous
370
    50
100
AcDbLine
 10
-2298.625608063332
 20
1045.396599609132
 30
0.0
 11
-2298.625608063332
 21
1055.396599609132
 31
0.0
  0
LINE
  5
141
330
1F
100
AcDbEntity
  8
0
  6
Continuous
370
    50
100
AcDbLine
 10
-2298.625608063332
 20
1045.396599609132
 30
0.0
 11
-2288.625608063332
 21
1045.396599609132
 31
0.0
  0
LINE
  5
142
330
1F
100
AcDbEntity
  8
0
  6
Continuous
370
    50
100
AcDbLine
 10
-2288.625608063332
 20
1045.396599609132
 30
0.0
 11
-2288.625608063332
 21
1048.396599609132
 31
0.0
  0
LINE
  5
143
330
1F
100
AcDbEntity
  8
0
  6
Continuous
370
    50
100
AcDbLine
 10
-2318.625608063332
 20
1040.396599609132
 30
0.0
 11
-2358.625608063331
 21
1040.396599609132
 31
0.0
  0
LINE
  5
144
330
1F
100
AcDbEntity
  8
0
  6
Continuous
370
    50
100
AcDbLine
 10
-2318.625608063332
 20
1055.396599609132
 30
0.0
 11
-2318.625608063332
 21
1040.396599609132
 31
0.0
  0
LINE
  5
145
330
1F
100
AcDbEntity
  8
0
  6
Continuous
370
    50
100
AcDbLine
 10
-2320.625608063333
 20
1055.396599609132
 30
0.0
 11
-2320.625608063333
 21
1042.396599609132
 31
0.0
  0
LINE
  5
146
330
1F
100
AcDbEntity
  8
0
  6
Continuous
370
    50
100
AcDbLine
 10
-2288.625608063332
 20
1048.396599609132
 30
0.0
 11
-2278.625608063333
 21
1048.396599609132
 31
0.0
  0
LINE
  5
147
330
1F
100
AcDbEntity
  8
0
  6
Continuous
370
    50
100
AcDbLine
 10
-2298.625608063332
 20
1045.396599609132
 30
0.0
 11
-2298.625608063332
 21
1048.396599609132
 31
0.0
  0
LINE
  5
148
330
1F
100
AcDbEntity
  8
0
  6
Continuous
370
    50
100
AcDbLine
 10
-2278.625608063333
 20
1045.396599609132
 30
0.0
 11
-2268.625608063333
 21
1045.396599609132
 31
0.0
  0
LINE
  5
149
330
1F
100
AcDbEntity
  8
0
  6
Continuous
370
    50
100
AcDbLine
 10
-2268.625608063333
 20
1045.396599609132
 30
0.0
 11
-2268.625608063333
 21
1048.396599609132
 31
0.0
  0
LINE
  5
14A
330
1F
100
AcDbEntity
  8
0
  6
Continuous
370
    50
100
AcDbLine
 10
-2321.625608063332
 20
1042.396599609132
 30
0.0
 11
-2321.625608063332
 21
1040.396599609132
 31
0.0
  0
LINE
  5
14B
330
1F
100
AcDbEntity
  8
0
  6
Continuous
370
    50
100
AcDbLine
 10
-2268.625608063333
 20
1048.396599609132
 30
0.0
 11
-2258.625608063333
 21
1048.396599609132
 31
0.0
  0
LINE
  5
14C
330
1F
100
AcDbEntity
  8
0
  6
Continuous
370
    50
100
AcDbLine
 10
-2278.625608063333
 20
1045.396599609132
 30
0.0
 11
-2278.625608063333
 21
1048.396599609132
 31
0.0
  0
LINE
  5
14D
330
1F
100
AcDbEntity
  8
0
  6
Continuous
370
    50
100
AcDbLine
 10
-2258.625608063333
 20
1045.396599609132
 30
0.0
 11
-2248.625608063333
 21
1045.396599609132
 31
0.0
  0
LINE
  5
14E
330
1F
100
AcDbEntity
  8
0
  6
Continuous
370
    50
100
AcDbLine
 10
-2248.625608063333
 20
1045.396599609132
 30
0.0
 11
-2248.625608063333
 21
1048.396599609132
 31
0.0
  0
LINE
  5
14F
330
1F
100
AcDbEntity
  8
0
  6
Continuous
370
    50
100
AcDbLine
 10
-2248.625608063333
 20
1048.396599609132
 30
0.0
 11
-2238.625608063334
 21
1048.396599609132
 31
0.0
  0
LINE
  5
150
330
1F
100
AcDbEntity
  8
0
  6
Continuous
370
    50
100
AcDbLine
 10
-2258.625608063333
 20
1045.396599609132
 30
0.0
 11
-2258.625608063333
 21
1048.396599609132
 31
0.0
  0
LINE
  5
151
330
1F
100
AcDbEntity
  8
0
  6
Continuous
370
    50
100
AcDbLine
 10
-2238.625608063334
 20
1045.396599609132
 30
0.0
 11
-2228.625608063334
 21
1045.396599609132
 31
0.0
  0
LINE
  5
152
330
1F
100
AcDbEntity
  8
0
  6
Continuous
370
    50
100
AcDbLine
 10
-2228.625608063334
 20
1045.396599609132
 30
0.0
 11
-2228.625608063334
 21
1048.396599609132
 31
0.0
  0
LINE
  5
153
330
1F
100
AcDbEntity
  8
0
  6
Continuous
370
    50
100
AcDbLine
 10
-2228.625608063334
 20
1048.396599609132
 30
0.0
 11
-2218.625608063334
 21
1048.396599609132
 31
0.0
  0
LINE
  5
154
330
1F
100
AcDbEntity
  8
0
  6
Continuous
370
    50
100
AcDbLine
 10
-2238.625608063334
 20
1045.396599609132
 30
0.0
 11
-2238.625608063334
 21
1048.396599609132
 31
0.0
  0
LINE
  5
155
330
1F
100
AcDbEntity
  8
0
  6
Continuous
370
    50
100
AcDbLine
 10
-2218.625608063334
 20
1045.396599609132
 30
0.0
 11
-2208.625608063334
 21
1045.396599609132
 31
0.0
  0
LINE
  5
156
330
1F
100
AcDbEntity
  8
0
  6
Continuous
370
    50
100
AcDbLine
 10
-2208.625608063334
 20
1045.396599609132
 30
0.0
 11
-2208.625608063334
 21
1048.396599609132
 31
0.0
  0
LINE
  5
157
330
1F
100
AcDbEntity
  8
0
  6
Continuous
370
    50
100
AcDbLine
 10
-2208.625608063334
 20
1048.396599609132
 30
0.0
 11
-2198.625608063335
 21
1048.396599609132
 31
0.0
  0
LINE
  5
158
330
1F
100
AcDbEntity
  8
0
  6
Continuous
370
    50
100
AcDbLine
 10
-2218.625608063334
 20
1045.396599609132
 30
0.0
 11
-2218.625608063334
 21
1048.396599609132
 31
0.0
  0
LINE
  5
159
330
1F
100
AcDbEntity
  8
0
  6
Continuous
370
    50
100
AcDbLine
 10
-2198.625608063335
 20
1045.396599609132
 30
0.0
 11
-2188.625608063335
 21
1045.396599609132
 31
0.0
  0
LINE
  5
15A
330
1F
100
AcDbEntity
  8
0
  6
Continuous
370
    50
100
AcDbLine
 10
-2188.625608063335
 20
1045.396599609132
 30
0.0
 11
-2188.625608063335
 21
1048.396599609132
 31
0.0
  0
LINE
  5
15B
330
1F
100
AcDbEntity
  8
0
  6
Continuous
370
    50
100
AcDbLine
 10
-2198.625608063335
 20
1045.396599609132
 30
0.0
 11
-2198.625608063335
 21
1048.396599609132
 31
0.0
  0
LINE
  5
15C
330
1F
100
AcDbEntity
  8
0
  6
Przerywana
370
    13
100
AcDbLine
 10
-2333.625608063331
 20
1055.396599609132
 30
0.0
 11
-2333.625608063331
 21
1049.396599609132
 31
0.0
  0
LINE
  5
15D
330
1F
100
AcDbEntity
  8
0
  6
Przerywana
370
    13
100
AcDbLine
 10
-2343.625608063332
 20
1049.396599609132
 30
0.0
 11
-2333.625608063331
 21
1049.396599609132
 31
0.0
  0
LINE
  5
15E
330
1F
100
AcDbEntity
  8
0
  6
Przerywana
370
    13
100
AcDbLine
 10
-2343.625608063332
 20
1055.396599609132
 30
0.0
 11
-2343.625608063332
 21
1049.396599609132
 31
0.0
  0
LINE
  5
15F
330
1F
100
AcDbEntity
  8
0
  6
Continuous
370
    50
100
AcDbLine
 10
-2308.625608063332
 20
1055.396599609132
 30
0.0
 11
-2298.625608063332
 21
1055.396599609132
 31
0.0
  0
LINE
  5
160
330
1F
100
AcDbEntity
  8
0
  6
Continuous
370
    50
100
AcDbLine
 10
-2318.625608063332
 20
1020.396599609132
 30
0.0
 11
-2348.625608063332
 21
1000.396599609132
 31
0.0
  0
LINE
  5
161
330
1F
100
AcDbEntity
  8
0
  6
Continuous
370
    50
100
AcDbLine
 10
-2278.625608063333
 20
1020.396599609132
 30
0.0
 11
-2318.625608063332
 21
1020.396599609132
 31
0.0
  0
LINE
  5
162
330
1F
100
AcDbEntity
  8
0
  6
Continuous
370
    50
100
AcDbLine
 10
-2278.625608063333
 20
1025.396599609132
 30
0.0
 11
-2278.625608063333
 21
1020.396599609132
 31
0.0
  0
LINE
  5
163
330
1F
100
AcDbEntity
  8
0
  6
Continuous
370
    50
100
AcDbLine
 10
-2308.625608063332
 20
1025.396599609132
 30
0.0
 11
-2278.625608063333
 21
1025.396599609132
 31
0.0
  0
LINE
  5
164
330
1F
100
AcDbEntity
  8
0
  6
Continuous
370
    50
100
AcDbLine
 10
-2308.625608063332
 20
1055.396599609132
 30
0.0
 11
-2308.625608063332
 21
1025.396599609132
 31
0.0
  0
LINE
  5
165
330
1F
100
AcDbEntity
  8
0
  6
Continuous
370
    50
100
AcDbLine
 10
-2358.625608063331
 20
1040.396599609132
 30
0.0
 11
-2358.625608063331
 21
979.3965996091318
 31
0.0
  0
LINE
  5
166
330
1F
100
AcDbEntity
  8
0
  6
Continuous
370
    50
100
AcDbLine
 10
-2348.625608063332
 20
969.3965996091318
 30
0.0
 11
-2378.625608063332
 21
969.3965996091318
 31
0.0
  0
LINE
  5
167
330
1F
100
AcDbEntity
  8
0
  6
Continuous
370
    50
100
AcDbLine
 10
-2358.625608063331
 20
979.3965996091318
 30
0.0
 11
-2388.625608063332
 21
979.3965996091318
 31
0.0
  0
LINE
  5
168
330
1F
100
AcDbEntity
  8
0
  6
Przerywana
370
    13
100
AcDbLine
 10
-2341.625608063332
 20
1020.396599609132
 30
0.0
 11
-2340.625608063332
 21
1019.396599609132
 31
0.0
  0
LINE
  5
169
330
1F
100
AcDbEntity
  8
0
  6
Przerywana
370
    13
100
AcDbLine
 10
-2340.625608063332
 20
1019.396599609132
 30
0.0
 11
-2336.625608063331
 21
1019.396599609132
 31
0.0
  0
LINE
  5
16A
330
1F
100
AcDbEntity
  8
0
  6
Przerywana
370
    13
100
AcDbLine
 10
-2335.625608063332
 20
1020.396599609132
 30
0.0
 11
-2341.625608063332
 21
1020.396599609132
 31
0.0
  0
LINE
  5
16B
330
1F
100
AcDbEntity
  8
0
  6
Przerywana
370
    13
100
AcDbLine
 10
-2335.625608063332
 20
1049.396599609132
 30
0.0
 11
-2335.625608063332
 21
1020.396599609132
 31
0.0
  0
LINE
  5
16C
330
1F
100
AcDbEntity
  8
0
  6
Przerywana
370
    13
100
AcDbLine
 10
-2341.625608063332
 20
1049.396599609132
 30
0.0
 11
-2341.625608063332
 21
1020.396599609132
 31
0.0
  0
LINE
  5
16D
330
1F
100
AcDbEntity
  8
0
  6
Przerywana
370
    13
100
AcDbLine
 10
-2335.625608063332
 20
1020.396599609132
 30
0.0
 11
-2336.625608063331
 21
1019.396599609132
 31
0.0
  0
LINE
  5
16E
330
1F
100
AcDbEntity
  8
0
  6
Przerywana
370
    13
100
AcDbLine
 10
-2336.625608063331
 20
1020.396599609132
 30
0.0
 11
-2336.625608063331
 21
1049.396599609132
 31
0.0
  0
LINE
  5
16F
330
1F
100
AcDbEntity
  8
0
  6
Przerywana
370
    13
100
AcDbLine
 10
-2340.625608063332
 20
1020.396599609132
 30
0.0
 11
-2340.625608063332
 21
1049.396599609132
 31
0.0
  0
LINE
  5
170
330
1F
100
AcDbEntity
  8
0
  6
Kreski i kropki
370
    13
100
AcDbLine
 10
-2338.625608063332
 20
1063.190421489754
 30
0.0
 11
-2338.625608063332
 21
1014.158867799915
 31
0.0
  0
LINE
  5
171
330
1F
100
AcDbEntity
  8
0
  6
Continuous
370
    13
100
AcDbLine
 10
-2388.625608063332
 20
979.3965996091318
 30
0.0
 11
-2443.625608063332
 21
979.3965996091318
 31
0.0
  0
LINE
  5
172
330
1F
100
AcDbEntity
  8
0
  6
Continuous
370
    13
100
AcDbLine
 10
-2303.401785350984
 20
1073.713560310023
 30
0.0
 11
-2303.401785350984
 21
1052.212729529855
 31
0.0
  0
CIRCLE
  5
173
330
1F
100
AcDbEntity
  8
0
  6
Continuous
370
    13
100
AcDbCircle
 10
-2303.401785350984
 20
1051.212729529855
 30
0.0
 40
1.0
  0
HATCH
  5
174
330
1F
100
AcDbEntity
  8
0
  6
Continuous
370
    13
100
AcDbHatch
 10
0.0
 20
0.0
 30
0.0
210
0.0
220
0.0
230
1.0
  2
SOLID
 70
     1
 71
     0
 91
        1
 92
        2
 72
     0
 73
     1
 93
       16
 10
-2302.401785350984
 20
1051.212729529855
 10
-2302.477905818472
 20
1051.59541296222
 10
-2302.694678569797
 20
1051.919836311042
 10
-2303.019101918618
 20
1052.136609062366
 10
-2303.401785350984
 20
1052.212729529855
 10
-2303.784468783349
 20
1052.136609062366
 10
-2304.10889213217
 20
1051.919836311042
 10
-2304.325664883495
 20
1051.59541296222
 10
-2304.401785350983
 20
1051.212729529855
 10
-2304.325664883495
 20
1050.83004609749
 10
-2304.10889213217
 20
1050.505622748669
 10
-2303.784468783349
 20
1050.288849997344
 10
-2303.401785350984
 20
1050.212729529855
 10
-2303.019101918618
 20
1050.288849997344
 10
-2302.694678569797
 20
1050.505622748669
 10
-2302.477905818472
 20
1050.83004609749
 97
        0
 75
     0
 76
     1
 98
        0
  0
LINE
  5
175
330
1F
100
AcDbEntity
  8
0
  6
Continuous
370
    13
100
AcDbLine
 10
-2302.77800496317
 20
1043.643970746534
 30
0.0
 11
-2278.085299427071
 21
1074.584042953017
 31
0.0
  0
CIRCLE
  5
176
330
1F
100
AcDbEntity
  8
0
  6
Continuous
370
    13
100
AcDbCircle
 10
-2303.401785350984
 20
1042.862371087003
 30
0.0
 40
1.0
  0
HATCH
  5
177
330
1F
100
AcDbEntity
  8
0
  6
Continuous
370
    13
100
AcDbHatch
 10
0.0
 20
0.0
 30
0.0
210
0.0
220
0.0
230
1.0
  2
SOLID
 70
     1
 71
     0
 91
        1
 92
        2
 72
     0
 73
     1
 93
       16
 10
-2302.401785350984
 20
1042.862371087003
 10
-2302.477905818472
 20
1043.245054519368
 10
-2302.694678569797
 20
1043.569477868189
 10
-2303.019101918618
 20
1043.786250619514
 10
-2303.401785350984
 20
1043.862371087003
 10
-2303.784468783349
 20
1043.786250619514
 10
-2304.10889213217
 20
1043.569477868189
 10
-2304.325664883495
 20
1043.245054519368
 10
-2304.401785350983
 20
1042.862371087003
 10
-2304.325664883495
 20
1042.479687654638
 10
-2304.10889213217
 20
1042.155264305816
 10
-2303.784468783349
 20
1041.938491554492
 10
-2303.401785350984
 20
1041.862371087003
 10
-2303.019101918618
 20
1041.938491554492
 10
-2302.694678569797
 20
1042.155264305816
 10
-2302.477905818472
 20
1042.479687654638
 97
        0
 75
     0
 76
     1
 98
        0
  0
LINE
  5
178
330
1F
100
AcDbEntity
  8
0
  6
Continuous
370
    13
100
AcDbLine
 10
-2583.849430775681
 20
1073.713560310023
 30
0.0
 11
-2583.849430775681
 21
1052.212729529855
 31
0.0
  0
CIRCLE
  5
179
330
1F
100
AcDbEntity
  8
0
  6
Continuous
370
    13
100
AcDbCircle
 10
-2583.849430775681
 20
1051.212729529855
 30
0.0
 40
1.0
  0
HATCH
  5
17A
330
1F
100
AcDbEntity
  8
0
  6
Continuous
370
    13
100
AcDbHatch
 10
0.0
 20
0.0
 30
0.0
210
0.0
220
0.0
230
1.0
  2
SOLID
 70
     1
 71
     0
 91
        1
 92
        2
 72
     0
 73
     1
 93
       16
 10
-2582.849430775681
 20
1051.212729529855
 10
-2582.925551243169
 20
1051.59541296222
 10
-2583.142323994494
 20
1051.919836311042
 10
-2583.466747343316
 20
1052.136609062366
 10
-2583.849430775681
 20
1052.212729529855
 10
-2584.232114208046
 20
1052.136609062366
 10
-2584.556537556867
 20
1051.919836311042
 10
-2584.773310308192
 20
1051.59541296222
 10
-2584.849430775681
 20
1051.212729529855
 10
-2584.773310308192
 20
1050.83004609749
 10
-2584.556537556867
 20
1050.505622748669
 10
-2584.232114208046
 20
1050.288849997344
 10
-2583.849430775681
 20
1050.212729529855
 10
-2583.466747343316
 20
1050.288849997344
 10
-2583.142323994494
 20
1050.505622748669
 10
-2582.925551243169
 20
1050.83004609749
 97
        0
 75
     0
 76
     1
 98
        0
  0
LINE
  5
17B
330
1F
100
AcDbEntity
  8
0
  6
Continuous
370
    13
100
AcDbLine
 10
-2584.460247554034
 20
1043.654143063826
 30
0.0
 11
-2608.613579552385
 21
1074.962928449087
 31
0.0
  0
CIRCLE
  5
17C
330
1F
100
AcDbEntity
  8
0
  6
Continuous
370
    13
100
AcDbCircle
 10
-2583.849430775681
 20
1042.862371087003
 30
0.0
 40
1.0
  0
HATCH
  5
17D
330
1F
100
AcDbEntity
  8
0
  6
Continuous
370
    13
100
AcDbHatch
 10
0.0
 20
0.0
 30
0.0
210
0.0
220
0.0
230
1.0
  2
SOLID
 70
     1
 71
     0
 91
        1
 92
        2
 72
     0
 73
     1
 93
       16
 10
-2582.849430775681
 20
1042.862371087003
 10
-2582.925551243169
 20
1043.245054519368
 10
-2583.142323994494
 20
1043.569477868189
 10
-2583.466747343316
 20
1043.786250619514
 10
-2583.849430775681
 20
1043.862371087003
 10
-2584.232114208046
 20
1043.786250619514
 10
-2584.556537556867
 20
1043.569477868189
 10
-2584.773310308192
 20
1043.245054519368
 10
-2584.849430775681
 20
1042.862371087003
 10
-2584.773310308192
 20
1042.479687654638
 10
-2584.556537556867
 20
1042.155264305816
 10
-2584.232114208046
 20
1041.938491554492
 10
-2583.849430775681
 20
1041.862371087003
 10
-2583.466747343316
 20
1041.938491554492
 10
-2583.142323994494
 20
1042.155264305816
 10
-2582.925551243169
 20
1042.479687654638
 97
        0
 75
     0
 76
     1
 98
        0
  0
LINE
  5
17E
330
1F
100
AcDbEntity
  8
0
  6
Kreski i kropki
370
    35
100
AcDbLine
 10
-2443.625608063332
 20
1072.44897444867
 30
0.0
 11
-2443.625608063332
 21
890.4660465919051
 31
0.0
  0
LINE
  5
17F
330
1F
100
AcDbEntity
  8
0
  6
Continuous
370
    50
100
AcDbLine
 10
-2463.625608063332
 20
905.3965996091318
 30
0.0
 11
-2463.625608063332
 21
915.3965996091318
 31
0.0
  0
LINE
  5
180
330
1F
100
AcDbEntity
  8
0
  6
Continuous
370
    13
100
AcDbLine
 10
-2458.625608063331
 20
915.3965996091318
 30
0.0
 11
-2443.625608063332
 21
915.3965996091318
 31
0.0
  0
LINE
  5
181
330
1F
100
AcDbEntity
  8
0
  6
Continuous
370
    50
100
AcDbLine
 10
-2488.625608063332
 20
905.3965996091318
 30
0.0
 11
-2463.625608063332
 21
905.3965996091318
 31
0.0
  0
LINE
  5
182
330
1F
100
AcDbEntity
  8
0
  6
Continuous
370
    50
100
AcDbLine
 10
-2488.625608063332
 20
915.3965996091318
 30
0.0
 11
-2458.625608063331
 21
915.3965996091318
 31
0.0
  0
LINE
  5
183
330
1F
100
AcDbEntity
  8
0
  6
Continuous
370
    50
100
AcDbLine
 10
-2498.625608063332
 20
925.396599609132
 30
0.0
 11
-2498.625608063332
 21
979.3965996091318
 31
0.0
  0
LINE
  5
184
330
1F
100
AcDbEntity
  8
0
  6
Continuous
370
    50
100
AcDbLine
 10
-2508.625608063332
 20
925.396599609132
 30
0.0
 11
-2508.625608063332
 21
969.3965996091318
 31
0.0
  0
LINE
  5
185
330
1F
100
AcDbEntity
  8
0
  6
Continuous
370
    13
100
AcDbLine
 10
-2478.625608063332
 20
925.396599609132
 30
0.0
 11
-2478.625608063332
 21
979.3965996091318
 31
0.0
  0
LINE
  5
186
330
1F
100
AcDbEntity
  8
0
  6
Continuous
370
    50
100
AcDbLine
 10
-2423.625608063332
 20
905.3965996091318
 30
0.0
 11
-2423.625608063332
 21
915.3965996091318
 31
0.0
  0
LINE
  5
187
330
1F
100
AcDbEntity
  8
0
  6
Continuous
370
    13
100
AcDbLine
 10
-2428.625608063333
 20
915.3965996091318
 30
0.0
 11
-2443.625608063332
 21
915.3965996091318
 31
0.0
  0
LINE
  5
188
330
1F
100
AcDbEntity
  8
0
  6
Continuous
370
    50
100
AcDbLine
 10
-2398.625608063332
 20
905.3965996091318
 30
0.0
 11
-2423.625608063332
 21
905.3965996091318
 31
0.0
  0
LINE
  5
189
330
1F
100
AcDbEntity
  8
0
  6
Continuous
370
    50
100
AcDbLine
 10
-2398.625608063332
 20
915.3965996091318
 30
0.0
 11
-2428.625608063333
 21
915.3965996091318
 31
0.0
  0
LINE
  5
18A
330
1F
100
AcDbEntity
  8
0
  6
Continuous
370
    50
100
AcDbLine
 10
-2388.625608063332
 20
925.396599609132
 30
0.0
 11
-2388.625608063332
 21
979.3965996091318
 31
0.0
  0
LINE
  5
18B
330
1F
100
AcDbEntity
  8
0
  6
Continuous
370
    50
100
AcDbLine
 10
-2378.625608063332
 20
925.396599609132
 30
0.0
 11
-2378.625608063332
 21
969.3965996091318
 31
0.0
  0
LINE
  5
18C
330
1F
100
AcDbEntity
  8
0
  6
Continuous
370
    13
100
AcDbLine
 10
-2408.625608063332
 20
925.396599609132
 30
0.0
 11
-2408.625608063332
 21
979.3965996091318
 31
0.0
  0
LINE
  5
18D
330
1F
100
AcDbEntity
  8
0
  6
Continuous
370
    50
100
AcDbLine
 10
-2458.625608063331
 20
915.3965996091318
 30
0.0
 11
-2458.625608063331
 21
895.3965996091318
 31
0.0
  0
LINE
  5
18E
330
1F
100
AcDbEntity
  8
0
  6
Continuous
370
    50
100
AcDbLine
 10
-2463.625608063332
 20
905.3965996091318
 30
0.0
 11
-2463.625608063332
 21
895.3965996091318
 31
0.0
  0
LINE
  5
18F
330
1F
100
AcDbEntity
  8
0
  6
Continuous
370
    50
100
AcDbLine
 10
-2428.625608063333
 20
915.3965996091318
 30
0.0
 11
-2428.625608063333
 21
895.3965996091318
 31
0.0
  0
LINE
  5
190
330
1F
100
AcDbEntity
  8
0
  6
Continuous
370
    50
100
AcDbLine
 10
-2423.625608063332
 20
905.3965996091318
 30
0.0
 11
-2423.625608063332
 21
895.3965996091318
 31
0.0
  0
LINE
  5
191
330
1F
100
AcDbEntity
  8
0
  6
Continuous
370
    13
100
AcDbLine
 10
-2165.625608063333
 20
880.396599609132
 30
0.0
 11
-2165.625608063333
 21
836.3965996091321
 31
0.0
  0
LINE
  5
192
330
1F
100
AcDbEntity
  8
0
  6
Continuous
370
    13
100
AcDbLine
 10
-2525.625608063333
 20
836.3965996091318
 30
0.0
 11
-2165.625608063333
 21
836.3965996091318
 31
0.0
  0
LWPOLYLINE
  5
193
330
1F
100
AcDbEntity
  8
0
  6
Continuous
370
    13
100
AcDbPolyline
 90
        4
 70
   129
 43
0.0
 10
-2739.625608063337
 20
1196.452058282086
 10
-2165.625608063333
 20
1196.452058282086
 10
-2165.625608063333
 20
836.3965996091337
 10
-2739.625608063337
 20
836.3965996091337
  0
LWPOLYLINE
  5
194
330
1F
100
AcDbEntity
  8
@__WIDOCZNE
  6
Continuous
370
    13
100
AcDbPolyline
 90
        2
 70
   129
 43
0.0
 10
-2165.625608063333
 20
848.3965996091307
 10
-2418.479552423562
 20
848.3965996091307
  0
LWPOLYLINE
  5
195
330
1F
100
AcDbEntity
  8
@__WIDOCZNE
  6
Continuous
370
    13
100
AcDbPolyline
 90
        4
 70
   129
 43
0.0
 10
-2525.625608063333
 20
880.3965996091272
 10
-2525.625608063333
 20
836.3965996091318
 10
-2165.625608063333
 20
836.3965996091321
 10
-2165.625608063333
 20
880.3965996091274
  0
LWPOLYLINE
  5
196
330
1F
100
AcDbEntity
  8
@__WIDOCZNE
  6
Continuous
370
    13
100
AcDbPolyline
 90
        2
 70
   128
 43
0.0
 10
-2193.625608063305
 20
870.3965996091285
 10
-2193.625608063305
 20
880.3965996091274
  0
LWPOLYLINE
  5
197
330
1F
100
AcDbEntity
  8
@__WIDOCZNE
  6
Continuous
370
    13
100
AcDbPolyline
 90
        2
 70
   128
 43
0.0
 10
-2165.625608063333
 20
870.3965996091285
 10
-2227.625608063316
 20
870.3965996091285
  0
LWPOLYLINE
  5
198
330
1F
100
AcDbEntity
  8
@__WIDOCZNE
  6
Continuous
370
    13
100
AcDbPolyline
 90
        2
 70
   128
 43
0.0
 10
-2227.625608063316
 20
848.3965996091307
 10
-2227.625608063316
 20
880.3965996091274
  0
LWPOLYLINE
  5
199
330
1F
100
AcDbEntity
  8
@__WIDOCZNE
  6
Continuous
370
    13
100
AcDbPolyline
 90
        2
 70
   128
 43
0.0
 10
-2418.479552423562
 20
880.3965996091272
 10
-2418.479552423562
 20
836.3965996091316
  0
LWPOLYLINE
  5
19A
330
1F
100
AcDbEntity
  8
@__WIDOCZNE
  6
Continuous
370
    13
100
AcDbPolyline
 90
        4
 70
   129
 43
0.0
 10
-2749.715574355011
 20
826.3950590904408
 10
-2749.715574355011
 20
1246.459760875624
 10
-2155.62406754464
 20
1246.459760875624
 10
-2155.62406754464
 20
826.3950590904406
  0
ARC
  5
19B
330
1F
100
AcDbEntity
  8
0
  6
Continuous
370
    50
100
AcDbCircle
 10
-2488.625608063332
 20
925.396599609132
 30
0.0
 40
10.00000000000001
100
AcDbArc
 50
180.0
 51
270.0
  0
ARC
  5
19C
330
1F
100
AcDbEntity
  8
0
  6
Continuous
370
    50
100
AcDbCircle
 10
-2488.625608063332
 20
925.396599609132
 30
0.0
 40
19.99999999999957
100
AcDbArc
 50
180.0
 51
270.0
  0
ARC
  5
19D
330
1F
100
AcDbEntity
  8
0
  6
Continuous
370
    13
100
AcDbCircle
 10
-2468.625608063332
 20
925.396599609132
 30
0.0
 40
10.00000000000001
100
AcDbArc
 50
180.0
 51
270.0
  0
ARC
  5
19E
330
1F
100
AcDbEntity
  8
0
  6
Continuous
370
    50
100
AcDbCircle
 10
-2398.625608063332
 20
925.396599609132
 30
0.0
 40
10.00000000000001
100
AcDbArc
 50
270.0
 51
0.0
  0
ARC
  5
19F
330
1F
100
AcDbEntity
  8
0
  6
Continuous
370
    50
100
AcDbCircle
 10
-2398.625608063332
 20
925.396599609132
 30
0.0
 40
19.99999999999957
100
AcDbArc
 50
270.0
 51
0.0
  0
ARC
  5
1A0
330
1F
100
AcDbEntity
  8
0
  6
Continuous
370
    13
100
AcDbCircle
 10
-2418.625608063332
 20
925.396599609132
 30
0.0
 40
10.00000000000001
100
AcDbArc
 50
270.0
 51
0.0
  0
ELLIPSE
  5
1A1
330
1F
100
AcDbEntity
  8
0
  6
Continuous
370
    50
100
AcDbEllipse
 10
-2303.662788076402
 20
1042.300093287157
 30
0.0
 11
-9.457558575943854E-16
 21
-5.148455093353488
 31
0.0
210
0.0
220
0.0
230
1.0
 40
0.7307692307692814
 41
0.0
 42
6.283185307179586
  0
ELLIPSE
  5
1A2
330
1F
100
AcDbEntity
  8
0
  6
Continuous
370
    50
100
AcDbEllipse
 10
-2583.588428050262
 20
1042.300093287157
 30
0.0
 11
3.152519525314618E-16
 21
5.148455093353488
 31
0.0
210
0.0
220
0.0
230
1.0
 40
0.7307692307692814
 41
0.0
 42
6.283185307179586
  0
MTEXT
  5
1A3
330
1F
100
AcDbEntity
  8
0
  6
Continuous
370
    13
100
AcDbMText
 10
-2394.117115496849
 20
1179.033643438217
 30
0.0
 40
6.0
 41
0.0
 71
     1
 72
     1
  1
{\LLEGENDA:}
  7
GENERATED_STYLE_1
 73
     1
 44
1.0
  0
MTEXT
  5
1A5
330
1F
100
AcDbEntity
  8
0
  6
Continuous
370
    13
100
AcDbMText
 10
-2381.197036634763
 20
1130.642371010914
 30
0.0
 40
4.000000000000002
 41
0.0
 71
     1
 72
     1
  1
\A1;{\fArial|b0|i0|c238|p38;- SILIKON BASENOWY- \fArial|b1|i0|c238|p38;BOTAMENT S3}
  7
GENERATED_STYLE_1
 73
     1
 44
1.0
  0
MTEXT
  5
1A6
330
1F
100
AcDbEntity
  8
0
  6
Continuous
370
    13
100
AcDbMText
 10
-2381.197036634763
 20
1143.942986624847
 30
0.0
 40
4.0
 41
0.0
 71
     1
 72
     1
  1
{- SZNUR POLIETYLENOWY}
  7
GENERATED_STYLE_1
 73
     1
 44
1.0
  0
MTEXT
  5
1A7
330
1F
100
AcDbEntity
  8
0
  6
Continuous
370
    13
100
AcDbMText
 10
-2381.197036634763
 20
1116.642371010913
 30
0.0
 40
4.0
 41
0.0
 71
     1
 72
     1
  1
{- WPUST BASENOWY DENNY lub INNY ELEMENT INSTALACYJNY}
  7
GENERATED_STYLE_1
 73
     1
 44
1.0
  0
MTEXT
  5
1A8
330
1F
100
AcDbEntity
  8
0
  6
Continuous
370
    13
100
AcDbMText
 10
-2381.197036634763
 20
1155.932496972676
 30
0.0
 40
4.0
 41
0.0
 71
     4
 72
     1
  1
\A1;{\fArial|b0|i0|c238|p38;- IZOLACJA PRZEJŚĆ INSTALACYJNYCH - \fArial|b1|i0|c238|p38;BOTAMENT SB 78\P\fArial|b0|i0|c238|p38;  MANKIET USZCZELNIAJĄCY O WYMIARACH: 425x425mm lub 120x120mm\P  (zatopiony w warstwie izolacyjnej)}
  7
GENERATED_STYLE_1
 73
     1
 44
0.9259597011114326
  0
MTEXT
  5
1A9
330
1F
100
AcDbEntity
  8
0
  6
Continuous
370
    13
100
AcDbMText
 10
-2670.217451004135
 20
1179.490786295361
 30
0.0
 40
4.000000000000001
 41
0.0
 71
     1
 72
     1
  3
\A1;{\fArial|b1|i0|c238|p38;PODŁOGA NIECKI BASENU\P\fArial|b0|i0|c238|p38;• PŁYTKI CERAMICZNE BASENOWE\P• WYPEŁNIENIE SPOIN - ZAPRAWA CHEMOODPORNA\P  - \fArial|b1|i0|c238|p38;BOTAMENT CF200\fArial|b0|i0|c238|p38; lub\P  - \fArial|b1|i0|c238|p38;MULT
  3
IFUGE Diamond MAX\P\fArial|b0|i0|c238|p38;• ZAPRAWA KLEJOWA\P  - \fArial|b1|i0|c238|p38;MULTILIGHT \fArial|b0|i0|c238|p38;lub\P  - \fArial|b1|i0|c238|p38;BOTAMENT M21HP\fArial|b0|i0|c238|p38; \P  - \fArial|b1|i0|c238|p38;MULTISTONE \fArial|b0|i0|c23
  1
8|p38;(do mozaiki szklanej)\P• IZOLACJA PRZECIWWODNA - \fArial|b1|i0|c238|p38;BOTAMENT MD28\P\fArial|b0|i0|c238|p38;• PROFILACJA, KOREKTA WYMIARÓW ORAZ\P  UZUPEŁNIENIE UBYTKÓW - SYSTEM BOTAMENT \P• ŻELBETOWA NIECKA BASENU}
  7
GENERATED_STYLE_2
 73
     1
 44
0.9030098961675442
  0
MTEXT
  5
1AA
330
1F
100
AcDbEntity
  8
@__WIDOCZNE
  6
Continuous
370
    13
100
AcDbMText
 10
-2315.521802144243
 20
864.3552681177949
 30
0.0
 40
5.600000000000001
 41
0.0
 71
     5
 72
     1
  1
{IZOLACJA BASENU\P- SZCZEGÓŁ PRZEJŚCIA INSTALACYJNEGO}
  7
GENERATED_STYLE_2
 73
     1
 44
0.7938417127736349
  0
MTEXT
  5
1AB
330
1F
100
AcDbEntity
  8
@__WIDOCZNE
  6
Continuous
370
    13
100
AcDbMText
 10
-2214.540551898473
 20
850.9634722620598
 30
0.0
 40
7.999999999999998
 41
0.0
 71
     7
 72
     1
  1
{08.01.03.}
  7
GENERATED_STYLE_2
 73
     1
 44
1.0
  0
MTEXT
  5
1AC
330
1F
100
AcDbEntity
  8
@__WIDOCZNE
  6
Continuous
370
    13
100
AcDbMText
 10
-2414.475966524014
 20
842.2104119136965
 30
0.0
 40
3.0
 41
0.0
 71
     4
 72
     1
  1
{Rysunek nie wyczerpuje wszystkich aspektów technicznych zagadnienia, a jego integralną częścią są karty techniczne \Pposzczególnych produktów. Szczegółowych informacji udzielają technicy zastosowań i doradcy handlowo-techniczni Botament. }
  7
GENERATED_STYLE_1
 73
     1
 44
0.9278263558916969
  0
MTEXT
  5
1AD
330
1F
100
AcDbEntity
  8
@__WIDOCZNE
  6
Continuous
370
    13
100
AcDbMText
 10
-2471.736416161647
 20
842.5814237282289
 30
0.0
 40
2.999999999999999
 41
0.0
 71
     5
 72
     1
  1
{ ul. Prądzyńskiego 20, 63-000 Środa Wlkp., botament.pl\P +48 606-318-643, 61-286-45-17, technik@botament.pl  }
  7
GENERATED_STYLE_1
 73
     1
 44
0.9181612291118317
  0
MTEXT
  5
1AE
330
1F
100
AcDbEntity
  8
@__WIDOCZNE
  6
Continuous
370
    13
100
AcDbMText
 10
-2227.625608063316
 20
869.7108853234142
 30
0.0
 40
3.0
 41
0.0
 71
     1
 72
     1
  1
{ nr rys:}
  7
GENERATED_STYLE_1
 73
     1
 44
1.0
  0
MTEXT
  5
1AF
330
1F
100
AcDbEntity
  8
@__WIDOCZNE
  6
Continuous
370
    13
100
AcDbMText
 10
-2222.482748827537
 20
879.7108853234131
 30
0.0
 40
3.0
 41
0.0
 71
     2
 72
     1
  1
{ data:}
  7
GENERATED_STYLE_1
 73
     1
 44
1.0
  0
MTEXT
  5
1B0
330
1F
100
AcDbEntity
  8
@__WIDOCZNE
  6
Continuous
370
    13
100
AcDbMText
 10
-2187.711322349019
 20
879.7108853234131
 30
0.0
 40
3.0
 41
0.0
 71
     2
 72
     1
  1
{ skala:}
  7
GENERATED_STYLE_1
 73
     1
 44
1.0
  0
MTEXT
  5
1B1
330
1F
100
AcDbEntity
  8
@__WIDOCZNE
  6
Continuous
370
    13
100
AcDbMText
 10
-2174.768473018772
 20
871.752029165512
 30
0.0
 40
3.999999999999998
 41
0.0
 71
     7
 72
     1
  1
{1:2 }
  7
GENERATED_STYLE_1
 73
     1
 44
1.0
  0
MTEXT
  5
1B2
330
1F
100
AcDbEntity
  8
@__WIDOCZNE
  6
Continuous
370
    13
100
AcDbMText
 10
-2214.910198768934
 20
871.7975458832417
 30
0.0
 40
3.999999999999998
 41
0.0
 71
     7
 72
     1
  1
{2022.10.}
  7
GENERATED_STYLE_1
 73
     1
 44
1.0
  0
MTEXT
  5
1B3
330
1F
100
AcDbEntity
  8
@__WIDOCZNE
  6
Continuous
370
    50
100
AcDbMText
 10
-2708.101000325164
 20
1197.739516540818
 30
0.0
 40
4.0
 41
0.0
 71
     9
 72
     1
  1
{druk: 221108}
  7
GENERATED_STYLE_1
 73
     1
 44
1.0
  0
WIPEOUT
  5
1B5
330
1F
100
AcDbEntity
  8
@__WIDOCZNE
  6
Wipeout_Contour
 62
   254
 48
9564.508904159904
370
     0
 92
      140
310
8C000000010000008400000006000000050000004438B34F4009A1C076512E3B61B9904000000000000000004438B34F4009A1C078CF61E971E58B400000000000000000662D11A64602A1C078CF61E971E58B400000000000000000662D11A64602A1C076512E3B61B9904000000000000000004438B34F4009A1C076512E
310
3B61B990400000000000000000
100
AcDbWipeout
 90
        0
 10
-2180.625608063334
 20
892.6806209222259
 30
0.0
 11
3.487622321917115
 21
0.0
 31
0.0
 12
0.0
 22
177.6643313976078
 32
0.0
 13
1.0
 23
1.0
340
0
 70
    15
280
     1
281
    50
282
    50
283
     0
360
0
 71
     2
 91
        5
 14
-0.5
 24
-0.5
 14
-0.5
 24
0.5
 14
0.5
 24
0.5
 14
0.5
 24
-0.5
 14
-0.5
 24
-0.5
  0
WIPEOUT
  5
1B7
330
1F
100
AcDbEntity
  8
@__WIDOCZNE
  6
Wipeout_Contour
 62
   254
 48
11525.64238456596
370
     0
 92
      140
310
8C000000010000008400000006000000050000003E38B34F402BA5C077512E3B61B9904000000000000000003E38B34F402BA5C079CF61E971E58B4000000000000000009D072BE8ED23A5C079CF61E971E58B4000000000000000009D072BE8ED23A5C077512E3B61B9904000000000000000003E38B34F402BA5C077512E
310
3B61B990400000000000000000
100
AcDbWipeout
 90
        0
 10
-2709.625608063331
 20
892.680620922226
 30
0.0
 11
3.660946136413713
 21
0.0
 31
0.0
 12
0.0
 22
177.664331397608
 32
0.0
 13
1.0
 23
1.0
340
0
 70
    15
280
     1
281
    50
282
    50
283
     0
360
0
 71
     2
 91
        5
 14
-0.4999999999999379
 24
-0.4999999999999997
 14
-0.4999999999999379
 24
0.5000000000000003
 14
0.5000000000000621
 24
0.5000000000000003
 14
0.5000000000000621
 24
-0.4999999999999997
 14
-0.4999999999999379
 24
-0.4999999999999997
  0
WIPEOUT
  5
1B8
330
1F
100
AcDbEntity
  8
@__WIDOCZNE
  6
Wipeout_Contour
 62
   254
 48
10910.73652323318
370
     0
 92
      140
310
8C000000010000008400000006000000050000008EBF8BED242BA5C0A2766A3C2CE38B40000000000000000085313F012817A3C0A2766A3C2CE38B40000000000000000085313F012817A3C0A21A8506D3FF8B4000000000000000008EBF8BED242BA5C0A21A8506D3FF8B4000000000000000008EBF8BED242BA5C0A2766A
310
3C2CE38B400000000000000000
100
AcDbWipeout
 90
        0
 10
-2709.572124831327
 20
892.3965996091322
 30
0.0
 11
265.9939903186209
 21
0.0
 31
0.0
 12
0.0
 22
3.581440170411952
 32
0.0
 13
1.0
 23
1.0
340
0
 70
    15
280
     1
281
    50
282
    50
283
     0
360
0
 71
     2
 91
        5
 14
-0.4999999999999992
 24
0.5
 14
0.5000000000000009
 24
0.5
 14
0.5000000000000009
 24
-0.5
 14
-0.4999999999999992
 24
-0.5
 14
-0.4999999999999992
 24
0.5
  0
WIPEOUT
  5
1B9
330
1F
100
AcDbEntity
  8
@__WIDOCZNE
  6
Wipeout_Contour
 62
   254
 48
9912.5400176606
370
     0
 92
      140
310
8C00000001000000840000000600000005000000F2B0DAB15B03A1C0A2766A3C2CE38B400000000000000000F2B0DAB15B03A1C0A21A8506D3FF8B400000000000000000FB3E279E5817A3C0A21A8506D3FF8B400000000000000000FB3E279E5817A3C0A2766A3C2CE38B400000000000000000F2B0DAB15B03A1C0A2766A
310
3C2CE38B400000000000000000
100
AcDbWipeout
 90
        0
 10
-2443.673081613958
 20
892.3965996091322
 30
0.0
 11
265.9939903186209
 21
0.0
 31
0.0
 12
0.0
 22
3.581440170411952
 32
0.0
 13
1.0
 23
1.0
340
0
 70
    15
280
     1
281
    50
282
    50
283
     0
360
0
 71
     2
 91
        5
 14
0.4999999999999992
 24
0.5
 14
0.4999999999999992
 24
-0.5
 14
-0.5000000000000009
 24
-0.5
 14
-0.5000000000000009
 24
0.5
 14
0.4999999999999992
 24
0.5
  0
LINE
  5
1BA
330
1F
100
AcDbEntity
  8
0
  6
Continuous
370
    50
100
AcDbLine
 10
-2674.10555544768
 20
887.5224638114972
 30
0.0
 11
-2674.10555544768
 21
1180.405072009647
 31
0.0
  0
LINE
  5
1BB
330
1F
100
AcDbEntity
  8
@__WIDOCZNE
  6
Przerywana gęsta
370
    13
100
AcDbLine
 10
-2180.137985741418
 20
895.4651655576567
 30
0.0
 11
-2180.137985741417
 21
1067.398435551839
 31
0.0
  0
LINE
  5
1BC
330
1F
100
AcDbEntity
  8
@__WIDOCZNE
  6
Przerywana gęsta
370
    13
100
AcDbLine
 10
-2706.625608063332
 20
895.4651655576569
 30
0.0
 11
-2706.625608063332
 21
1067.398435551839
 31
0.0
  0
LINE
  5
1BD
330
1F
100
AcDbEntity
  8
@__WIDOCZNE
  6
Przerywana gęsta
370
    13
100
AcDbLine
 10
-2443.625608063332
 20
895.3965996091314
 30
0.0
 11
-2706.625608063332
 21
895.3965996091318
 31
0.0
  0
LINE
  5
1BE
330
1F
100
AcDbEntity
  8
@__WIDOCZNE
  6
Przerywana gęsta
370
    13
100
AcDbLine
 10
-2443.625608063332
 20
895.3965996091314
 30
0.0
 11
-2180.625608063332
 21
895.3965996091318
 31
0.0
  0
VIEWPORT
  5
5D
330
1B
100
AcDbEntity
 67
     1
  8
0
  6
Continuous
370
     0
100
AcDbViewport
 10
148.4644680255703
 20
105.0321695459852
 30
0.0
 40
356.4852767386313
 41
252.0772069103645
 68
     1
 69
     1
 12
148.4644680255703
 22
105.0321695459852
 13
0.0
 23
0.0
 14
0.5
 24
0.5
 15
0.0
 25
0.0
 16
0.0
 26
0.0
 36
1.0
 17
0.0
 27
0.0
 37
0.0
 42
50.0
 43
0.0
 44
0.0
 45
252.0772069103645
 50
0.0
 51
0.0
 72
   100
 90
   557152
  1

281
     0
 71
     1
 74
     0
110
0.0
120
0.0
130
0.0
111
1.0
121
0.0
131
0.0
112
0.0
122
1.0
132
0.0
 79
     0
146
0.0
170
     0
  0
INSERT
  5
1C5
102
{ACAD_XDICTIONARY
360
1C6
102
}
330
1B
100
AcDbEntity
 67
     1
  8
0
370
    13
100
AcDbBlockReference
  2
Rysunek_1
 10
0.0
 20
0.0
 30
0.0
  0
VIEWPORT
  5
1C9
330
1B
100
AcDbEntity
 67
     1
  8
NonPlottable_0
  6
Continuous
 62
    65
370
    20
100
AcDbViewport
 10
148.4644680255703
 20
105.0321695459852
 30
0.0
 40
297.0710639488594
 41
210.0643390919704
 68
     2
 69
     2
 12
0.0
 22
0.0
 13
0.0
 23
0.0
 14
0.5
 24
0.5
 15
0.0
 25
0.0
 16
0.0
 26
0.0
 36
1.0
 17
-2452.6951314935
 27
1036.459398182411
 37
0.0
 42
50.0
 43
0.0
 44
0.0
 45
420.1286781839408
 50
0.0
 51
0.0
 72
   100
 90
   622688
340
1CB
  1

281
     0
 71
     1
 74
     0
110
0.0
120
0.0
130
0.0
111
1.0
121
0.0
131
0.0
112
0.0
122
1.0
132
0.0
 79
     0
146
0.0
170
     0
  0
LWPOLYLINE
  5
1CB
102
{ACAD_REACTORS
330
1C9
102
}
330
1B
100
AcDbEntity
 67
     1
  8
NonPlottable_0
  6
Continuous
 62
    65
370
    20
100
AcDbPolyline
 90
        4
 70
   129
 43
0.0
 10
-0.071063948859405
 20
0.0
 10
297.0
 20
0.0
 10
297.0
 20
210.0643390919704
 10
-0.071063948859405
 20
210.0643390919704
  0
ENDSEC
  0
SECTION
  2
OBJECTS
  0
DICTIONARY
  5
C
330
0
100
AcDbDictionary
281
     1
  3
ACAD_GROUP
350
D
  3
ACAD_LAYOUT
350
1A
  3
ACAD_MLEADERSTYLE
350
1D2
  3
ACAD_MLINESTYLE
350
17
  3
ACAD_PLOTSETTINGS
350
19
  3
ACAD_PLOTSTYLENAME
350
E
  3
ACAD_SCALELIST
350
3B
  3
ACAD_TABLESTYLE
350
1D1
  3
ACAD_VISUALSTYLE
350
2A
  3
WATERMARKS
350
1CF
  0
DICTIONARY
  5
1C6
330
1C5
100
AcDbDictionary
280
     1
281
     1
  3
ACAD_FILTER
360
1C7
  0
DICTIONARY
  5
D
102
{ACAD_REACTORS
330
C
102
}
330
C
100
AcDbDictionary
281
     1
  0
DICTIONARY
  5
1A
102
{ACAD_REACTORS
330
C
102
}
330
C
100
AcDbDictionary
281
     1
  3
02.04.2-20 ŚCIANA+PIWICA 08.01.
350
1E
  3
Layout2
350
26
  3
Model
350
22
  0
DICTIONARY
  5
1D2
102
{ACAD_REACTORS
330
C
102
}
330
C
100
AcDbDictionary
281
     1
  0
DICTIONARY
  5
17
102
{ACAD_REACTORS
330
C
102
}
330
C
100
AcDbDictionary
281
     1
  3
Standard
350
18
  0
DICTIONARY
  5
19
102
{ACAD_REACTORS
330
C
102
}
330
C
100
AcDbDictionary
281
     1
  0
ACDBDICTIONARYWDFLT
  5
E
102
{ACAD_REACTORS
330
C
102
}
330
C
100
AcDbDictionary
281
     1
  3
Normal
350
F
100
AcDbDictionaryWithDefault
340
F
  0
DICTIONARY
  5
3B
102
{ACAD_REACTORS
330
C
102
}
330
C
100
AcDbDictionary
281
     1
  3
A0
350
3C
  3
A1
350
3D
  3
A2
350
3E
  3
A3
350
3F
  3
A4
350
40
  3
A5
350
41
  3
A6
350
42
  3
A7
350
43
  3
A8
350
44
  3
A9
350
45
  3
B0
350
46
  3
B1
350
47
  3
B2
350
48
  3
B3
350
49
  3
B4
350
4A
  3
B5
350
4B
  3
B6
350
4C
  3
B7
350
4D
  3
B8
350
4E
  3
B9
350
4F
  3
C0
350
50
  3
C1
350
51
  3
C2
350
52
  3
C3
350
53
  3
C4
350
54
  3
C5
350
55
  3
C6
350
56
  3
C7
350
57
  3
C8
350
58
  3
C9
350
59
  3
D0
350
5A
  3
D1
350
5B
  3
D2
350
5C
  0
DICTIONARY
  5
1D1
102
{ACAD_REACTORS
330
C
102
}
330
C
100
AcDbDictionary
281
     1
  0
DICTIONARY
  5
2A
102
{ACAD_REACTORS
330
C
102
}
330
C
100
AcDbDictionary
281
     1
  3
2dWireframe
350
2F
  3
3D Hidden
350
31
  3
3dWireframe
350
30
  3
Basic
350
32
  3
Brighten
350
36
  3
ColorChange
350
3A
  3
Conceptual
350
34
  3
Dim
350
35
  3
Facepattern
350
39
  3
Flat
350
2B
  3
FlatWithEdges
350
2C
  3
Gouraud
350
2D
  3
GouraudWithEdges
350
2E
  3
Linepattern
350
38
  3
Realistic
350
33
  3
Thicken
350
37
  0
DICTIONARY
  5
1CF
102
{ACAD_REACTORS
330
C
102
}
330
C
100
AcDbDictionary
281
     1
  3
AC_WATERMARK
350
1D0
  0
DICTIONARY
  5
1C7
102
{ACAD_REACTORS
330
1C6
102
}
330
1C6
100
AcDbDictionary
280
     1
281
     1
  3
SPATIAL
360
1C8
  0
LAYOUT
  5
1E
102
{ACAD_REACTORS
330
1A
102
}
330
1A
100
AcDbPlotSettings
  1

  2
none_device
  4

  6

 40
0.0
 41
0.0
 42
0.0
 43
0.0
 44
297.0
 45
210.0
 46
0.0
 47
0.0
 48
0.0
 49
0.0
140
0.0
141
0.0
142
1.0
143
1.0
 70
   688
 72
     1
 73
     0
 74
     5
  7

 75
    16
 76
     0
 77
     2
 78
   300
147
1.0
148
0.0
149
0.0
100
AcDbLayout
  1
02.04.2-20 ŚCIANA+PIWICA 08.01.
 70
     0
 71
     1
 10
-0.071063948859405
 20
0.0
 11
297.0
 21
210.0643390919704
 12
0.0
 22
0.0
 32
0.0
 14
-0.071063948859405
 24
0.0
 34
0.0
 15
297.0
 25
210.0643390919704
 35
0.0
146
0.0
 13
0.0
 23
0.0
 33
0.0
 16
1.0
 26
0.0
 36
0.0
 17
0.0
 27
1.0
 37
0.0
 76
     0
330
1B
331
5D
  0
LAYOUT
  5
26
102
{ACAD_REACTORS
330
1A
102
}
330
1A
100
AcDbPlotSettings
  1

  2
none_device
  4

  6

 40
0.0
 41
0.0
 42
0.0
 43
0.0
 44
0.0
 45
0.0
 46
0.0
 47
0.0
 48
0.0
 49
0.0
140
0.0
141
0.0
142
1.0
143
1.0
 70
   688
 72
     0
 73
     0
 74
     5
  7

 75
    16
 76
     0
 77
     2
 78
   300
147
1.0
148
0.0
149
0.0
100
AcDbLayout
  1
Layout2
 70
     1
 71
     2
 10
0.0
 20
0.0
 11
0.0
 21
0.0
 12
0.0
 22
0.0
 32
0.0
 14
0.0
 24
0.0
 34
0.0
 15
0.0
 25
0.0
 35
0.0
146
0.0
 13
0.0
 23
0.0
 33
0.0
 16
1.0
 26
0.0
 36
0.0
 17
0.0
 27
1.0
 37
0.0
 76
     0
330
23
  0
LAYOUT
  5
22
102
{ACAD_REACTORS
330
1A
102
}
330
1A
100
AcDbPlotSettings
  1

  2
none_device
  4

  6

 40
0.0
 41
0.0
 42
0.0
 43
0.0
 44
0.0
 45
0.0
 46
0.0
 47
0.0
 48
0.0
 49
0.0
140
0.0
141
0.0
142
1.0
143
1.0
 70
  1712
 72
     0
 73
     0
 74
     0
  7

 75
     0
 76
     0
 77
     2
 78
   300
147
1.0
148
0.0
149
0.0
100
AcDbLayout
  1
Model
 70
     1
 71
     0
 10
0.0
 20
0.0
 11
12.0
 21
9.0
 12
0.0
 22
0.0
 32
0.0
 14
1.000000000000000E+20
 24
1.000000000000000E+20
 34
1.000000000000000E+20
 15
-1.000000000000000E+20
 25
-1.000000000000000E+20
 35
-1.000000000000000E+20
146
0.0
 13
0.0
 23
0.0
 33
0.0
 16
1.0
 26
0.0
 36
0.0
 17
0.0
 27
1.0
 37
0.0
 76
     0
330
1F
331
29
  0
MLINESTYLE
  5
18
102
{ACAD_REACTORS
330
17
102
}
330
17
100
AcDbMlineStyle
  2
Standard
 70
     0
  3

 62
   256
 51
90.0
 52
90.0
 71
     2
 49
0.5
 62
   256
  6
BYLAYER
 49
-0.5
 62
   256
  6
BYLAYER
  0
ACDBPLACEHOLDER
  5
F
102
{ACAD_REACTORS
330
E
102
}
330
E
  0
SCALE
  5
3C
102
{ACAD_REACTORS
330
3B
102
}
330
3B
100
AcDbScale
 70
     0
300
1:1
140
1.0
141
1.0
290
     1
  0
SCALE
  5
3D
102
{ACAD_REACTORS
330
3B
102
}
330
3B
100
AcDbScale
 70
     0
300
1:2
140
1.0
141
2.0
290
     0
  0
SCALE
  5
3E
102
{ACAD_REACTORS
330
3B
102
}
330
3B
100
AcDbScale
 70
     0
300
1:4
140
1.0
141
4.0
290
     0
  0
SCALE
  5
3F
102
{ACAD_REACTORS
330
3B
102
}
330
3B
100
AcDbScale
 70
     0
300
1:5
140
1.0
141
5.0
290
     0
  0
SCALE
  5
40
102
{ACAD_REACTORS
330
3B
102
}
330
3B
100
AcDbScale
 70
     0
300
1:8
140
1.0
141
8.0
290
     0
  0
SCALE
  5
41
102
{ACAD_REACTORS
330
3B
102
}
330
3B
100
AcDbScale
 70
     0
300
1:10
140
1.0
141
10.0
290
     0
  0
SCALE
  5
42
102
{ACAD_REACTORS
330
3B
102
}
330
3B
100
AcDbScale
 70
     0
300
1:16
140
1.0
141
16.0
290
     0
  0
SCALE
  5
43
102
{ACAD_REACTORS
330
3B
102
}
330
3B
100
AcDbScale
 70
     0
300
1:20
140
1.0
141
20.0
290
     0
  0
SCALE
  5
44
102
{ACAD_REACTORS
330
3B
102
}
330
3B
100
AcDbScale
 70
     0
300
1:30
140
1.0
141
30.0
290
     0
  0
SCALE
  5
45
102
{ACAD_REACTORS
330
3B
102
}
330
3B
100
AcDbScale
 70
     0
300
1:40
140
1.0
141
40.0
290
     0
  0
SCALE
  5
46
102
{ACAD_REACTORS
330
3B
102
}
330
3B
100
AcDbScale
 70
     0
300
1:50
140
1.0
141
50.0
290
     0
  0
SCALE
  5
47
102
{ACAD_REACTORS
330
3B
102
}
330
3B
100
AcDbScale
 70
     0
300
1:100
140
1.0
141
100.0
290
     0
  0
SCALE
  5
48
102
{ACAD_REACTORS
330
3B
102
}
330
3B
100
AcDbScale
 70
     0
300
2:1
140
2.0
141
1.0
290
     0
  0
SCALE
  5
49
102
{ACAD_REACTORS
330
3B
102
}
330
3B
100
AcDbScale
 70
     0
300
4:1
140
4.0
141
1.0
290
     0
  0
SCALE
  5
4A
102
{ACAD_REACTORS
330
3B
102
}
330
3B
100
AcDbScale
 70
     0
300
8:1
140
8.0
141
1.0
290
     0
  0
SCALE
  5
4B
102
{ACAD_REACTORS
330
3B
102
}
330
3B
100
AcDbScale
 70
     0
300
10:1
140
10.0
141
1.0
290
     0
  0
SCALE
  5
4C
102
{ACAD_REACTORS
330
3B
102
}
330
3B
100
AcDbScale
 70
     0
300
100:1
140
100.0
141
1.0
290
     0
  0
SCALE
  5
4D
102
{ACAD_REACTORS
330
3B
102
}
330
3B
100
AcDbScale
 70
     0
300
1/128" = 1'-0"
140
0.0078125
141
12.0
290
     0
  0
SCALE
  5
4E
102
{ACAD_REACTORS
330
3B
102
}
330
3B
100
AcDbScale
 70
     0
300
1/64" = 1'-0"
140
0.015625
141
12.0
290
     0
  0
SCALE
  5
4F
102
{ACAD_REACTORS
330
3B
102
}
330
3B
100
AcDbScale
 70
     0
300
1/32" = 1'-0"
140
0.03125
141
12.0
290
     0
  0
SCALE
  5
50
102
{ACAD_REACTORS
330
3B
102
}
330
3B
100
AcDbScale
 70
     0
300
1/16" = 1'-0"
140
0.0625
141
12.0
290
     0
  0
SCALE
  5
51
102
{ACAD_REACTORS
330
3B
102
}
330
3B
100
AcDbScale
 70
     0
300
3/32" = 1'-0"
140
0.09375
141
12.0
290
     0
  0
SCALE
  5
52
102
{ACAD_REACTORS
330
3B
102
}
330
3B
100
AcDbScale
 70
     0
300
1/8" = 1'-0"
140
0.125
141
12.0
290
     0
  0
SCALE
  5
53
102
{ACAD_REACTORS
330
3B
102
}
330
3B
100
AcDbScale
 70
     0
300
3/16" = 1'-0"
140
0.1875
141
12.0
290
     0
  0
SCALE
  5
54
102
{ACAD_REACTORS
330
3B
102
}
330
3B
100
AcDbScale
 70
     0
300
1/4" = 1'-0"
140
0.25
141
12.0
290
     0
  0
SCALE
  5
55
102
{ACAD_REACTORS
330
3B
102
}
330
3B
100
AcDbScale
 70
     0
300
3/8" = 1'-0"
140
0.375
141
12.0
290
     0
  0
SCALE
  5
56
102
{ACAD_REACTORS
330
3B
102
}
330
3B
100
AcDbScale
 70
     0
300
1/2" = 1'-0"
140
0.5
141
12.0
290
     0
  0
SCALE
  5
57
102
{ACAD_REACTORS
330
3B
102
}
330
3B
100
AcDbScale
 70
     0
300
3/4" = 1'-0"
140
0.75
141
12.0
290
     0
  0
SCALE
  5
58
102
{ACAD_REACTORS
330
3B
102
}
330
3B
100
AcDbScale
 70
     0
300
1" = 1'-0"
140
1.0
141
12.0
290
     0
  0
SCALE
  5
59
102
{ACAD_REACTORS
330
3B
102
}
330
3B
100
AcDbScale
 70
     0
300
1-1/2" = 1'-0"
140
1.5
141
12.0
290
     0
  0
SCALE
  5
5A
102
{ACAD_REACTORS
330
3B
102
}
330
3B
100
AcDbScale
 70
     0
300
3" = 1'-0"
140
3.0
141
12.0
290
     0
  0
SCALE
  5
5B
102
{ACAD_REACTORS
330
3B
102
}
330
3B
100
AcDbScale
 70
     0
300
6" = 1'-0"
140
6.0
141
12.0
290
     0
  0
SCALE
  5
5C
102
{ACAD_REACTORS
330
3B
102
}
330
3B
100
AcDbScale
 70
     0
300
1'-0" = 1'-0"
140
12.0
141
12.0
290
     0
  0
VISUALSTYLE
  5
2F
102
{ACAD_REACTORS
330
2A
102
}
330
2A
100
AcDbVisualStyle
  2
2dWireframe
 70
     4
 71
     0
 72
     2
 73
     0
 90
        0
 40
-0.6
 41
-30.0
 62
     5
 63
     7
421
 16777215
 74
     1
 91
        4
 64
     7
 65
   257
 75
     1
175
     1
 42
1.0
 92
        0
 66
   257
 43
1.0
 76
     1
 77
     6
 78
     2
 67
     7
 79
     5
170
     0
171
     0
290
     0
174
     0
 93
        1
 44
0.0
173
     0
291
     0
 45
0.0
1001
ACAD
1000
AcDbSavedByObjectVersion
1070
     0
  0
VISUALSTYLE
  5
31
102
{ACAD_REACTORS
330
2A
102
}
330
2A
100
AcDbVisualStyle
  2
3D Hidden
 70
     6
 71
     1
 72
     2
 73
     2
 90
        0
 40
-0.6
 41
-30.0
 62
     5
 63
     7
421
 16777215
 74
     2
 91
        2
 64
     7
 65
   257
 75
     2
175
     1
 42
40.0
 92
        0
 66
   257
 43
1.0
 76
     1
 77
     6
 78
     2
 67
     7
 79
     3
170
     0
171
     0
290
     0
174
     0
 93
        1
 44
0.0
173
     0
291
     0
 45
0.0
1001
ACAD
1000
AcDbSavedByObjectVersion
1070
     0
  0
VISUALSTYLE
  5
30
102
{ACAD_REACTORS
330
2A
102
}
330
2A
100
AcDbVisualStyle
  2
3dWireframe
 70
     5
 71
     0
 72
     2
 73
     0
 90
        0
 40
-0.6
 41
-30.0
 62
     5
 63
     7
421
 16777215
 74
     1
 91
        4
 64
     7
 65
   257
 75
     1
175
     1
 42
1.0
 92
        0
 66
   257
 43
1.0
 76
     1
 77
     6
 78
     2
 67
     7
 79
     5
170
     0
171
     0
290
     0
174
     0
 93
        1
 44
0.0
173
     0
291
     0
 45
0.0
1001
ACAD
1000
AcDbSavedByObjectVersion
1070
     0
  0
VISUALSTYLE
  5
32
102
{ACAD_REACTORS
330
2A
102
}
330
2A
100
AcDbVisualStyle
  2
Basic
 70
     7
 71
     1
 72
     0
 73
     1
 90
        0
 40
-0.6
 41
-30.0
 62
     5
 63
     7
421
 16777215
 74
     0
 91
        4
 64
     7
 65
   257
 75
     1
175
     1
 42
1.0
 92
        8
 66
     7
 43
1.0
 76
     1
 77
     6
 78
     2
 67
     7
 79
     5
170
     0
171
     0
290
     0
174
     0
 93
        1
 44
0.0
173
     0
291
     1
 45
0.0
1001
ACAD
1000
AcDbSavedByObjectVersion
1070
     0
  0
VISUALSTYLE
  5
36
102
{ACAD_REACTORS
330
2A
102
}
330
2A
100
AcDbVisualStyle
  2
Brighten
 70
    12
 71
     2
 72
     2
 73
     0
 90
        0
 40
-0.6
 41
-30.0
 62
     5
 63
     7
421
 16777215
 74
     1
 91
        4
 64
     7
 65
   257
 75
     1
175
     1
 42
1.0
 92
        8
 66
     7
 43
1.0
 76
     1
 77
     6
 78
     2
 67
     7
 79
     5
170
     0
171
     0
290
     0
174
     0
 93
        1
 44
50.0
173
     0
291
     1
 45
0.0
1001
ACAD
1000
AcDbSavedByObjectVersion
1070
     0
  0
VISUALSTYLE
  5
3A
102
{ACAD_REACTORS
330
2A
102
}
330
2A
100
AcDbVisualStyle
  2
ColorChange
 70
    16
 71
     2
 72
     2
 73
     3
 90
        0
 40
-0.6
 41
-30.0
 62
     5
 63
     8
421
  8421504
 74
     1
 91
        4
 64
     7
 65
   257
 75
     1
175
     1
 42
1.0
 92
        8
 66
     8
424
  8421504
 43
1.0
 76
     1
 77
     6
 78
     2
 67
     7
 79
     5
170
     0
171
     0
290
     0
174
     0
 93
        1
 44
0.0
173
     0
291
     1
 45
0.0
1001
ACAD
1000
AcDbSavedByObjectVersion
1070
     0
  0
VISUALSTYLE
  5
34
102
{ACAD_REACTORS
330
2A
102
}
330
2A
100
AcDbVisualStyle
  2
Conceptual
 70
     9
 71
     3
 72
     2
 73
     0
 90
        0
 40
-0.6
 41
-30.0
 62
     5
 63
     7
421
 16777215
 74
     2
 91
        2
 64
     7
 65
   257
 75
     1
175
     1
 42
40.0
 92
        8
 66
     7
 43
1.0
 76
     1
 77
     6
 78
     2
 67
     7
 79
     3
170
     0
171
     0
290
     0
174
     0
 93
        1
 44
0.0
173
     0
291
     0
 45
0.0
1001
ACAD
1000
AcDbSavedByObjectVersion
1070
     0
  0
VISUALSTYLE
  5
35
102
{ACAD_REACTORS
330
2A
102
}
330
2A
100
AcDbVisualStyle
  2
Dim
 70
    11
 71
     2
 72
     2
 73
     0
 90
        0
 40
-0.6
 41
-30.0
 62
     5
 63
     7
421
 16777215
 74
     1
 91
        4
 64
     7
 65
   257
 75
     1
175
     1
 42
1.0
 92
        8
 66
     7
 43
1.0
 76
     1
 77
     6
 78
     2
 67
     7
 79
     5
170
     0
171
     0
290
     0
174
     0
 93
        1
 44
-50.0
173
     0
291
     1
 45
0.0
1001
ACAD
1000
AcDbSavedByObjectVersion
1070
     0
  0
VISUALSTYLE
  5
39
102
{ACAD_REACTORS
330
2A
102
}
330
2A
100
AcDbVisualStyle
  2
Facepattern
 70
    15
 71
     2
 72
     2
 73
     0
 90
        0
 40
-0.6
 41
-30.0
 62
     5
 63
     7
421
 16777215
 74
     1
 91
        4
 64
     7
 65
   257
 75
     1
175
     1
 42
1.0
 92
        8
 66
     7
 43
1.0
 76
     1
 77
     6
 78
     2
 67
     7
 79
     5
170
     0
171
     0
290
     0
174
     0
 93
        1
 44
0.0
173
     0
291
     1
 45
0.0
1001
ACAD
1000
AcDbSavedByObjectVersion
1070
     0
  0
VISUALSTYLE
  5
2B
102
{ACAD_REACTORS
330
2A
102
}
330
2A
100
AcDbVisualStyle
  2
Flat
 70
     0
 71
     2
 72
     1
 73
     1
 90
        2
 40
-0.6
 41
30.0
 62
     5
 63
     7
421
 16777215
 74
     0
 91
        4
 64
     7
 65
   257
 75
     1
175
     1
 42
1.0
 92
        8
 66
     7
 43
1.0
 76
     1
 77
     6
 78
     2
 67
     7
 79
     5
170
     0
171
     0
290
     0
174
     0
 93
       13
 44
0.0
173
     0
291
     1
 45
0.0
1001
ACAD
1000
AcDbSavedByObjectVersion
1070
     0
  0
VISUALSTYLE
  5
2C
102
{ACAD_REACTORS
330
2A
102
}
330
2A
100
AcDbVisualStyle
  2
FlatWithEdges
 70
     1
 71
     2
 72
     1
 73
     1
 90
        2
 40
-0.6
 41
30.0
 62
     5
 63
     7
421
 16777215
 74
     1
 91
        4
 64
     7
 65
   257
 75
     1
175
     1
 42
1.0
 92
        0
 66
   257
 43
1.0
 76
     1
 77
     6
 78
     2
 67
     7
 79
     5
170
     0
171
     0
290
     0
174
     0
 93
       13
 44
0.0
173
     0
291
     1
 45
0.0
1001
ACAD
1000
AcDbSavedByObjectVersion
1070
     0
  0
VISUALSTYLE
  5
2D
102
{ACAD_REACTORS
330
2A
102
}
330
2A
100
AcDbVisualStyle
  2
Gouraud
 70
     2
 71
     2
 72
     2
 73
     1
 90
        2
 40
-0.6
 41
30.0
 62
     5
 63
     7
421
 16777215
 74
     0
 91
        4
 64
     7
 65
   257
 75
     1
175
     1
 42
1.0
 92
        0
 66
     7
 43
1.0
 76
     1
 77
     6
 78
     2
 67
     7
 79
     5
170
     0
171
     0
290
     0
174
     0
 93
       13
 44
0.0
173
     0
291
     1
 45
0.0
1001
ACAD
1000
AcDbSavedByObjectVersion
1070
     0
  0
VISUALSTYLE
  5
2E
102
{ACAD_REACTORS
330
2A
102
}
330
2A
100
AcDbVisualStyle
  2
GouraudWithEdges
 70
     3
 71
     2
 72
     2
 73
     1
 90
        2
 40
-0.6
 41
30.0
 62
     5
 63
     7
421
 16777215
 74
     1
 91
        4
 64
     7
 65
   257
 75
     1
175
     1
 42
1.0
 92
        0
 66
   257
 43
1.0
 76
     1
 77
     6
 78
     2
 67
     7
 79
     5
170
     0
171
     0
290
     0
174
     0
 93
       13
 44
0.0
173
     0
291
     1
 45
0.0
1001
ACAD
1000
AcDbSavedByObjectVersion
1070
     0
  0
VISUALSTYLE
  5
38
102
{ACAD_REACTORS
330
2A
102
}
330
2A
100
AcDbVisualStyle
  2
Linepattern
 70
    14
 71
     2
 72
     2
 73
     0
 90
        0
 40
-0.6
 41
-30.0
 62
     5
 63
     7
421
 16777215
 74
     1
 91
        4
 64
     7
 65
   257
 75
     7
175
     7
 42
1.0
 92
        8
 66
     7
 43
1.0
 76
     1
 77
     6
 78
     2
 67
     7
 79
     5
170
     0
171
     0
290
     0
174
     0
 93
        1
 44
0.0
173
     0
291
     1
 45
0.0
1001
ACAD
1000
AcDbSavedByObjectVersion
1070
     0
  0
VISUALSTYLE
  5
33
102
{ACAD_REACTORS
330
2A
102
}
330
2A
100
AcDbVisualStyle
  2
Realistic
 70
     8
 71
     2
 72
     2
 73
     0
 90
        0
 40
-0.6
 41
-30.0
 62
     5
 63
     7
421
 16777215
 74
     1
 91
        0
 64
     7
 65
   257
 75
     1
175
     1
 42
1.0
 92
        8
 66
     8
424
  7895160
 43
1.0
 76
     1
 77
     6
 78
     2
 67
     7
 79
     5
170
     0
171
     0
290
     0
174
     0
 93
       13
 44
0.0
173
     0
291
     0
 45
0.0
1001
ACAD
1000
AcDbSavedByObjectVersion
1070
     0
  0
VISUALSTYLE
  5
37
102
{ACAD_REACTORS
330
2A
102
}
330
2A
100
AcDbVisualStyle
  2
Thicken
 70
    13
 71
     2
 72
     2
 73
     0
 90
        0
 40
-0.6
 41
-30.0
 62
     5
 63
     7
421
 16777215
 74
     1
 91
        4
 64
     7
 65
   257
 75
     1
175
     1
 42
1.0
 92
       12
 66
     7
 43
1.0
 76
     1
 77
     6
 78
     2
 67
     7
 79
     5
170
     0
171
     0
290
     0
174
     0
 93
        1
 44
0.0
173
     0
291
     1
 45
0.0
1001
ACAD
1000
AcDbSavedByObjectVersion
1070
     0
  0
XRECORD
  5
1D0
102
{ACAD_REACTORS
330
1CF
102
}
330
1CF
100
AcDbXrecord
280
     1
1000
Ten plik DWG został utworzony w programie ArchiCAD(TM)®
  0
SPATIAL_FILTER
  5
1C8
102
{ACAD_REACTORS
330
1C7
102
}
330
1C7
100
AcDbFilter
100
AcDbSpatialFilter
 70
     4
 10
0.0
 20
0.0
 10
297.0
 20
0.0
 10
297.0
 20
210.0
 10
0.0
 20
210.0
210
0.0
220
0.0
230
1.0
 11
0.0
 21
0.0
 31
0.0
 71
     1
 72
     0
 73
     0
 40
1.0
 40
0.0
 40
0.0
 40
0.0
 40
0.0
 40
1.0
 40
0.0
 40
0.0
 40
0.0
 40
0.0
 40
1.0
 40
0.0
 40
1.0
 40
0.0
 40
0.0
 40
0.0
 40
0.0
 40
1.0
 40
0.0
 40
0.0
 40
0.0
 40
0.0
 40
1.0
 40
0.0
  0
ENDSEC
  0
EOF
