  0
SECTION
  2
HEADER
  9
$ACADVER
  1
AC1018
  9
$ACADMAINTVER
 70
     0
  9
$DWGCODEPAGE
  3
ANSI_1250
  9
$INSBASE
 10
0.0
 20
0.0
 30
0.0
  9
$EXTMIN
 10
1.000000000000000E+20
 20
1.000000000000000E+20
 30
1.000000000000000E+20
  9
$EXTMAX
 10
-1.000000000000000E+20
 20
-1.000000000000000E+20
 30
-1.000000000000000E+20
  9
$LIMMIN
 10
0.0
 20
0.0
  9
$LIMMAX
 10
12.0
 20
9.0
  9
$ORTHOMODE
 70
     0
  9
$REGENMODE
 70
     1
  9
$FILLMODE
 70
     1
  9
$QTEXTMODE
 70
     0
  9
$MIRRTEXT
 70
     1
  9
$LTSCALE
 40
1.0
  9
$ATTMODE
 70
     1
  9
$TEXTSIZE
 40
0.2
  9
$TRACEWID
 40
0.05
  9
$TEXTSTYLE
  7
Standard
  9
$CLAYER
  8
0
  9
$CELTYPE
  6
ByLayer
  9
$CECOLOR
 62
   256
  9
$CELTSCALE
 40
1.0
  9
$DISPSILH
 70
     0
  9
$DIMSCALE
 40
1.0
  9
$DIMASZ
 40
0.18
  9
$DIMEXO
 40
0.0625
  9
$DIMDLI
 40
0.38
  9
$DIMRND
 40
0.0
  9
$DIMDLE
 40
0.0
  9
$DIMEXE
 40
0.18
  9
$DIMTP
 40
0.0
  9
$DIMTM
 40
0.0
  9
$DIMTXT
 40
0.18
  9
$DIMCEN
 40
0.09
  9
$DIMTSZ
 40
0.0
  9
$DIMTOL
 70
     0
  9
$DIMLIM
 70
     0
  9
$DIMTIH
 70
     1
  9
$DIMTOH
 70
     1
  9
$DIMSE1
 70
     0
  9
$DIMSE2
 70
     0
  9
$DIMTAD
 70
     0
  9
$DIMZIN
 70
     0
  9
$DIMBLK
  1

  9
$DIMASO
 70
     1
  9
$DIMSHO
 70
     1
  9
$DIMPOST
  1

  9
$DIMAPOST
  1

  9
$DIMALT
 70
     0
  9
$DIMALTD
 70
     2
  9
$DIMALTF
 40
25.4
  9
$DIMLFAC
 40
1.0
  9
$DIMTOFL
 70
     0
  9
$DIMTVP
 40
0.0
  9
$DIMTIX
 70
     0
  9
$DIMSOXD
 70
     0
  9
$DIMSAH
 70
     0
  9
$DIMBLK1
  1

  9
$DIMBLK2
  1

  9
$DIMSTYLE
  2
Standard
  9
$DIMCLRD
 70
     0
  9
$DIMCLRE
 70
     0
  9
$DIMCLRT
 70
     0
  9
$DIMTFAC
 40
1.0
  9
$DIMGAP
 40
0.09
  9
$DIMJUST
 70
     0
  9
$DIMSD1
 70
     0
  9
$DIMSD2
 70
     0
  9
$DIMTOLJ
 70
     1
  9
$DIMTZIN
 70
     0
  9
$DIMALTZ
 70
     0
  9
$DIMALTTZ
 70
     0
  9
$DIMUPT
 70
     0
  9
$DIMDEC
 70
     4
  9
$DIMTDEC
 70
     4
  9
$DIMALTU
 70
     2
  9
$DIMALTTD
 70
     2
  9
$DIMTXSTY
  7
Standard
  9
$DIMAUNIT
 70
     0
  9
$DIMADEC
 70
     0
  9
$DIMALTRND
 40
0.0
  9
$DIMAZIN
 70
     0
  9
$DIMDSEP
 70
    46
  9
$DIMATFIT
 70
     3
  9
$DIMFRAC
 70
     0
  9
$DIMLDRBLK
  1

  9
$DIMLUNIT
 70
     2
  9
$DIMLWD
 70
    -2
  9
$DIMLWE
 70
    -2
  9
$DIMTMOVE
 70
     0
  9
$LUNITS
 70
     2
  9
$LUPREC
 70
     4
  9
$SKETCHINC
 40
0.1
  9
$FILLETRAD
 40
0.5
  9
$AUNITS
 70
     0
  9
$AUPREC
 70
     0
  9
$MENU
  1
.
  9
$ELEVATION
 40
0.0
  9
$PELEVATION
 40
0.0
  9
$THICKNESS
 40
0.0
  9
$LIMCHECK
 70
     0
  9
$CHAMFERA
 40
0.5
  9
$CHAMFERB
 40
0.5
  9
$CHAMFERC
 40
1.0
  9
$CHAMFERD
 40
0.0
  9
$SKPOLY
 70
     0
  9
$TDCREATE
 40
2459892.605990394
  9
$TDUCREATE
 40
2459892.564323727
  9
$TDUPDATE
 40
2459892.605990405
  9
$TDUUPDATE
 40
2459892.564323738
  9
$TDINDWG
 40
0.0000000116
  9
$TDUSRTIMER
 40
0.0000000116
  9
$USRTIMER
 70
     1
  9
$ANGBASE
 50
0.0
  9
$ANGDIR
 70
     0
  9
$PDMODE
 70
     0
  9
$PDSIZE
 40
0.0
  9
$PLINEWID
 40
0.0
  9
$SPLFRAME
 70
     0
  9
$SPLINETYPE
 70
     6
  9
$SPLINESEGS
 70
     8
  9
$HANDSEED
  5
17E
  9
$SURFTAB1
 70
     6
  9
$SURFTAB2
 70
     6
  9
$SURFTYPE
 70
     6
  9
$SURFU
 70
     6
  9
$SURFV
 70
     6
  9
$UCSBASE
  2

  9
$UCSNAME
  2

  9
$UCSORG
 10
0.0
 20
0.0
 30
0.0
  9
$UCSXDIR
 10
1.0
 20
0.0
 30
0.0
  9
$UCSYDIR
 10
0.0
 20
1.0
 30
0.0
  9
$UCSORTHOREF
  2

  9
$UCSORTHOVIEW
 70
     0
  9
$UCSORGTOP
 10
0.0
 20
0.0
 30
0.0
  9
$UCSORGBOTTOM
 10
0.0
 20
0.0
 30
0.0
  9
$UCSORGLEFT
 10
0.0
 20
0.0
 30
0.0
  9
$UCSORGRIGHT
 10
0.0
 20
0.0
 30
0.0
  9
$UCSORGFRONT
 10
0.0
 20
0.0
 30
0.0
  9
$UCSORGBACK
 10
0.0
 20
0.0
 30
0.0
  9
$PUCSBASE
  2

  9
$PUCSNAME
  2

  9
$PUCSORG
 10
0.0
 20
0.0
 30
0.0
  9
$PUCSXDIR
 10
1.0
 20
0.0
 30
0.0
  9
$PUCSYDIR
 10
0.0
 20
1.0
 30
0.0
  9
$PUCSORTHOREF
  2

  9
$PUCSORTHOVIEW
 70
     0
  9
$PUCSORGTOP
 10
0.0
 20
0.0
 30
0.0
  9
$PUCSORGBOTTOM
 10
0.0
 20
0.0
 30
0.0
  9
$PUCSORGLEFT
 10
0.0
 20
0.0
 30
0.0
  9
$PUCSORGRIGHT
 10
0.0
 20
0.0
 30
0.0
  9
$PUCSORGFRONT
 10
0.0
 20
0.0
 30
0.0
  9
$PUCSORGBACK
 10
0.0
 20
0.0
 30
0.0
  9
$USERI1
 70
     0
  9
$USERI2
 70
     0
  9
$USERI3
 70
     0
  9
$USERI4
 70
     0
  9
$USERI5
 70
     0
  9
$USERR1
 40
0.0
  9
$USERR2
 40
0.0
  9
$USERR3
 40
0.0
  9
$USERR4
 40
0.0
  9
$USERR5
 40
0.0
  9
$WORLDVIEW
 70
     1
  9
$SHADEDGE
 70
     3
  9
$SHADEDIF
 70
    70
  9
$TILEMODE
 70
     0
  9
$MAXACTVP
 70
    64
  9
$PINSBASE
 10
0.0
 20
0.0
 30
0.0
  9
$PLIMCHECK
 70
     0
  9
$PEXTMIN
 10
-0.0323508925924587
 20
-0.0910166197556146
 30
0.0
  9
$PEXTMAX
 10
210.0
 20
297.0
 30
0.0
  9
$PLIMMIN
 10
-0.0323508925924587
 20
-0.0910166197556146
  9
$PLIMMAX
 10
210.0
 20
297.0
  9
$UNITMODE
 70
     0
  9
$VISRETAIN
 70
     1
  9
$PLINEGEN
 70
     0
  9
$PSLTSCALE
 70
     0
  9
$TREEDEPTH
 70
  3020
  9
$CMLSTYLE
  2
Standard
  9
$CMLJUST
 70
     0
  9
$CMLSCALE
 40
1.0
  9
$PROXYGRAPHICS
 70
     1
  9
$MEASUREMENT
 70
     0
  9
$CELWEIGHT
370
    -1
  9
$ENDCAPS
280
     0
  9
$JOINSTYLE
280
     0
  9
$LWDISPLAY
290
     1
  9
$INSUNITS
 70
     0
  9
$HYPERLINKBASE
  1

  9
$STYLESHEET
  1

  9
$XEDIT
290
     1
  9
$CEPSNTYPE
380
     0
  9
$PSTYLEMODE
290
     1
  9
$FINGERPRINTGUID
  2
{23BD7817-DAFC-4A4C-A26B-01FF1387D522}
  9
$VERSIONGUID
  2
{FAEB1C32-E019-11D5-929B-00C0DF256EC4}
  9
$EXTNAMES
290
     1
  9
$PSVPSCALE
 40
0.0
  9
$OLESTARTUP
290
     0
  9
$SORTENTS
280
   127
  9
$INDEXCTL
280
     0
  9
$HIDETEXT
280
     1
  9
$XCLIPFRAME
290
     0
  9
$HALOGAP
280
     0
  9
$OBSCOLOR
 70
   257
  9
$OBSLTYPE
280
     0
  9
$INTERSECTIONDISPLAY
280
     0
  9
$INTERSECTIONCOLOR
 70
   257
  9
$DIMASSOC
280
     2
  9
$PROJECTNAME
  1

  0
ENDSEC
  0
SECTION
  2
CLASSES
  0
CLASS
  1
ACDBDICTIONARYWDFLT
  2
AcDbDictionaryWithDefault
  3
ObjectDBX Classes
 90
        0
 91
        3
280
     0
281
     0
  0
CLASS
  1
VISUALSTYLE
  2
AcDbVisualStyle
  3
ObjectDBX Classes
 90
     4095
 91
        3
280
     0
281
     0
  0
CLASS
  1
SCALE
  2
AcDbScale
  3
ObjectDBX Classes
 90
     1153
 91
        3
280
     0
281
     0
  0
CLASS
  1
WIPEOUT
  2
AcDbWipeout
  3
WipeOut|AutoCAD Express Tool|expresstools@autodesk.com
 90
      127
 91
        3
280
     0
281
     1
  0
CLASS
  1
SPATIAL_FILTER
  2
AcDbSpatialFilter
  3
ObjectDBX Classes
 90
        0
 91
        3
280
     0
281
     0
  0
ENDSEC
  0
SECTION
  2
TABLES
  0
TABLE
  2
VPORT
  5
8
330
0
100
AcDbSymbolTable
 70
     1
  0
VPORT
  5
29
330
8
100
AcDbSymbolTableRecord
100
AcDbViewportTableRecord
  2
*Active
 70
     0
 10
0.0
 20
0.0
 11
1.0
 21
1.0
 12
10.42990654205607
 22
4.5
 13
0.0
 23
0.0
 14
0.5
 24
0.5
 15
0.5
 25
0.5
 16
0.0
 26
0.0
 36
1.0
 17
0.0
 27
0.0
 37
0.0
 40
9.0
 41
1.972972972850329
 42
50.0
 43
0.0
 44
0.0
 50
0.0
 51
0.0
 71
     0
 72
   100
 73
     1
 74
     3
 75
     0
 76
     0
 77
     0
 78
     0
281
     0
 65
     1
110
0.0
120
0.0
130
0.0
111
1.0
121
0.0
131
0.0
112
0.0
122
1.0
132
0.0
 79
     0
146
0.0
  0
ENDTAB
  0
TABLE
  2
LTYPE
  5
5
330
0
100
AcDbSymbolTable
 70
     5
  0
LTYPE
  5
14
330
5
100
AcDbSymbolTableRecord
100
AcDbLinetypeTableRecord
  2
ByBlock
 70
     0
  3

 72
    65
 73
     0
 40
0.0
  0
LTYPE
  5
15
330
5
100
AcDbSymbolTableRecord
100
AcDbLinetypeTableRecord
  2
ByLayer
 70
     0
  3

 72
    65
 73
     0
 40
0.0
  0
LTYPE
  5
16
330
5
100
AcDbSymbolTableRecord
100
AcDbLinetypeTableRecord
  2
Continuous
 70
     0
  3
Solid line
 72
    65
 73
     0
 40
0.0
  0
LTYPE
  5
DE
330
5
100
AcDbSymbolTableRecord
100
AcDbLinetypeTableRecord
  2
IZOLACJA GRUBA
 70
     0
  3
??????????
 72
    65
 73
     3
 40
50.0
 49
0.0
 74
     4
 75
     1
340
DF
 46
0.3968253968253968
 50
0.0
 44
0.0
 45
0.0
 49
-50.0
 74
     0
 49
0.0
 74
     0
  0
LTYPE
  5
101
330
5
100
AcDbSymbolTableRecord
100
AcDbLinetypeTableRecord
  2
Przerywana
 70
     0
  3
- - - - - 
 72
    65
 73
     2
 40
28.22222232818604
 49
14.11111116409302
 74
     0
 49
-14.11111116409302
 74
     0
  0
LTYPE
  5
154
330
5
100
AcDbSymbolTableRecord
100
AcDbLinetypeTableRecord
  2
Przerywana gęsta
 70
     0
  3
- - - - - 
 72
    65
 73
     2
 40
15.0
 49
10.0
 74
     0
 49
-5.0
 74
     0
  0
LTYPE
  5
156
330
5
100
AcDbSymbolTableRecord
100
AcDbLinetypeTableRecord
  2
Wipeout_Contour
 70
     0
  3
- - - - - 
 72
    65
 73
     2
 40
1000.0
 49
0.0
 74
     0
 49
-1000.0
 74
     0
  0
ENDTAB
  0
TABLE
  2
LAYER
  5
2
330
0
100
AcDbSymbolTable
 70
     4
  0
LAYER
  5
10
330
2
100
AcDbSymbolTableRecord
100
AcDbLayerTableRecord
  2
0
 70
     0
 62
     7
  6
Continuous
370
    -3
390
F
  0
LAYER
  5
67
330
2
100
AcDbSymbolTableRecord
100
AcDbLayerTableRecord
  2
@__WIDOCZNE
 70
     0
 62
     7
  6
Continuous
370
    -3
390
F
  0
LAYER
  5
E1
330
2
100
AcDbSymbolTableRecord
100
AcDbLayerTableRecord
  2
Linia Izolacji - ARCHICAD
 70
     0
 62
     7
  6
Continuous
370
    -3
390
F
  0
LAYER
  5
175
330
2
100
AcDbSymbolTableRecord
100
AcDbLayerTableRecord
  2
NonPlottable_0
 70
     0
 62
     7
  6
Continuous
290
     0
370
    -3
390
F
  0
ENDTAB
  0
TABLE
  2
STYLE
  5
3
330
0
100
AcDbSymbolTable
 70
     4
  0
STYLE
  5
11
330
3
100
AcDbSymbolTableRecord
100
AcDbTextStyleTableRecord
  2
Standard
 70
     0
 40
0.0
 41
1.0
 50
0.0
 71
     0
 42
0.2
  3
txt
  4
BIGFONT.SHX
  0
STYLE
  5
84
330
3
100
AcDbSymbolTableRecord
100
AcDbTextStyleTableRecord
  2
GENERATED_STYLE_1
 70
     0
 40
0.0
 41
1.0
 50
0.0
 71
     0
 42
0.2
  3

  4

1001
ACAD
1000
Arial
1071
    60966
  0
STYLE
  5
DF
330
3
100
AcDbSymbolTableRecord
100
AcDbTextStyleTableRecord
  2

 70
     1
 40
0.2
 41
1.0
 50
0.0
 71
     0
 42
0.2
  3
08.01.02 BASEN_narożnik1.Shx
  4

  0
STYLE
  5
13E
330
3
100
AcDbSymbolTableRecord
100
AcDbTextStyleTableRecord
  2
GENERATED_STYLE_2
 70
     0
 40
0.0
 41
1.0
 50
0.0
 71
     0
 42
0.2
  3

  4

1001
ACAD
1000
Arial
1071
 33615398
  0
ENDTAB
  0
TABLE
  2
VIEW
  5
6
330
0
100
AcDbSymbolTable
 70
     0
  0
ENDTAB
  0
TABLE
  2
UCS
  5
7
330
0
100
AcDbSymbolTable
 70
     0
  0
ENDTAB
  0
TABLE
  2
APPID
  5
9
330
0
100
AcDbSymbolTable
 70
     1
  0
APPID
  5
12
330
9
100
AcDbSymbolTableRecord
100
AcDbRegAppTableRecord
  2
ACAD
 70
     0
  0
ENDTAB
  0
TABLE
  2
DIMSTYLE
  5
A
330
0
100
AcDbSymbolTable
 70
     1
100
AcDbDimStyleTable
  0
DIMSTYLE
105
27
330
A
100
AcDbSymbolTableRecord
100
AcDbDimStyleTableRecord
  2
Standard
 70
     0
340
11
  0
ENDTAB
  0
TABLE
  2
BLOCK_RECORD
  5
1
330
0
100
AcDbSymbolTable
 70
    10
  0
BLOCK_RECORD
  5
1F
330
1
100
AcDbSymbolTableRecord
100
AcDbBlockTableRecord
  2
*Model_Space
340
22
  0
BLOCK_RECORD
  5
1B
330
1
100
AcDbSymbolTableRecord
100
AcDbBlockTableRecord
  2
*Paper_Space
340
1E
  0
BLOCK_RECORD
  5
23
330
1
100
AcDbSymbolTableRecord
100
AcDbBlockTableRecord
  2
*Paper_Space0
340
26
  0
BLOCK_RECORD
  5
80
330
1
100
AcDbSymbolTableRecord
100
AcDbBlockTableRecord
  2
Sygnał termostatu 12
340
0
102
{BLKREFS
331
86
331
B1
331
C3
331
D2
102
}
  0
BLOCK_RECORD
  5
89
330
1
100
AcDbSymbolTableRecord
100
AcDbBlockTableRecord
  2
Sygnał termostatu 12_2
340
0
102
{BLKREFS
331
8E
331
B7
331
CF
102
}
  0
BLOCK_RECORD
  5
91
330
1
100
AcDbSymbolTableRecord
100
AcDbBlockTableRecord
  2
Sygnał termostatu 12_3
340
0
102
{BLKREFS
331
96
331
BA
331
C0
331
CC
102
}
  0
BLOCK_RECORD
  5
99
330
1
100
AcDbSymbolTableRecord
100
AcDbBlockTableRecord
  2
Sygnał termostatu 12_4
340
0
102
{BLKREFS
331
9E
331
BD
102
}
  0
BLOCK_RECORD
  5
A1
330
1
100
AcDbSymbolTableRecord
100
AcDbBlockTableRecord
  2
Sygnał termostatu 12_5
340
0
102
{BLKREFS
331
A6
331
C9
102
}
  0
BLOCK_RECORD
  5
A9
330
1
100
AcDbSymbolTableRecord
100
AcDbBlockTableRecord
  2
Sygnał termostatu 12_6
340
0
102
{BLKREFS
331
AE
331
B4
331
C6
102
}
  0
BLOCK_RECORD
  5
16A
330
1
100
AcDbSymbolTableRecord
100
AcDbBlockTableRecord
  2
Bez nazwy_STORY_MARKER
340
0
  0
BLOCK_RECORD
  5
16D
330
1
100
AcDbSymbolTableRecord
100
AcDbBlockTableRecord
  2
Rysunek_1
340
0
102
{BLKREFS
331
170
102
}
  0
BLOCK_RECORD
  5
177
330
1
100
AcDbSymbolTableRecord
100
AcDbBlockTableRecord
  2
02.04.2-20 \U+FF8CCIANA+PIWICA 08.01._STORY_MARKER
340
0
  0
ENDTAB
  0
ENDSEC
  0
SECTION
  2
BLOCKS
  0
BLOCK
  5
20
330
1F
100
AcDbEntity
  8
0
100
AcDbBlockBegin
  2
*Model_Space
 70
     0
 10
0.0
 20
0.0
 30
0.0
  3
*Model_Space
  1

  0
ENDBLK
  5
21
330
1F
100
AcDbEntity
  8
0
100
AcDbBlockEnd
  0
BLOCK
  5
1C
330
1B
100
AcDbEntity
 67
     1
  8
0
100
AcDbBlockBegin
  2
*Paper_Space
 70
     0
 10
0.0
 20
0.0
 30
0.0
  3
*Paper_Space
  1

  0
ENDBLK
  5
1D
330
1B
100
AcDbEntity
 67
     1
  8
0
100
AcDbBlockEnd
  0
BLOCK
  5
24
330
23
100
AcDbEntity
  8
0
100
AcDbBlockBegin
  2
*Paper_Space0
 70
     0
 10
0.0
 20
0.0
 30
0.0
  3
*Paper_Space0
  1

  0
ENDBLK
  5
25
330
23
100
AcDbEntity
  8
0
100
AcDbBlockEnd
  0
BLOCK
  5
81
330
80
100
AcDbEntity
  8
0
100
AcDbBlockBegin
  2
Sygnał termostatu 12
 70
     2
 10
0.0
 20
0.0
 30
0.0
  3
Sygnał termostatu 12
  1

  0
CIRCLE
  5
83
330
80
100
AcDbEntity
  8
@__WIDOCZNE
  6
Continuous
370
    13
100
AcDbCircle
 10
0.0
 20
0.0
 30
0.0
 40
15.0
  0
ATTDEF
  5
85
330
80
100
AcDbEntity
  8
@__WIDOCZNE
370
    13
100
AcDbText
 10
-10.70832167484603
 20
-6.249202582858659
 30
0.0
 40
14.11111111111111
  1
01
  7
GENERATED_STYLE_1
 11
-10.70832167484603
 21
-10.41969737452533
 31
0.0
100
AcDbAttributeDefinition
  3
Tekst
  2
txt
 70
     0
 74
     1
  0
ENDBLK
  5
82
330
80
100
AcDbEntity
  8
0
100
AcDbBlockEnd
  0
BLOCK
  5
8A
330
89
100
AcDbEntity
  8
0
100
AcDbBlockBegin
  2
Sygnał termostatu 12_2
 70
     2
 10
0.0
 20
0.0
 30
0.0
  3
Sygnał termostatu 12_2
  1

  0
CIRCLE
  5
8C
330
89
100
AcDbEntity
  8
@__WIDOCZNE
  6
Continuous
370
    13
100
AcDbCircle
 10
0.0
 20
0.0
 30
0.0
 40
15.0
  0
ATTDEF
  5
8D
330
89
100
AcDbEntity
  8
@__WIDOCZNE
370
    13
100
AcDbText
 10
-10.70835060310094
 20
-6.249167752691909
 30
0.0
 40
14.11111111111111
  1
02
  7
GENERATED_STYLE_1
 11
-10.70835060310094
 21
-10.41966254435857
 31
0.0
100
AcDbAttributeDefinition
  3
Tekst
  2
txt
 70
     0
 74
     1
  0
ENDBLK
  5
8B
330
89
100
AcDbEntity
  8
0
100
AcDbBlockEnd
  0
BLOCK
  5
92
330
91
100
AcDbEntity
  8
0
100
AcDbBlockBegin
  2
Sygnał termostatu 12_3
 70
     2
 10
0.0
 20
0.0
 30
0.0
  3
Sygnał termostatu 12_3
  1

  0
CIRCLE
  5
94
330
91
100
AcDbEntity
  8
@__WIDOCZNE
  6
Continuous
370
    13
100
AcDbCircle
 10
0.0
 20
0.0
 30
0.0
 40
15.0
  0
ATTDEF
  5
95
330
91
100
AcDbEntity
  8
@__WIDOCZNE
370
    13
100
AcDbText
 10
-10.70835060310094
 20
-6.249167752691909
 30
0.0
 40
14.11111111111111
  1
03
  7
GENERATED_STYLE_1
 11
-10.70835060310094
 21
-10.41966254435857
 31
0.0
100
AcDbAttributeDefinition
  3
Tekst
  2
txt
 70
     0
 74
     1
  0
ENDBLK
  5
93
330
91
100
AcDbEntity
  8
0
100
AcDbBlockEnd
  0
BLOCK
  5
9A
330
99
100
AcDbEntity
  8
0
100
AcDbBlockBegin
  2
Sygnał termostatu 12_4
 70
     2
 10
0.0
 20
0.0
 30
0.0
  3
Sygnał termostatu 12_4
  1

  0
CIRCLE
  5
9C
330
99
100
AcDbEntity
  8
@__WIDOCZNE
  6
Continuous
370
    13
100
AcDbCircle
 10
0.0
 20
0.0
 30
0.0
 40
15.0
  0
ATTDEF
  5
9D
330
99
100
AcDbEntity
  8
@__WIDOCZNE
370
    13
100
AcDbText
 10
-10.70835060310094
 20
-6.249167752691909
 30
0.0
 40
14.11111111111111
  1
04
  7
GENERATED_STYLE_1
 11
-10.70835060310094
 21
-10.41966254435857
 31
0.0
100
AcDbAttributeDefinition
  3
Tekst
  2
txt
 70
     0
 74
     1
  0
ENDBLK
  5
9B
330
99
100
AcDbEntity
  8
0
100
AcDbBlockEnd
  0
BLOCK
  5
A2
330
A1
100
AcDbEntity
  8
0
100
AcDbBlockBegin
  2
Sygnał termostatu 12_5
 70
     2
 10
0.0
 20
0.0
 30
0.0
  3
Sygnał termostatu 12_5
  1

  0
CIRCLE
  5
A4
330
A1
100
AcDbEntity
  8
@__WIDOCZNE
  6
Continuous
370
    13
100
AcDbCircle
 10
0.0
 20
0.0
 30
0.0
 40
15.0
  0
ATTDEF
  5
A5
330
A1
100
AcDbEntity
  8
@__WIDOCZNE
370
    13
100
AcDbText
 10
-10.70835060310094
 20
-6.249167752691909
 30
0.0
 40
14.11111111111111
  1
05
  7
GENERATED_STYLE_1
 11
-10.70835060310094
 21
-10.41966254435857
 31
0.0
100
AcDbAttributeDefinition
  3
Tekst
  2
txt
 70
     0
 74
     1
  0
ENDBLK
  5
A3
330
A1
100
AcDbEntity
  8
0
100
AcDbBlockEnd
  0
BLOCK
  5
AA
330
A9
100
AcDbEntity
  8
0
100
AcDbBlockBegin
  2
Sygnał termostatu 12_6
 70
     2
 10
0.0
 20
0.0
 30
0.0
  3
Sygnał termostatu 12_6
  1

  0
CIRCLE
  5
AC
330
A9
100
AcDbEntity
  8
@__WIDOCZNE
  6
Continuous
370
    13
100
AcDbCircle
 10
0.0
 20
0.0
 30
0.0
 40
15.0
  0
ATTDEF
  5
AD
330
A9
100
AcDbEntity
  8
@__WIDOCZNE
370
    13
100
AcDbText
 10
-10.70835060310094
 20
-6.249167752691909
 30
0.0
 40
14.11111111111111
  1
06
  7
GENERATED_STYLE_1
 11
-10.70835060310094
 21
-10.41966254435857
 31
0.0
100
AcDbAttributeDefinition
  3
Tekst
  2
txt
 70
     0
 74
     1
  0
ENDBLK
  5
AB
330
A9
100
AcDbEntity
  8
0
100
AcDbBlockEnd
  0
BLOCK
  5
16B
330
16A
100
AcDbEntity
  8
0
100
AcDbBlockBegin
  2
Bez nazwy_STORY_MARKER
 70
     0
 10
0.0
 20
0.0
 30
0.0
  3
Bez nazwy_STORY_MARKER
  1

  0
ENDBLK
  5
16C
330
16A
100
AcDbEntity
  8
0
100
AcDbBlockEnd
  0
BLOCK
  5
16E
330
16D
100
AcDbEntity
  8
0
100
AcDbBlockBegin
  2
Rysunek_1
 70
     0
 10
0.0
 20
0.0
 30
0.0
  3
Rysunek_1
  1

  0
ENDBLK
  5
16F
330
16D
100
AcDbEntity
  8
0
100
AcDbBlockEnd
  0
BLOCK
  5
178
330
177
100
AcDbEntity
  8
0
100
AcDbBlockBegin
  2
02.04.2-20 \U+FF8CCIANA+PIWICA 08.01._STORY_MARKER
 70
     0
 10
0.0
 20
0.0
 30
0.0
  3
02.04.2-20 \U+FF8CCIANA+PIWICA 08.01._STORY_MARKER
  1

  0
ENDBLK
  5
179
330
177
100
AcDbEntity
  8
0
100
AcDbBlockEnd
  0
ENDSEC
  0
SECTION
  2
ENTITIES
  0
HATCH
  5
5E
330
1F
100
AcDbEntity
  8
0
  6
Continuous
370
    13
100
AcDbHatch
 10
0.0
 20
0.0
 30
0.0
210
0.0
220
0.0
230
1.0
  2
Płyty_kamienne_0002
 70
     0
 71
     0
 91
        1
 92
        2
 72
     0
 73
     1
 93
        5
 10
-2747.648982778697
 20
1145.168516224416
 10
-2747.648982778697
 20
1632.168516224417
 10
-2736.648982778696
 20
1632.168516224417
 10
-2736.648982778696
 20
1145.168516224416
 10
-2747.633879146807
 20
1134.183619856304
 97
        0
 75
     0
 76
     2
 52
0.0
 41
1.0
 77
     0
 78
     2
 53
45.0
 43
0.0
 44
17.5
 45
-5.568465901844061
 46
5.568465901844062
 79
     4
 49
0.0
 49
-5.249999999999999
 49
0.0
 49
-7.875
 53
110.0
 43
17.5
 44
17.5
 45
7.400079388689027
 46
2.693408628689645
 79
     4
 49
0.0
 49
-3.85
 49
0.0
 49
-6.649999999999999
 98
        0
  0
HATCH
  5
5F
330
1F
100
AcDbEntity
  8
0
  6
Continuous
370
    13
100
AcDbHatch
 10
0.0
 20
0.0
 30
0.0
210
0.0
220
0.0
230
1.0
  2
SOLID
 70
     1
 71
     0
 91
        1
 92
        2
 72
     0
 73
     1
 93
       20
 10
-2854.989309732945
 20
562.6309888190218
 10
-2851.888046847725
 20
563.5486947963658
 10
-2848.783070130558
 20
564.0325779017799
 10
-2844.19777077562
 20
564.1543177901816
 10
-2839.991211507696
 20
563.6675330363076
 10
-2836.699841758035
 20
562.7784201649076
 10
-2833.841663472183
 20
561.6271965047541
 10
-2832.313245137032
 20
559.8935994404674
 10
-2831.729209724472
 20
558.1685162244162
 10
-2832.735068863331
 20
555.9221939947289
 10
-2834.830915154408
 20
554.3810875180441
 10
-2839.349209409919
 20
552.8015794572264
 10
-2843.477474239423
 20
552.2236036421573
 10
-2848.115430092431
 20
552.2451511664447
 10
-2852.257849520915
 20
552.8715281668276
 10
-2855.092772926859
 20
553.7469407154715
 10
-2858.756618436205
 20
556.1427923042272
 10
-2859.568755832925
 20
558.1685162244162
 10
-2858.985120362048
 20
559.8930213317116
 10
-2857.750607821886
 20
561.1425317292471
 97
        0
 75
     0
 76
     1
 98
        0
  0
HATCH
  5
60
330
1F
100
AcDbEntity
  8
0
  6
Continuous
370
    13
100
AcDbHatch
 10
0.0
 20
0.0
 30
0.0
210
0.0
220
0.0
230
1.0
  2
Płyty_kamienne_0002
 70
     0
 71
     0
 91
        1
 92
        2
 72
     0
 73
     1
 93
        4
 10
-2598.648982778698
 20
577.1685162244163
 10
-2076.6489827787
 20
577.1685162244163
 10
-2076.6489827787
 20
566.1685162244155
 10
-2598.648982778698
 20
566.1685162244155
 97
        0
 75
     0
 76
     2
 52
0.0
 41
1.0
 77
     0
 78
     2
 53
45.0
 43
0.0
 44
17.5
 45
-5.568465901844061
 46
5.568465901844062
 79
     4
 49
0.0
 49
-5.249999999999999
 49
0.0
 49
-7.875
 53
110.0
 43
17.5
 44
17.5
 45
7.400079388689027
 46
2.693408628689645
 79
     4
 49
0.0
 49
-3.85
 49
0.0
 49
-6.649999999999999
 98
        0
  0
HATCH
  5
61
330
1F
100
AcDbEntity
  8
0
  6
Continuous
370
    13
100
AcDbHatch
 10
0.0
 20
0.0
 30
0.0
210
0.0
220
0.0
230
1.0
  2
Beton_zbrojony_0002
 70
     0
 71
     0
 91
        1
 92
        2
 72
     1
 73
     1
 93
       15
 10
-2845.648982778698
 20
552.1499166241905
 42
-0.1023812345510063
 10
-2855.49174869792
 20
553.9127236338501
 42
-0.1000184045211702
 10
-2858.5091762007
 20
555.8652978713708
 42
-0.1933429745514489
 10
-2859.568755832925
 20
558.1685162244162
 42
0.0
 10
-2876.648982778697
 20
558.1685162244162
 42
0.0
 10
-2876.648982778697
 20
437.1685162244161
 42
0.0
 10
-2076.648982778698
 20
437.1685162244161
 42
0.0
 10
-2076.648982778698
 20
558.1685162244161
 42
0.0
 10
-2229.616923777422
 20
558.1685162244162
 42
0.0
 10
-2261.810073291297
 20
549.6952681590426
 42
0.0
 10
-2310.758374828541
 20
547.2355446833001
 42
0.0
 10
-2359.056857597064
 20
558.1685162244161
 42
0.0
 10
-2831.729209724472
 20
558.1685162244162
 42
-0.193342974551462
 10
-2832.788789356696
 20
555.8652978713708
 42
-0.1000184045212458
 10
-2835.806216859478
 20
553.9127236338501
 42
-0.1023812345509767
 97
        0
 75
     0
 76
     2
 52
0.0
 41
1.0
 77
     0
 78
     2
 53
44.99999999999999
 43
0.0
 44
0.0
 45
-9.192387818250328
 46
9.19238781825033
 79
     0
 53
44.99999999999999
 43
-4.596193909125164
 44
4.596193909125165
 45
-9.192387818250328
 46
9.19238781825033
 79
     2
 49
9.749999642372131
 49
-3.24999988079071
 98
        0
  0
HATCH
  5
62
330
1F
100
AcDbEntity
  8
0
  6
Continuous
370
    13
100
AcDbHatch
 10
0.0
 20
0.0
 30
0.0
210
0.0
220
0.0
230
1.0
  2
Płyty_kamienne_0002
 70
     0
 71
     0
 91
        1
 92
        2
 72
     0
 73
     1
 93
        7
 10
-2727.715479922495
 20
1116.16484375925
 10
-2718.648982778698
 20
1127.168516224416
 10
-2616.648982778697
 20
1127.168516224416
 10
-2616.648982778697
 20
910.5666163971284
 10
-2627.648982778698
 20
910.5666163971284
 10
-2627.648982778698
 20
1103.168516224416
 10
-2640.648982778698
 20
1116.168516224416
 97
        0
 75
     0
 76
     2
 52
0.0
 41
1.0
 77
     0
 78
     2
 53
45.0
 43
0.0
 44
17.5
 45
-5.568465901844061
 46
5.568465901844062
 79
     4
 49
0.0
 49
-5.249999999999999
 49
0.0
 49
-7.875
 53
110.0
 43
17.5
 44
17.5
 45
7.400079388689027
 46
2.693408628689645
 79
     4
 49
0.0
 49
-3.85
 49
0.0
 49
-6.649999999999999
 98
        0
  0
HATCH
  5
63
330
1F
100
AcDbEntity
  8
0
  6
Continuous
370
    13
100
AcDbHatch
 10
0.0
 20
0.0
 30
0.0
210
0.0
220
0.0
230
1.0
  2
Beton_zbrojony_0002
 70
     0
 71
     0
 91
        1
 92
        2
 72
     0
 73
     1
 93
       10
 10
-2635.648982778697
 20
910.5666163971284
 10
-2635.648982778697
 20
1108.168516224416
 10
-2755.648982778696
 20
1108.168516224416
 10
-2755.648982778696
 20
1394.468775265203
 10
-2765.732850870151
 20
1443.320189269849
 10
-2767.389735861871
 20
1462.42736317635
 10
-2755.648982778696
 20
1507.607117803887
 10
-2755.648982778696
 20
1632.168516224417
 10
-2876.648982778697
 20
1632.168516224417
 10
-2876.648982778697
 20
910.5666163971284
 97
        0
 75
     0
 76
     2
 52
0.0
 41
1.0
 77
     0
 78
     2
 53
44.99999999999999
 43
0.0
 44
0.0
 45
-9.192387818250328
 46
9.19238781825033
 79
     0
 53
44.99999999999999
 43
-4.596193909125164
 44
4.596193909125165
 45
-9.192387818250328
 46
9.19238781825033
 79
     2
 49
9.749999642372131
 49
-3.24999988079071
 98
        0
  0
HATCH
  5
64
330
1F
100
AcDbEntity
  8
0
  6
Continuous
370
    13
100
AcDbHatch
 10
0.0
 20
0.0
 30
0.0
210
0.0
220
0.0
230
1.0
  2
Beton_zbrojony_0002
 70
     0
 71
     0
 91
        2
 92
        2
 72
     1
 73
     1
 93
       13
 10
-2845.648982778698
 20
564.1871158246419
 42
-0.105409483851203
 10
-2835.647436821112
 20
562.3545300704913
 42
0.0
 10
-2833.841663472185
 20
561.6271965047534
 42
0.0
 10
-2833.041410301933
 20
560.7195153321795
 42
-0.087677556891813
 10
-2832.061219358575
 20
559.4751819185293
 42
-0.1193343743277634
 10
-2831.729209724472
 20
558.1685162244162
 42
0.0
 10
-2635.648982778697
 20
558.1685162244162
 42
0.0
 10
-2635.648982778697
 20
890.5666163971284
 42
0.0
 10
-2876.648982778697
 20
890.5666163971284
 42
0.0
 10
-2876.648982778697
 20
558.1685162244162
 42
0.0
 10
-2859.568755832925
 20
558.1685162244162
 42
-0.1933429745515169
 10
-2858.5091762007
 20
560.4717345774617
 42
-0.1000184045211495
 10
-2855.491748697918
 20
562.4243088149824
 42
-0.1023812345509972
 97
        0
 92
        2
 72
     1
 73
     1
 93
        2
 10
-2750.840220744022
 20
611.2631895467969
 42
-0.9999999999999999
 10
-2780.84022074402
 20
611.2631895467969
 42
-0.9999999999999999
 97
        0
 75
     0
 76
     2
 52
0.0
 41
1.0
 77
     0
 78
     2
 53
44.99999999999999
 43
0.0
 44
0.0
 45
-9.192387818250328
 46
9.19238781825033
 79
     0
 53
44.99999999999999
 43
-4.596193909125164
 44
4.596193909125165
 45
-9.192387818250328
 46
9.19238781825033
 79
     2
 49
9.749999642372131
 49
-3.24999988079071
 98
        0
  0
HATCH
  5
65
330
1F
100
AcDbEntity
  8
0
  6
Continuous
370
    13
100
AcDbHatch
 10
0.0
 20
0.0
 30
0.0
210
0.0
220
0.0
230
1.0
  2
Płyty_kamienne_0002
 70
     0
 71
     0
 91
        1
 92
        2
 72
     0
 73
     1
 93
        5
 10
-2616.648982778697
 20
595.1685162244162
 10
-2627.626799591336
 20
584.1906994117764
 10
-2627.648982778698
 20
865.2205887632763
 10
-2627.648982778698
 20
890.5666163971284
 10
-2616.648982778697
 20
890.5666163971284
 97
        0
 75
     0
 76
     2
 52
0.0
 41
1.0
 77
     0
 78
     2
 53
45.0
 43
0.0
 44
17.5
 45
-5.568465901844061
 46
5.568465901844062
 79
     4
 49
0.0
 49
-5.249999999999999
 49
0.0
 49
-7.875
 53
110.0
 43
17.5
 44
17.5
 45
7.400079388689027
 46
2.693408628689645
 79
     4
 49
0.0
 49
-3.85
 49
0.0
 49
-6.649999999999999
 98
        0
  0
HATCH
  5
66
330
1F
100
AcDbEntity
  8
@__WIDOCZNE
  6
Continuous
 62
   142
370
    13
100
AcDbHatch
 10
0.0
 20
0.0
 30
0.0
210
0.0
220
0.0
230
1.0
  2
SOLID
 70
     1
 71
     1
 91
        1
 92
        2
 72
     1
 73
     1
 93
        6
 10
-2671.649977258523
 20
358.8190935270448
 42
0.0
 10
-2671.649977258523
 20
371.1082047149139
 42
0.0
 10
-2683.939088446391
 20
371.1082047149139
 42
0.414213562373095
 10
-2698.686021871835
 20
356.3612712894715
 42
0.0
 10
-2698.686021871835
 20
344.0721601016024
 42
0.0
 10
-2686.396910683965
 20
344.0721601016024
 42
0.414213562373095
 97
        1
330
68
 75
     0
 76
     1
 98
        0
  0
LWPOLYLINE
  5
68
102
{ACAD_REACTORS
330
66
102
}
330
1F
100
AcDbEntity
  8
@__WIDOCZNE
  6
Continuous
 62
   142
370
    13
100
AcDbPolyline
 90
        6
 70
   129
 43
0.0
 10
-2671.649977258523
 20
358.8190935270448
 10
-2671.649977258523
 20
371.1082047149139
 10
-2683.939088446391
 20
371.1082047149139
 42
0.414213562373095
 10
-2698.686021871835
 20
356.3612712894715
 10
-2698.686021871835
 20
344.0721601016024
 10
-2686.396910683965
 20
344.0721601016024
 42
0.414213562373095
  0
HATCH
  5
69
330
1F
100
AcDbEntity
  8
@__WIDOCZNE
  6
Continuous
370
    13
100
AcDbHatch
 10
0.0
 20
0.0
 30
0.0
210
0.0
220
0.0
230
1.0
  2
SOLID
 70
     1
 71
     1
 91
        3
 92
        2
 72
     1
 73
     1
 93
        8
 10
-2898.953472076751
 20
344.4796711617526
 42
0.0723831287448308
 10
-2916.78942481802
 20
344.3275968930737
 42
0.0
 10
-2916.78942481802
 20
310.0122551530076
 42
0.0475754375093521
 10
-2907.144216115612
 20
308.9603659613153
 42
0.0
 10
-2905.759486080402
 20
308.9603659613153
 42
0.0201526900432898
 10
-2901.647942858112
 20
309.1819853505042
 42
0.1117820670402823
 10
-2892.881461756046
 20
311.9512613171027
 42
0.5989391739264164
 10
-2895.790898449676
 20
328.3892968403901
 42
0.7144612958116017
 97
        1
330
6A
 92
        2
 72
     1
 73
     1
 93
        4
 10
-2910.372294964073
 20
330.4239311668169
 42
0.018587651104709
 10
-2901.574029976669
 20
330.4324026983065
 42
0.8637728306683231
 10
-2901.830574820644
 20
339.5726771072409
 42
0.0363046036528515
 10
-2910.372294964073
 20
339.5726771072409
 42
0.0
 97
        1
330
6B
 92
        2
 72
     1
 73
     1
 93
        4
 10
-2910.273089605249
 20
314.5476050362697
 42
0.0570602598095221
 10
-2901.202632463535
 20
314.6351416055544
 42
0.9504624262000833
 10
-2901.29777960682
 20
325.30063344018
 42
0.0333151677067815
 10
-2910.273089605249
 20
325.30063344018
 42
0.0
 97
        1
330
6C
 75
     0
 76
     1
 98
        0
  0
LWPOLYLINE
  5
6A
102
{ACAD_REACTORS
330
69
102
}
330
1F
100
AcDbEntity
  8
@__WIDOCZNE
  6
Continuous
370
    13
100
AcDbPolyline
 90
        8
 70
   129
 43
0.0
 10
-2898.953472076751
 20
344.4796711617526
 42
0.0723831287448308
 10
-2916.78942481802
 20
344.3275968930737
 10
-2916.78942481802
 20
310.0122551530076
 42
0.0475754375093521
 10
-2907.144216115612
 20
308.9603659613153
 10
-2905.759486080402
 20
308.9603659613153
 42
0.0201526900432898
 10
-2901.647942858112
 20
309.1819853505042
 42
0.1117820670402823
 10
-2892.881461756046
 20
311.9512613171027
 42
0.5989391739264164
 10
-2895.790898449676
 20
328.3892968403901
 42
0.7144612958116017
  0
LWPOLYLINE
  5
6B
102
{ACAD_REACTORS
330
69
102
}
330
1F
100
AcDbEntity
  8
@__WIDOCZNE
  6
Continuous
370
    13
100
AcDbPolyline
 90
        4
 70
   129
 43
0.0
 10
-2910.372294964073
 20
330.4239311668169
 42
0.018587651104709
 10
-2901.574029976669
 20
330.4324026983065
 42
0.8637728306683231
 10
-2901.830574820644
 20
339.5726771072409
 42
0.0363046036528515
 10
-2910.372294964073
 20
339.5726771072409
  0
LWPOLYLINE
  5
6C
102
{ACAD_REACTORS
330
69
102
}
330
1F
100
AcDbEntity
  8
@__WIDOCZNE
  6
Continuous
370
    13
100
AcDbPolyline
 90
        4
 70
   129
 43
0.0
 10
-2910.273089605249
 20
314.5476050362697
 42
0.0570602598095221
 10
-2901.202632463535
 20
314.6351416055544
 42
0.9504624262000833
 10
-2901.29777960682
 20
325.30063344018
 42
0.0333151677067815
 10
-2910.273089605249
 20
325.30063344018
  0
HATCH
  5
6D
330
1F
100
AcDbEntity
  8
@__WIDOCZNE
  6
Continuous
370
    13
100
AcDbHatch
 10
0.0
 20
0.0
 30
0.0
210
0.0
220
0.0
230
1.0
  2
SOLID
 70
     1
 71
     1
 91
        1
 92
        2
 72
     1
 73
     1
 93
       12
 10
-2841.350339998792
 20
336.6245828419991
 42
0.0
 10
-2849.311049736527
 20
336.6245828419991
 42
0.0
 10
-2849.311049736527
 20
344.3674871597333
 42
0.0
 10
-2855.450682083275
 20
343.1187483773433
 42
0.0
 10
-2855.450682083275
 20
317.5924928212775
 42
0.3686923280690939
 10
-2846.818606662544
 20
308.9901662517261
 42
0.0
 10
-2840.595360589716
 20
309.0116506029654
 42
0.0
 10
-2839.26910869481
 20
314.8140026431796
 42
0.0
 10
-2845.624316380166
 20
314.8140026431796
 42
-0.3159610186060354
 10
-2849.311049736527
 20
318.5007359995407
 42
0.0
 10
-2849.311049736527
 20
330.8915144664452
 42
0.0
 10
-2841.350339998792
 20
330.8915144664452
 42
0.0
 97
        1
330
6E
 75
     0
 76
     1
 98
        0
  0
LWPOLYLINE
  5
6E
102
{ACAD_REACTORS
330
6D
102
}
330
1F
100
AcDbEntity
  8
@__WIDOCZNE
  6
Continuous
370
    13
100
AcDbPolyline
 90
       12
 70
   129
 43
0.0
 10
-2841.350339998792
 20
336.6245828419991
 10
-2849.311049736527
 20
336.6245828419991
 10
-2849.311049736527
 20
344.3674871597333
 10
-2855.450682083275
 20
343.1187483773433
 10
-2855.450682083275
 20
317.5924928212775
 42
0.3686923280690939
 10
-2846.818606662544
 20
308.9901662517261
 10
-2840.595360589716
 20
309.0116506029654
 10
-2839.26910869481
 20
314.8140026431796
 10
-2845.624316380166
 20
314.8140026431796
 42
-0.3159610186060354
 10
-2849.311049736527
 20
318.5007359995407
 10
-2849.311049736527
 20
330.8915144664452
 10
-2841.350339998792
 20
330.8915144664452
  0
HATCH
  5
6F
330
1F
100
AcDbEntity
  8
@__WIDOCZNE
  6
Continuous
370
    13
100
AcDbHatch
 10
0.0
 20
0.0
 30
0.0
210
0.0
220
0.0
230
1.0
  2
SOLID
 70
     1
 71
     1
 91
        2
 92
        2
 72
     1
 73
     1
 93
       14
 10
-2824.338455543168
 20
330.7243005301508
 42
-0.387209016979461
 10
-2820.470707493379
 20
326.6660885155632
 42
0.0
 10
-2820.4361468482
 20
325.1309914006974
 42
0.1185067504646354
 10
-2829.323201864924
 20
325.2110522105191
 42
0.2642193030162518
 10
-2835.681757881041
 20
320.1638322740212
 42
0.1757337626801403
 10
-2835.689446163291
 20
314.57514680107
 42
0.2604621029539542
 10
-2829.551222220757
 20
309.1152649151168
 42
0.0083652857947627
 10
-2827.779126962313
 20
308.9603659613153
 42
0.0
 10
-2820.293432464269
 20
308.9603659613153
 42
0.028992295246684
 10
-2814.183789920784
 20
309.7493491946564
 42
0.0
 10
-2814.497237163028
 20
327.0821457481814
 42
0.4278697545607686
 10
-2823.206141993165
 20
336.2818233457665
 42
0.0
 10
-2831.93285808985
 20
336.3184579276819
 42
0.0
 10
-2833.313765541594
 20
330.7243005301508
 42
0.0
 97
        1
330
70
 92
        2
 72
     1
 73
     1
 93
        6
 10
-2820.381245109787
 20
320.8785999245503
 42
0.1273826308893613
 10
-2827.172363962857
 20
321.0534010932271
 42
0.2091253650713026
 10
-2829.856333700854
 20
318.5056024785986
 42
0.067218802794298
 10
-2829.824804476858
 20
316.5518331749557
 42
0.2977682718343915
 10
-2827.064627881339
 20
313.7143130742866
 42
0.0710664823309622
 10
-2820.381245109787
 20
313.7273783577705
 42
0.0
 97
        1
330
71
 75
     0
 76
     1
 98
        0
  0
LWPOLYLINE
  5
70
102
{ACAD_REACTORS
330
6F
102
}
330
1F
100
AcDbEntity
  8
@__WIDOCZNE
  6
Continuous
370
    13
100
AcDbPolyline
 90
       14
 70
   129
 43
0.0
 10
-2824.338455543168
 20
330.7243005301508
 42
-0.387209016979461
 10
-2820.470707493379
 20
326.6660885155632
 10
-2820.4361468482
 20
325.1309914006974
 42
0.1185067504646354
 10
-2829.323201864924
 20
325.2110522105191
 42
0.2642193030162518
 10
-2835.681757881041
 20
320.1638322740212
 42
0.1757337626801403
 10
-2835.689446163291
 20
314.57514680107
 42
0.2604621029539542
 10
-2829.551222220757
 20
309.1152649151168
 42
0.0083652857947627
 10
-2827.779126962313
 20
308.9603659613153
 10
-2820.293432464269
 20
308.9603659613153
 42
0.028992295246684
 10
-2814.183789920784
 20
309.7493491946564
 10
-2814.497237163028
 20
327.0821457481814
 42
0.4278697545607686
 10
-2823.206141993165
 20
336.2818233457665
 10
-2831.93285808985
 20
336.3184579276819
 10
-2833.313765541594
 20
330.7243005301508
  0
LWPOLYLINE
  5
71
102
{ACAD_REACTORS
330
6F
102
}
330
1F
100
AcDbEntity
  8
@__WIDOCZNE
  6
Continuous
370
    13
100
AcDbPolyline
 90
        6
 70
   129
 43
0.0
 10
-2820.381245109787
 20
320.8785999245503
 42
0.1273826308893613
 10
-2827.172363962857
 20
321.0534010932271
 42
0.2091253650713026
 10
-2829.856333700854
 20
318.5056024785986
 42
0.067218802794298
 10
-2829.824804476858
 20
316.5518331749557
 42
0.2977682718343915
 10
-2827.064627881339
 20
313.7143130742866
 42
0.0710664823309622
 10
-2820.381245109787
 20
313.7273783577705
  0
HATCH
  5
72
330
1F
100
AcDbEntity
  8
@__WIDOCZNE
  6
Continuous
370
    13
100
AcDbHatch
 10
0.0
 20
0.0
 30
0.0
210
0.0
220
0.0
230
1.0
  2
SOLID
 70
     1
 71
     1
 91
        1
 92
        2
 72
     1
 73
     1
 93
       26
 10
-2803.748176956649
 20
336.4077008206392
 42
0.0863077155126181
 10
-2809.540355904801
 20
334.9884587567216
 42
0.0
 10
-2809.540355904801
 20
308.9603659613153
 42
0.0
 10
-2803.041505005057
 20
308.9603659613153
 42
0.0
 10
-2803.041505005057
 20
330.7535986176417
 42
-0.12168371550613
 10
-2798.210115300663
 20
331.2298139668568
 42
-0.3861329478031837
 10
-2794.267795617895
 20
326.6384766067978
 42
0.0
 10
-2794.267795617895
 20
308.9603659613153
 42
0.0
 10
-2788.024101705947
 20
308.9603659613153
 42
0.0
 10
-2788.115054444803
 20
326.061432907458
 42
0.0
 10
-2788.024101705947
 20
326.0633085660855
 42
0.0799288732000265
 10
-2788.650879929669
 20
329.6156380979755
 42
0.0
 10
-2788.018533125743
 20
330.0066950721383
 42
-0.1916235362829357
 10
-2782.430359883532
 20
331.0943884905349
 42
-0.3589776600930252
 10
-2779.040687676314
 20
327.0404369934248
 42
0.0
 10
-2779.037566139682
 20
308.9603659613153
 42
0.0
 10
-2773.083398246948
 20
308.9603659613153
 42
0.0
 10
-2773.08604451268
 20
328.2943799691624
 42
0.3475935087177212
 10
-2780.332313072368
 20
336.6245828419991
 42
0.0
 10
-2785.234429107914
 20
336.6245828419991
 42
0.0002381544695914
 10
-2785.268156267042
 20
336.6222092761131
 42
0.1173548723086789
 10
-2788.268533020097
 20
335.7548621790425
 42
0.1053500657717058
 10
-2791.373965167621
 20
333.8034996970962
 42
0.1560368886834541
 10
-2795.974759321647
 20
336.463610942217
 42
0.0158994515272265
 10
-2798.188288989733
 20
336.6245828419991
 42
0.0
 10
-2801.035663687062
 20
336.6245828419991
 42
0.0194967579096993
 97
        1
330
73
 75
     0
 76
     1
 98
        0
  0
LWPOLYLINE
  5
73
102
{ACAD_REACTORS
330
72
102
}
330
1F
100
AcDbEntity
  8
@__WIDOCZNE
  6
Continuous
370
    13
100
AcDbPolyline
 90
       26
 70
   129
 43
0.0
 10
-2803.748176956649
 20
336.4077008206392
 42
0.0863077155126181
 10
-2809.540355904801
 20
334.9884587567216
 10
-2809.540355904801
 20
308.9603659613153
 10
-2803.041505005057
 20
308.9603659613153
 10
-2803.041505005057
 20
330.7535986176417
 42
-0.12168371550613
 10
-2798.210115300663
 20
331.2298139668568
 42
-0.3861329478031837
 10
-2794.267795617895
 20
326.6384766067978
 10
-2794.267795617895
 20
308.9603659613153
 10
-2788.024101705947
 20
308.9603659613153
 10
-2788.115054444803
 20
326.061432907458
 10
-2788.024101705947
 20
326.0633085660855
 42
0.0799288732000265
 10
-2788.650879929669
 20
329.6156380979755
 10
-2788.018533125743
 20
330.0066950721383
 42
-0.1916235362829357
 10
-2782.430359883532
 20
331.0943884905349
 42
-0.3589776600930252
 10
-2779.040687676314
 20
327.0404369934248
 10
-2779.037566139682
 20
308.9603659613153
 10
-2773.083398246948
 20
308.9603659613153
 10
-2773.08604451268
 20
328.2943799691624
 42
0.3475935087177212
 10
-2780.332313072368
 20
336.6245828419991
 10
-2785.234429107914
 20
336.6245828419991
 42
0.0002381544695914
 10
-2785.268156267042
 20
336.6222092761131
 42
0.1173548723086789
 10
-2788.268533020097
 20
335.7548621790425
 42
0.1053500657717058
 10
-2791.373965167621
 20
333.8034996970962
 42
0.1560368886834541
 10
-2795.974759321647
 20
336.463610942217
 42
0.0158994515272265
 10
-2798.188288989733
 20
336.6245828419991
 10
-2801.035663687062
 20
336.6245828419991
 42
0.0194967579096993
  0
HATCH
  5
74
330
1F
100
AcDbEntity
  8
@__WIDOCZNE
  6
Continuous
370
    13
100
AcDbHatch
 10
0.0
 20
0.0
 30
0.0
210
0.0
220
0.0
230
1.0
  2
SOLID
 70
     1
 71
     1
 91
        2
 92
        2
 72
     1
 73
     1
 93
       14
 10
-2758.731127798567
 20
336.0020075955028
 42
0.2809658966461606
 10
-2767.928871795207
 20
326.4867886749123
 42
0.1091159824470767
 10
-2767.921974279127
 20
318.0023852381435
 42
0.2766399819923606
 10
-2758.682022034659
 20
309.3309649262581
 42
0.0392105095801167
 10
-2756.148256794645
 20
308.971462709124
 42
0.0
 10
-2747.340507738964
 20
308.9603659613153
 42
0.0
 10
-2746.241194639271
 20
314.3976075259924
 42
0.0
 10
-2755.442216915139
 20
314.3976075259924
 42
-0.1667294674755062
 10
-2759.431140117406
 20
315.76578313283
 42
-0.081638462027361
 10
-2761.480000742519
 20
318.4006556807797
 42
-0.0661503038161424
 10
-2761.756650257322
 20
320.1700598950383
 42
0.0
 10
-2744.170245738669
 20
320.1700598950383
 42
0.0
 10
-2744.170245738669
 20
325.7893844157913
 42
0.3105787245802772
 10
-2752.562170753064
 20
336.015745468127
 42
0.1083142208160692
 97
        1
330
75
 92
        2
 72
     1
 73
     1
 93
        5
 10
-2754.229389376785
 20
331.3188270620553
 42
0.1431069476368757
 10
-2757.201761045819
 20
331.4243047444276
 42
0.3279495498710064
 10
-2761.754328157172
 20
325.2193968965184
 42
0.0
 10
-2750.067880660175
 20
325.2193968965184
 42
0.0
 10
-2750.067880660175
 20
325.6971840411755
 42
0.3298596086471468
 97
        1
330
76
 75
     0
 76
     1
 98
        0
  0
LWPOLYLINE
  5
75
102
{ACAD_REACTORS
330
74
102
}
330
1F
100
AcDbEntity
  8
@__WIDOCZNE
  6
Continuous
370
    13
100
AcDbPolyline
 90
       14
 70
   129
 43
0.0
 10
-2758.731127798567
 20
336.0020075955028
 42
0.2809658966461606
 10
-2767.928871795207
 20
326.4867886749123
 42
0.1091159824470767
 10
-2767.921974279127
 20
318.0023852381435
 42
0.2766399819923606
 10
-2758.682022034659
 20
309.3309649262581
 42
0.0392105095801167
 10
-2756.148256794645
 20
308.971462709124
 10
-2747.340507738964
 20
308.9603659613153
 10
-2746.241194639271
 20
314.3976075259924
 10
-2755.442216915139
 20
314.3976075259924
 42
-0.1667294674755062
 10
-2759.431140117406
 20
315.76578313283
 42
-0.081638462027361
 10
-2761.480000742519
 20
318.4006556807797
 42
-0.0661503038161424
 10
-2761.756650257322
 20
320.1700598950383
 10
-2744.170245738669
 20
320.1700598950383
 10
-2744.170245738669
 20
325.7893844157913
 42
0.3105787245802772
 10
-2752.562170753064
 20
336.015745468127
 42
0.1083142208160692
  0
LWPOLYLINE
  5
76
102
{ACAD_REACTORS
330
74
102
}
330
1F
100
AcDbEntity
  8
@__WIDOCZNE
  6
Continuous
370
    13
100
AcDbPolyline
 90
        5
 70
   129
 43
0.0
 10
-2754.229389376785
 20
331.3188270620553
 42
0.1431069476368757
 10
-2757.201761045819
 20
331.4243047444276
 42
0.3279495498710064
 10
-2761.754328157172
 20
325.2193968965184
 10
-2750.067880660175
 20
325.2193968965184
 10
-2750.067880660175
 20
325.6971840411755
 42
0.3298596086471468
  0
HATCH
  5
77
330
1F
100
AcDbEntity
  8
@__WIDOCZNE
  6
Continuous
370
    13
100
AcDbHatch
 10
0.0
 20
0.0
 30
0.0
210
0.0
220
0.0
230
1.0
  2
SOLID
 70
     1
 71
     1
 91
        1
 92
        2
 72
     1
 73
     1
 93
       13
 10
-2725.425592092508
 20
336.4462243157122
 42
0.0175531184166386
 10
-2728.233753822717
 20
336.6245828419991
 42
0.0
 10
-2730.504563465531
 20
336.6245828419991
 42
0.0177750747803509
 10
-2733.348131227655
 20
336.4427084965475
 42
0.0683229953867364
 10
-2739.668574120358
 20
335.1959151307196
 42
0.0
 10
-2739.668574120358
 20
308.9603659613153
 42
0.0
 10
-2733.420088827956
 20
308.9603659613153
 42
0.0
 10
-2733.420088827956
 20
330.7758355637824
 42
-0.0958663550348273
 10
-2727.329257704382
 20
331.0535909690884
 42
-0.3633763851128492
 10
-2723.651501399785
 20
326.661262963766
 42
0.0
 10
-2723.651501399785
 20
308.9603659613153
 42
0.0
 10
-2717.566431137261
 20
308.9603659613153
 42
0.0
 10
-2717.566431137261
 20
327.6078542628724
 42
0.3803017440747632
 97
        1
330
78
 75
     0
 76
     1
 98
        0
  0
LWPOLYLINE
  5
78
102
{ACAD_REACTORS
330
77
102
}
330
1F
100
AcDbEntity
  8
@__WIDOCZNE
  6
Continuous
370
    13
100
AcDbPolyline
 90
       13
 70
   129
 43
0.0
 10
-2725.425592092508
 20
336.4462243157122
 42
0.0175531184166386
 10
-2728.233753822717
 20
336.6245828419991
 10
-2730.504563465531
 20
336.6245828419991
 42
0.0177750747803509
 10
-2733.348131227655
 20
336.4427084965475
 42
0.0683229953867364
 10
-2739.668574120358
 20
335.1959151307196
 10
-2739.668574120358
 20
308.9603659613153
 10
-2733.420088827956
 20
308.9603659613153
 10
-2733.420088827956
 20
330.7758355637824
 42
-0.0958663550348273
 10
-2727.329257704382
 20
331.0535909690884
 42
-0.3633763851128492
 10
-2723.651501399785
 20
326.661262963766
 10
-2723.651501399785
 20
308.9603659613153
 10
-2717.566431137261
 20
308.9603659613153
 10
-2717.566431137261
 20
327.6078542628724
 42
0.3803017440747632
  0
HATCH
  5
79
330
1F
100
AcDbEntity
  8
@__WIDOCZNE
  6
Continuous
370
    13
100
AcDbHatch
 10
0.0
 20
0.0
 30
0.0
210
0.0
220
0.0
230
1.0
  2
SOLID
 70
     1
 71
     1
 91
        1
 92
        2
 72
     1
 73
     1
 93
       12
 10
-2712.825426567592
 20
317.5924928212775
 42
0.3564817226562251
 10
-2704.193351146863
 20
308.9901662517261
 42
0.0
 10
-2697.970105074034
 20
309.0116506029654
 42
0.0
 10
-2696.643853179129
 20
314.8140026431796
 42
0.0
 10
-2702.999060864483
 20
314.8140026431796
 42
-0.3014632934563285
 10
-2706.685794220844
 20
318.5007359995407
 42
0.0
 10
-2706.685794220844
 20
330.8915144664452
 42
0.0
 10
-2698.725084483111
 20
330.8915144664452
 42
0.0
 10
-2698.725084483111
 20
336.6245828419991
 42
0.0
 10
-2706.685794220844
 20
336.6245828419991
 42
0.0
 10
-2706.685794220844
 20
344.3674871597333
 42
0.0
 10
-2712.825426567592
 20
343.1187483773433
 42
0.0
 97
        1
330
7A
 75
     0
 76
     1
 98
        0
  0
LWPOLYLINE
  5
7A
102
{ACAD_REACTORS
330
79
102
}
330
1F
100
AcDbEntity
  8
@__WIDOCZNE
  6
Continuous
370
    13
100
AcDbPolyline
 90
       12
 70
   129
 43
0.0
 10
-2712.825426567592
 20
317.5924928212775
 42
0.3564817226562251
 10
-2704.193351146863
 20
308.9901662517261
 10
-2697.970105074034
 20
309.0116506029654
 10
-2696.643853179129
 20
314.8140026431796
 10
-2702.999060864483
 20
314.8140026431796
 42
-0.3014632934563285
 10
-2706.685794220844
 20
318.5007359995407
 10
-2706.685794220844
 20
330.8915144664452
 10
-2698.725084483111
 20
330.8915144664452
 10
-2698.725084483111
 20
336.6245828419991
 10
-2706.685794220844
 20
336.6245828419991
 10
-2706.685794220844
 20
344.3674871597333
 10
-2712.825426567592
 20
343.1187483773433
  0
HATCH
  5
7B
330
1F
100
AcDbEntity
  8
@__WIDOCZNE
  6
Continuous
370
    13
100
AcDbHatch
 10
0.0
 20
0.0
 30
0.0
210
0.0
220
0.0
230
1.0
  2
SOLID
 70
     1
 71
     1
 91
        2
 92
        2
 72
     1
 73
     1
 93
        9
 10
-2875.825570543109
 20
336.3871589226912
 42
0.2820479307333718
 10
-2885.247648653888
 20
326.8609540827146
 42
0.0886832537999132
 10
-2885.230505831446
 20
318.2108834655264
 42
0.2508564250541997
 10
-2876.514498502394
 20
308.9603659613153
 42
0.0
 10
-2869.007138351179
 20
308.9603659613153
 42
0.2670900430231695
 10
-2860.184563877685
 20
319.051366181843
 42
0.1207336614180937
 10
-2860.162540016834
 20
326.3956953494642
 42
0.3094451166888095
 10
-2869.504842795145
 20
336.3698914586104
 42
0.0268897328129527
 10
-2871.17739881132
 20
336.6245828419991
 42
0.074328415179198
 97
        1
330
7C
 92
        2
 72
     1
 73
     1
 93
        8
 10
-2879.043960719752
 20
325.5552666620898
 42
0.0948073731652809
 10
-2879.091989067278
 20
319.9458870594114
 42
0.0590800675341869
 10
-2878.546242335303
 20
318.0801515769311
 42
0.6394418664691048
 10
-2867.085709740092
 20
317.7320144849544
 42
0.0835238969854629
 10
-2866.368330837892
 20
320.0787671751213
 42
0.0916297819744675
 10
-2866.482100014895
 20
325.8385217919504
 42
0.2559732989582162
 10
-2870.688121310821
 20
331.053229931268
 42
0.1954327814670101
 10
-2874.964536786
 20
330.8789632185138
 42
0.2505066079508973
 97
        1
330
7D
 75
     0
 76
     1
 98
        0
  0
LWPOLYLINE
  5
7C
102
{ACAD_REACTORS
330
7B
102
}
330
1F
100
AcDbEntity
  8
@__WIDOCZNE
  6
Continuous
370
    13
100
AcDbPolyline
 90
        9
 70
   129
 43
0.0
 10
-2875.825570543109
 20
336.3871589226912
 42
0.2820479307333718
 10
-2885.247648653888
 20
326.8609540827146
 42
0.0886832537999132
 10
-2885.230505831446
 20
318.2108834655264
 42
0.2508564250541997
 10
-2876.514498502394
 20
308.9603659613153
 10
-2869.007138351179
 20
308.9603659613153
 42
0.2670900430231695
 10
-2860.184563877685
 20
319.051366181843
 42
0.1207336614180937
 10
-2860.162540016834
 20
326.3956953494642
 42
0.3094451166888095
 10
-2869.504842795145
 20
336.3698914586104
 42
0.0268897328129527
 10
-2871.17739881132
 20
336.6245828419991
 42
0.074328415179198
  0
LWPOLYLINE
  5
7D
102
{ACAD_REACTORS
330
7B
102
}
330
1F
100
AcDbEntity
  8
@__WIDOCZNE
  6
Continuous
370
    13
100
AcDbPolyline
 90
        8
 70
   129
 43
0.0
 10
-2879.043960719752
 20
325.5552666620898
 42
0.0948073731652809
 10
-2879.091989067278
 20
319.9458870594114
 42
0.0590800675341869
 10
-2878.546242335303
 20
318.0801515769311
 42
0.6394418664691048
 10
-2867.085709740092
 20
317.7320144849544
 42
0.0835238969854629
 10
-2866.368330837892
 20
320.0787671751213
 42
0.0916297819744675
 10
-2866.482100014895
 20
325.8385217919504
 42
0.2559732989582162
 10
-2870.688121310821
 20
331.053229931268
 42
0.1954327814670101
 10
-2874.964536786
 20
330.8789632185138
 42
0.2505066079508973
  0
HATCH
  5
7E
330
1F
100
AcDbEntity
  8
0
  6
Continuous
370
    13
100
AcDbHatch
 10
0.0
 20
0.0
 30
0.0
210
0.0
220
0.0
230
1.0
  2
Płyty_kamienne_0002
 70
     0
 71
     0
 91
        1
 92
        2
 72
     0
 73
     1
 93
        5
 10
-2355.484909696906
 20
557.3599607067213
 10
-2310.758374828541
 20
547.2355446833001
 10
-2261.810073291297
 20
549.6952681590426
 10
-2232.544231163606
 20
557.3980479098439
 10
-2354.869506588189
 20
558.1685162244162
 97
        0
 75
     0
 76
     2
 52
0.0
 41
1.0
 77
     0
 78
     2
 53
45.0
 43
0.0
 44
17.5
 45
-5.568465901844061
 46
5.568465901844062
 79
     4
 49
0.0
 49
-5.249999999999999
 49
0.0
 49
-7.875
 53
110.0
 43
17.5
 44
17.5
 45
7.400079388689027
 46
2.693408628689645
 79
     4
 49
0.0
 49
-3.85
 49
0.0
 49
-6.649999999999999
 98
        0
  0
HATCH
  5
7F
330
1F
100
AcDbEntity
  8
0
  6
Continuous
370
    13
100
AcDbHatch
 10
0.0
 20
0.0
 30
0.0
210
0.0
220
0.0
230
1.0
  2
Płyty_kamienne_0002
 70
     0
 71
     0
 91
        1
 92
        2
 72
     0
 73
     1
 93
        4
 10
-2755.648982778696
 20
1394.468775265203
 10
-2755.890086709074
 20
1506.679322428495
 10
-2767.389735861871
 20
1462.42736317635
 10
-2765.96418050966
 20
1444.440868347433
 97
        0
 75
     0
 76
     2
 52
0.0
 41
1.0
 77
     0
 78
     2
 53
45.0
 43
0.0
 44
17.5
 45
-5.568465901844061
 46
5.568465901844062
 79
     4
 49
0.0
 49
-5.249999999999999
 49
0.0
 49
-7.875
 53
110.0
 43
17.5
 44
17.5
 45
7.400079388689027
 46
2.693408628689645
 79
     4
 49
0.0
 49
-3.85
 49
0.0
 49
-6.649999999999999
 98
        0
  0
INSERT
  5
86
330
1F
100
AcDbEntity
  8
@__WIDOCZNE
  6
Continuous
370
    13
100
AcDbBlockReference
 66
     1
  2
Sygnał termostatu 12
 10
-2461.617314293257
 20
1565.695677541468
 30
0.0
  0
ATTRIB
  5
87
330
86
100
AcDbEntity
  8
@__WIDOCZNE
  6
Continuous
370
    13
100
AcDbText
 10
-2472.325635968103
 20
1559.44647495861
 30
0.0
 40
14.11111111111111
  1
01
  7
GENERATED_STYLE_1
 11
-2472.325635968103
 21
1555.275980166943
 31
0.0
100
AcDbAttribute
  2
txt
 70
     0
 74
     1
  0
SEQEND
  5
88
330
86
100
AcDbEntity
  8
@__WIDOCZNE
  6
Continuous
370
    13
  0
INSERT
  5
8E
330
1F
100
AcDbEntity
  8
@__WIDOCZNE
  6
Continuous
370
    13
100
AcDbBlockReference
 66
     1
  2
Sygnał termostatu 12_2
 10
-2461.617314293257
 20
1530.695677541469
 30
0.0
  0
ATTRIB
  5
8F
330
8E
100
AcDbEntity
  8
@__WIDOCZNE
  6
Continuous
370
    13
100
AcDbText
 10
-2472.325664896357
 20
1524.446509788777
 30
0.0
 40
14.11111111111111
  1
02
  7
GENERATED_STYLE_1
 11
-2472.325664896357
 21
1520.27601499711
 31
0.0
100
AcDbAttribute
  2
txt
 70
     0
 74
     1
  0
SEQEND
  5
90
330
8E
100
AcDbEntity
  8
@__WIDOCZNE
  6
Continuous
370
    13
  0
INSERT
  5
96
330
1F
100
AcDbEntity
  8
@__WIDOCZNE
  6
Continuous
370
    13
100
AcDbBlockReference
 66
     1
  2
Sygnał termostatu 12_3
 10
-2461.617314293257
 20
1495.695677541469
 30
0.0
  0
ATTRIB
  5
97
330
96
100
AcDbEntity
  8
@__WIDOCZNE
  6
Continuous
370
    13
100
AcDbText
 10
-2472.325664896357
 20
1489.446509788777
 30
0.0
 40
14.11111111111111
  1
03
  7
GENERATED_STYLE_1
 11
-2472.325664896357
 21
1485.27601499711
 31
0.0
100
AcDbAttribute
  2
txt
 70
     0
 74
     1
  0
SEQEND
  5
98
330
96
100
AcDbEntity
  8
@__WIDOCZNE
  6
Continuous
370
    13
  0
INSERT
  5
9E
330
1F
100
AcDbEntity
  8
@__WIDOCZNE
  6
Continuous
370
    13
100
AcDbBlockReference
 66
     1
  2
Sygnał termostatu 12_4
 10
-2461.617314293257
 20
1460.695677541468
 30
0.0
  0
ATTRIB
  5
9F
330
9E
100
AcDbEntity
  8
@__WIDOCZNE
  6
Continuous
370
    13
100
AcDbText
 10
-2472.325664896357
 20
1454.446509788777
 30
0.0
 40
14.11111111111111
  1
04
  7
GENERATED_STYLE_1
 11
-2472.325664896357
 21
1450.27601499711
 31
0.0
100
AcDbAttribute
  2
txt
 70
     0
 74
     1
  0
SEQEND
  5
A0
330
9E
100
AcDbEntity
  8
@__WIDOCZNE
  6
Continuous
370
    13
  0
INSERT
  5
A6
330
1F
100
AcDbEntity
  8
@__WIDOCZNE
  6
Continuous
370
    13
100
AcDbBlockReference
 66
     1
  2
Sygnał termostatu 12_5
 10
-2461.617314293257
 20
1425.695677541468
 30
0.0
  0
ATTRIB
  5
A7
330
A6
100
AcDbEntity
  8
@__WIDOCZNE
  6
Continuous
370
    13
100
AcDbText
 10
-2472.325664896357
 20
1419.446509788776
 30
0.0
 40
14.11111111111111
  1
05
  7
GENERATED_STYLE_1
 11
-2472.325664896357
 21
1415.27601499711
 31
0.0
100
AcDbAttribute
  2
txt
 70
     0
 74
     1
  0
SEQEND
  5
A8
330
A6
100
AcDbEntity
  8
@__WIDOCZNE
  6
Continuous
370
    13
  0
INSERT
  5
AE
330
1F
100
AcDbEntity
  8
@__WIDOCZNE
  6
Continuous
370
    13
100
AcDbBlockReference
 66
     1
  2
Sygnał termostatu 12_6
 10
-2461.617314293257
 20
1390.695677541468
 30
0.0
  0
ATTRIB
  5
AF
330
AE
100
AcDbEntity
  8
@__WIDOCZNE
  6
Continuous
370
    13
100
AcDbText
 10
-2472.325664896357
 20
1384.446509788777
 30
0.0
 40
14.11111111111111
  1
06
  7
GENERATED_STYLE_1
 11
-2472.325664896357
 21
1380.27601499711
 31
0.0
100
AcDbAttribute
  2
txt
 70
     0
 74
     1
  0
SEQEND
  5
B0
330
AE
100
AcDbEntity
  8
@__WIDOCZNE
  6
Continuous
370
    13
  0
INSERT
  5
B1
330
1F
100
AcDbEntity
  8
@__WIDOCZNE
  6
Continuous
370
    13
100
AcDbBlockReference
 66
     1
  2
Sygnał termostatu 12
 10
-2694.434919032792
 20
1235.951262051377
 30
0.0
  0
ATTRIB
  5
B2
330
B1
100
AcDbEntity
  8
@__WIDOCZNE
  6
Continuous
370
    13
100
AcDbText
 10
-2705.143240707638
 20
1229.702059468519
 30
0.0
 40
14.11111111111111
  1
01
  7
GENERATED_STYLE_1
 11
-2705.143240707638
 21
1225.531564676852
 31
0.0
100
AcDbAttribute
  2
txt
 70
     0
 74
     1
  0
SEQEND
  5
B3
330
B1
100
AcDbEntity
  8
@__WIDOCZNE
  6
Continuous
370
    13
  0
INSERT
  5
B4
330
1F
100
AcDbEntity
  8
@__WIDOCZNE
  6
Continuous
370
    13
100
AcDbBlockReference
 66
     1
  2
Sygnał termostatu 12_6
 10
-2689.683910785499
 20
1457.409890166809
 30
0.0
  0
ATTRIB
  5
B5
330
B4
100
AcDbEntity
  8
@__WIDOCZNE
  6
Continuous
370
    13
100
AcDbText
 10
-2700.3922613886
 20
1451.160722414118
 30
0.0
 40
14.11111111111111
  1
06
  7
GENERATED_STYLE_1
 11
-2700.3922613886
 21
1446.990227622451
 31
0.0
100
AcDbAttribute
  2
txt
 70
     0
 74
     1
  0
SEQEND
  5
B6
330
B4
100
AcDbEntity
  8
@__WIDOCZNE
  6
Continuous
370
    13
  0
INSERT
  5
B7
330
1F
100
AcDbEntity
  8
@__WIDOCZNE
  6
Continuous
370
    13
100
AcDbBlockReference
 66
     1
  2
Sygnał termostatu 12_2
 10
-2694.434919032792
 20
1185.951262051377
 30
0.0
  0
ATTRIB
  5
B8
330
B7
100
AcDbEntity
  8
@__WIDOCZNE
  6
Continuous
370
    13
100
AcDbText
 10
-2705.143269635893
 20
1179.702094298686
 30
0.0
 40
14.11111111111111
  1
02
  7
GENERATED_STYLE_1
 11
-2705.143269635893
 21
1175.531599507019
 31
0.0
100
AcDbAttribute
  2
txt
 70
     0
 74
     1
  0
SEQEND
  5
B9
330
B7
100
AcDbEntity
  8
@__WIDOCZNE
  6
Continuous
370
    13
  0
INSERT
  5
BA
330
1F
100
AcDbEntity
  8
@__WIDOCZNE
  6
Continuous
370
    13
100
AcDbBlockReference
 66
     1
  2
Sygnał termostatu 12_3
 10
-2644.434919032792
 20
1185.951262051377
 30
0.0
  0
ATTRIB
  5
BB
330
BA
100
AcDbEntity
  8
@__WIDOCZNE
  6
Continuous
370
    13
100
AcDbText
 10
-2655.143269635892
 20
1179.702094298686
 30
0.0
 40
14.11111111111111
  1
03
  7
GENERATED_STYLE_1
 11
-2655.143269635892
 21
1175.531599507019
 31
0.0
100
AcDbAttribute
  2
txt
 70
     0
 74
     1
  0
SEQEND
  5
BC
330
BA
100
AcDbEntity
  8
@__WIDOCZNE
  6
Continuous
370
    13
  0
INSERT
  5
BD
330
1F
100
AcDbEntity
  8
@__WIDOCZNE
  6
Continuous
370
    13
100
AcDbBlockReference
 66
     1
  2
Sygnał termostatu 12_4
 10
-2584.434919032791
 20
1185.951262051377
 30
0.0
  0
ATTRIB
  5
BE
330
BD
100
AcDbEntity
  8
@__WIDOCZNE
  6
Continuous
370
    13
100
AcDbText
 10
-2595.143269635892
 20
1179.702094298686
 30
0.0
 40
14.11111111111111
  1
04
  7
GENERATED_STYLE_1
 11
-2595.143269635892
 21
1175.531599507019
 31
0.0
100
AcDbAttribute
  2
txt
 70
     0
 74
     1
  0
SEQEND
  5
BF
330
BD
100
AcDbEntity
  8
@__WIDOCZNE
  6
Continuous
370
    13
  0
INSERT
  5
C0
330
1F
100
AcDbEntity
  8
@__WIDOCZNE
  6
Continuous
370
    13
100
AcDbBlockReference
 66
     1
  2
Sygnał termostatu 12_3
 10
-2545.683910785501
 20
1123.179463534641
 30
0.0
  0
ATTRIB
  5
C1
330
C0
100
AcDbEntity
  8
@__WIDOCZNE
  6
Continuous
370
    13
100
AcDbText
 10
-2556.392261388601
 20
1116.93029578195
 30
0.0
 40
14.11111111111111
  1
03
  7
GENERATED_STYLE_1
 11
-2556.392261388601
 21
1112.759800990283
 31
0.0
100
AcDbAttribute
  2
txt
 70
     0
 74
     1
  0
SEQEND
  5
C2
330
C0
100
AcDbEntity
  8
@__WIDOCZNE
  6
Continuous
370
    13
  0
INSERT
  5
C3
330
1F
100
AcDbEntity
  8
@__WIDOCZNE
  6
Continuous
370
    13
100
AcDbBlockReference
 66
     1
  2
Sygnał termostatu 12
 10
-2545.683910785501
 20
1077.068557836272
 30
0.0
  0
ATTRIB
  5
C4
330
C3
100
AcDbEntity
  8
@__WIDOCZNE
  6
Continuous
370
    13
100
AcDbText
 10
-2556.392232460347
 20
1070.819355253413
 30
0.0
 40
14.11111111111111
  1
01
  7
GENERATED_STYLE_1
 11
-2556.392232460347
 21
1066.648860461746
 31
0.0
100
AcDbAttribute
  2
txt
 70
     0
 74
     1
  0
SEQEND
  5
C5
330
C3
100
AcDbEntity
  8
@__WIDOCZNE
  6
Continuous
370
    13
  0
INSERT
  5
C6
330
1F
100
AcDbEntity
  8
@__WIDOCZNE
  6
Continuous
370
    13
100
AcDbBlockReference
 66
     1
  2
Sygnał termostatu 12_6
 10
-2288.260939954551
 20
629.8880006719841
 30
0.0
  0
ATTRIB
  5
C7
330
C6
100
AcDbEntity
  8
@__WIDOCZNE
  6
Continuous
370
    13
100
AcDbText
 10
-2298.969290557651
 20
623.6388329192922
 30
0.0
 40
14.11111111111111
  1
06
  7
GENERATED_STYLE_1
 11
-2298.969290557651
 21
619.4683381276255
 31
0.0
100
AcDbAttribute
  2
txt
 70
     0
 74
     1
  0
SEQEND
  5
C8
330
C6
100
AcDbEntity
  8
@__WIDOCZNE
  6
Continuous
370
    13
  0
INSERT
  5
C9
330
1F
100
AcDbEntity
  8
@__WIDOCZNE
  6
Continuous
370
    13
100
AcDbBlockReference
 66
     1
  2
Sygnał termostatu 12_5
 10
-2765.840220744021
 20
611.2631895467969
 30
0.0
  0
ATTRIB
  5
CA
330
C9
100
AcDbEntity
  8
@__WIDOCZNE
  6
Continuous
370
    13
100
AcDbText
 10
-2776.548571347122
 20
605.014021794105
 30
0.0
 40
14.11111111111111
  1
05
  7
GENERATED_STYLE_1
 11
-2776.548571347122
 21
600.8435270024383
 31
0.0
100
AcDbAttribute
  2
txt
 70
     0
 74
     1
  0
SEQEND
  5
CB
330
C9
100
AcDbEntity
  8
@__WIDOCZNE
  6
Continuous
370
    13
  0
INSERT
  5
CC
330
1F
100
AcDbEntity
  8
@__WIDOCZNE
  6
Continuous
370
    13
100
AcDbBlockReference
 66
     1
  2
Sygnał termostatu 12_3
 10
-2524.434919032793
 20
635.9512620513779
 30
0.0
  0
ATTRIB
  5
CD
330
CC
100
AcDbEntity
  8
@__WIDOCZNE
  6
Continuous
370
    13
100
AcDbText
 10
-2535.143269635893
 20
629.7020942986861
 30
0.0
 40
14.11111111111111
  1
03
  7
GENERATED_STYLE_1
 11
-2535.143269635893
 21
625.5315995070195
 31
0.0
100
AcDbAttribute
  2
txt
 70
     0
 74
     1
  0
SEQEND
  5
CE
330
CC
100
AcDbEntity
  8
@__WIDOCZNE
  6
Continuous
370
    13
  0
INSERT
  5
CF
330
1F
100
AcDbEntity
  8
@__WIDOCZNE
  6
Continuous
370
    13
100
AcDbBlockReference
 66
     1
  2
Sygnał termostatu 12_2
 10
-2574.434919032793
 20
635.9512620513775
 30
0.0
  0
ATTRIB
  5
D0
330
CF
100
AcDbEntity
  8
@__WIDOCZNE
  6
Continuous
370
    13
100
AcDbText
 10
-2585.143269635893
 20
629.7020942986858
 30
0.0
 40
14.11111111111111
  1
02
  7
GENERATED_STYLE_1
 11
-2585.143269635893
 21
625.5315995070191
 31
0.0
100
AcDbAttribute
  2
txt
 70
     0
 74
     1
  0
SEQEND
  5
D1
330
CF
100
AcDbEntity
  8
@__WIDOCZNE
  6
Continuous
370
    13
  0
INSERT
  5
D2
330
1F
100
AcDbEntity
  8
@__WIDOCZNE
  6
Continuous
370
    13
100
AcDbBlockReference
 66
     1
  2
Sygnał termostatu 12
 10
-2574.434919032793
 20
685.9512620513775
 30
0.0
  0
ATTRIB
  5
D3
330
D2
100
AcDbEntity
  8
@__WIDOCZNE
  6
Continuous
370
    13
100
AcDbText
 10
-2585.143240707639
 20
679.7020594685188
 30
0.0
 40
14.11111111111111
  1
01
  7
GENERATED_STYLE_1
 11
-2585.143240707639
 21
675.5315646768521
 31
0.0
100
AcDbAttribute
  2
txt
 70
     0
 74
     1
  0
SEQEND
  5
D4
330
D2
100
AcDbEntity
  8
@__WIDOCZNE
  6
Continuous
370
    13
  0
LINE
  5
D5
330
1F
100
AcDbEntity
  8
0
  6
Continuous
370
    13
100
AcDbLine
 10
-2288.260939954551
 20
614.8880006719835
 30
0.0
 11
-2288.260939954551
 21
554.9613702514852
 31
0.0
  0
CIRCLE
  5
D6
330
1F
100
AcDbEntity
  8
0
  6
Continuous
370
    13
100
AcDbCircle
 10
-2288.260939954551
 20
552.4613702514853
 30
0.0
 40
2.5
  0
HATCH
  5
D7
330
1F
100
AcDbEntity
  8
0
  6
Continuous
370
    13
100
AcDbHatch
 10
0.0
 20
0.0
 30
0.0
210
0.0
220
0.0
230
1.0
  2
SOLID
 70
     1
 71
     0
 91
        1
 92
        2
 72
     0
 73
     1
 93
       16
 10
-2285.760939954551
 20
552.4613702514853
 10
-2285.951241123273
 20
553.4180788323979
 10
-2286.493173001584
 20
554.2291372044516
 10
-2287.304231373638
 20
554.7710690827635
 10
-2288.260939954551
 20
554.9613702514852
 10
-2289.217648535463
 20
554.7710690827635
 10
-2290.028706907518
 20
554.2291372044516
 10
-2290.570638785829
 20
553.4180788323979
 10
-2290.760939954551
 20
552.4613702514853
 10
-2290.570638785829
 20
551.5046616705725
 10
-2290.028706907518
 20
550.693603298519
 10
-2289.217648535463
 20
550.1516714202071
 10
-2288.260939954551
 20
549.9613702514853
 10
-2287.304231373638
 20
550.1516714202071
 10
-2286.493173001584
 20
550.693603298519
 10
-2285.951241123273
 20
551.5046616705725
 97
        0
 75
     0
 76
     1
 98
        0
  0
LINE
  5
D8
330
1F
100
AcDbEntity
  8
0
  6
Continuous
370
    13
100
AcDbLine
 10
-2718.648982778698
 20
1127.168516224416
 30
0.0
 11
-2606.648982778697
 21
1127.168516224416
 31
0.0
  0
LINE
  5
D9
330
1F
100
AcDbEntity
  8
0
  6
Continuous
370
    13
100
AcDbLine
 10
-2616.648982778697
 20
1119.168516224416
 30
0.0
 11
-2606.648982778697
 21
1119.168516224416
 31
0.0
  0
LINE
  5
DA
330
1F
100
AcDbEntity
  8
0
  6
Continuous
370
    13
100
AcDbLine
 10
-2616.648982778697
 20
1119.168516224416
 30
0.0
 11
-2616.648982778697
 21
1127.168516224416
 31
0.0
  0
LINE
  5
DB
330
1F
100
AcDbEntity
  8
0
  6
Continuous
370
    13
100
AcDbLine
 10
-2736.648982778696
 20
1398.168516224416
 30
0.0
 11
-2726.648982778697
 21
1398.168516224416
 31
0.0
  0
LINE
  5
DC
330
1F
100
AcDbEntity
  8
0
  6
Continuous
370
    13
100
AcDbLine
 10
-2736.648982778696
 20
1390.168516224416
 30
0.0
 11
-2726.648982778697
 21
1390.168516224416
 31
0.0
  0
LINE
  5
DD
330
1F
100
AcDbEntity
  8
0
  6
Continuous
370
    13
100
AcDbLine
 10
-2767.389735861871
 20
1462.42736317635
 30
0.0
 11
-2755.648982778696
 21
1507.607117803888
 31
0.0
  0
LINE
  5
E0
330
1F
100
AcDbEntity
  8
Linia Izolacji - ARCHICAD
  6
IZOLACJA GRUBA
370
    13
100
AcDbLine
 10
-2751.648982778697
 20
1108.168516224416
 30
0.0
 11
-2751.648982778697
 21
1632.168516224417
 31
0.0
  0
LINE
  5
E2
330
1F
100
AcDbEntity
  8
Linia Izolacji - ARCHICAD
  6
IZOLACJA GRUBA
370
    13
100
AcDbLine
 10
-2640.648982778698
 20
1112.168516224416
 30
0.0
 11
-2738.581624629697
 21
1112.168516224416
 31
0.0
  0
LINE
  5
E3
330
1F
100
AcDbEntity
  8
Linia Izolacji - ARCHICAD
  6
IZOLACJA GRUBA
370
    13
100
AcDbLine
 10
-2738.581624629697
 20
1112.168516224416
 30
0.0
 11
-2751.648982778697
 21
1112.168516224416
 31
0.0
  0
LINE
  5
E4
330
1F
100
AcDbEntity
  8
0
  6
Continuous
370
    13
100
AcDbLine
 10
-2767.389735861871
 20
1462.42736317635
 30
0.0
 11
-2765.96418050966
 21
1444.440868347433
 31
0.0
  0
LINE
  5
E5
330
1F
100
AcDbEntity
  8
0
  6
Continuous
370
    13
100
AcDbLine
 10
-2718.648982778698
 20
1137.168516224416
 30
0.0
 11
-2718.648982778698
 21
1127.168516224416
 31
0.0
  0
LINE
  5
E6
330
1F
100
AcDbEntity
  8
0
  6
Continuous
370
    13
100
AcDbLine
 10
-2736.648982778696
 20
1632.168516224417
 30
0.0
 11
-2736.648982778696
 21
1145.168516224416
 31
0.0
  0
LINE
  5
E7
330
1F
100
AcDbEntity
  8
0
  6
Continuous
370
    13
100
AcDbLine
 10
-2736.648982778696
 20
1145.168516224416
 30
0.0
 11
-2747.633879146807
 21
1134.183619856304
 31
0.0
  0
LINE
  5
E8
330
1F
100
AcDbEntity
  8
0
  6
Continuous
370
    13
100
AcDbLine
 10
-2718.648982778698
 20
1127.168516224416
 30
0.0
 11
-2727.715479922495
 21
1116.16484375925
 31
0.0
  0
LINE
  5
E9
330
1F
100
AcDbEntity
  8
0
  6
Continuous
 62
    22
370
    50
100
AcDbLine
 10
-2751.648982778697
 20
1112.168516224416
 30
0.0
 11
-2751.648982778697
 21
1154.586444584994
 31
0.0
  0
LINE
  5
EA
330
1F
100
AcDbEntity
  8
0
  6
Continuous
370
    13
100
AcDbLine
 10
-2736.648982778696
 20
1145.168516224416
 30
0.0
 11
-2726.648982778697
 21
1145.168516224416
 31
0.0
  0
LINE
  5
EB
330
1F
100
AcDbEntity
  8
0
  6
Continuous
370
    13
100
AcDbLine
 10
-2135.384871061327
 20
587.1685162244162
 30
0.0
 11
-2135.384871061327
 21
577.1685162244163
 31
0.0
  0
LINE
  5
EC
330
1F
100
AcDbEntity
  8
0
  6
Continuous
370
    13
100
AcDbLine
 10
-2388.384871061325
 20
587.1685162244162
 30
0.0
 11
-2388.384871061325
 21
577.1685162244163
 31
0.0
  0
LINE
  5
ED
330
1F
100
AcDbEntity
  8
0
  6
Continuous
370
    13
100
AcDbLine
 10
-2380.384871061326
 20
587.1685162244162
 30
0.0
 11
-2380.384871061326
 21
577.1685162244163
 31
0.0
  0
LINE
  5
EE
330
1F
100
AcDbEntity
  8
0
  6
Continuous
370
    13
100
AcDbLine
 10
-2127.384871061327
 20
587.1685162244162
 30
0.0
 11
-2127.384871061327
 21
577.1685162244163
 31
0.0
  0
LINE
  5
EF
330
1F
100
AcDbEntity
  8
0
  6
Continuous
370
    50
100
AcDbLine
 10
-2845.648982778698
 20
558.1685162244162
 30
0.0
 11
-2845.648982778698
 21
483.1685162244162
 31
0.0
  0
LINE
  5
F0
330
1F
100
AcDbEntity
  8
0
  6
Continuous
370
    50
100
AcDbLine
 10
-2855.648982778698
 20
483.1685162244162
 30
0.0
 11
-2835.648982778698
 21
483.1685162244162
 31
0.0
  0
LINE
  5
F1
330
1F
100
AcDbEntity
  8
0
  6
Continuous
370
    50
100
AcDbLine
 10
-2845.648982778698
 20
558.1685162244162
 30
0.0
 11
-2845.648982778698
 21
633.1685162244163
 31
0.0
  0
LINE
  5
F2
330
1F
100
AcDbEntity
  8
0
  6
Continuous
370
    50
100
AcDbLine
 10
-2855.648982778698
 20
483.1685162244162
 30
0.0
 11
-2835.648982778698
 21
483.1685162244162
 31
0.0
  0
LINE
  5
F3
330
1F
100
AcDbEntity
  8
0
  6
Continuous
370
    50
100
AcDbLine
 10
-2855.648982778698
 20
633.1685162244163
 30
0.0
 11
-2835.648982778698
 21
633.1685162244163
 31
0.0
  0
LINE
  5
F4
330
1F
100
AcDbEntity
  8
0
  6
Continuous
370
    13
100
AcDbLine
 10
-2616.648982778697
 20
848.1685162244162
 30
0.0
 11
-2606.648982778697
 21
848.1685162244162
 31
0.0
  0
LINE
  5
F5
330
1F
100
AcDbEntity
  8
0
  6
Continuous
370
    13
100
AcDbLine
 10
-2598.648982778698
 20
587.1685162244162
 30
0.0
 11
-2598.648982778698
 21
577.1685162244163
 31
0.0
  0
LINE
  5
F6
330
1F
100
AcDbEntity
  8
0
  6
Continuous
370
    13
100
AcDbLine
 10
-2616.648982778697
 20
595.1685162244162
 30
0.0
 11
-2606.648982778697
 21
595.1685162244162
 31
0.0
  0
LINE
  5
F7
330
1F
100
AcDbEntity
  8
0
  6
Continuous
370
    13
100
AcDbLine
 10
-2616.648982778697
 20
840.1685162244162
 30
0.0
 11
-2606.648982778697
 21
840.1685162244162
 31
0.0
  0
LINE
  5
F8
330
1F
100
AcDbEntity
  8
0
  6
Continuous
370
    13
100
AcDbLine
 10
-2598.648982778698
 20
577.1685162244163
 30
0.0
 11
-2607.659819810035
 21
566.2323963804201
 31
0.0
  0
LINE
  5
F9
330
1F
100
AcDbEntity
  8
0
  6
Continuous
370
    13
100
AcDbLine
 10
-2616.648982778697
 20
595.1685162244162
 30
0.0
 11
-2627.626799591336
 21
584.1906994117764
 31
0.0
  0
LINE
  5
FA
330
1F
100
AcDbEntity
  8
0
  6
Continuous
370
    13
100
AcDbLine
 10
-2261.810073291297
 20
549.6952681590426
 30
0.0
 11
-2229.616923777422
 21
558.1685162244162
 31
0.0
  0
LINE
  5
FB
330
1F
100
AcDbEntity
  8
0
  6
Continuous
370
    13
100
AcDbLine
 10
-2310.758374828541
 20
547.2355446833001
 30
0.0
 11
-2261.810073291297
 21
549.6952681590426
 31
0.0
  0
LINE
  5
FC
330
1F
100
AcDbEntity
  8
0
  6
Continuous
370
    13
100
AcDbLine
 10
-2359.056857597064
 20
558.1685162244161
 30
0.0
 11
-2310.758374828541
 21
547.2355446833001
 31
0.0
  0
LINE
  5
FD
330
1F
100
AcDbEntity
  8
Linia Izolacji - ARCHICAD
  6
IZOLACJA GRUBA
370
    13
100
AcDbLine
 10
-2635.648982778697
 20
562.1685162244156
 30
0.0
 11
-2076.6489827787
 21
562.1685162244155
 31
0.0
  0
LINE
  5
FE
330
1F
100
AcDbEntity
  8
0
  6
Continuous
370
    35
100
AcDbLine
 10
-2876.648982778697
 20
558.1685162244162
 30
0.0
 11
-2076.648982778698
 21
558.1685162244161
 31
0.0
  0
LINE
  5
FF
330
1F
100
AcDbEntity
  8
0
  6
Continuous
370
    13
100
AcDbLine
 10
-2598.6489827787
 20
577.1685162244163
 30
0.0
 11
-2076.648982778698
 21
577.1685162244162
 31
0.0
  0
LINE
  5
100
330
1F
100
AcDbEntity
  8
0
  6
Continuous
370
    13
100
AcDbLine
 10
-2616.648982778697
 20
1119.168516224416
 30
0.0
 11
-2616.648982778697
 21
910.5666163971284
 31
0.0
  0
LINE
  5
102
330
1F
100
AcDbEntity
  8
0
  6
Przerywana
370
    13
100
AcDbLine
 10
-2876.648982778697
 20
1632.168516224417
 30
0.0
 11
-2876.648982778697
 21
910.5666163971284
 31
0.0
  0
LINE
  5
103
330
1F
100
AcDbEntity
  8
Linia Izolacji - ARCHICAD
  6
IZOLACJA GRUBA
370
    13
100
AcDbLine
 10
-2631.648982778698
 20
1103.168516224416
 30
0.0
 11
-2631.648982778698
 21
910.5666163971283
 31
0.0
  0
LINE
  5
104
330
1F
100
AcDbEntity
  8
Linia Izolacji - ARCHICAD
  6
IZOLACJA GRUBA
370
    13
100
AcDbLine
 10
-2631.648982778698
 20
558.1685162244162
 30
0.0
 11
-2631.648982778698
 21
890.5666163971284
 31
0.0
  0
LINE
  5
105
330
1F
100
AcDbEntity
  8
0
  6
Continuous
370
    13
100
AcDbLine
 10
-2616.648982778697
 20
890.5666163971284
 30
0.0
 11
-2616.648982778697
 21
595.1685162244162
 31
0.0
  0
LINE
  5
106
330
1F
100
AcDbEntity
  8
0
  6
Continuous
370
    50
100
AcDbLine
 10
-2473.188742864686
 20
955.4533300135988
 30
0.0
 11
-2890.140236102292
 21
955.4533300135988
 31
0.0
  0
LINE
  5
107
330
1F
100
AcDbEntity
  8
0
  6
Continuous
370
    13
100
AcDbLine
 10
-2704.6839107855
 20
1457.409890166809
 30
0.0
 11
-2756.618352727546
 21
1457.409890166809
 31
0.0
  0
CIRCLE
  5
108
330
1F
100
AcDbEntity
  8
0
  6
Continuous
370
    13
100
AcDbCircle
 10
-2759.118352727546
 20
1457.409890166809
 30
0.0
 40
2.5
  0
HATCH
  5
109
330
1F
100
AcDbEntity
  8
0
  6
Continuous
370
    13
100
AcDbHatch
 10
0.0
 20
0.0
 30
0.0
210
0.0
220
0.0
230
1.0
  2
SOLID
 70
     1
 71
     0
 91
        1
 92
        2
 72
     0
 73
     1
 93
       16
 10
-2756.618352727546
 20
1457.409890166809
 10
-2756.808653896268
 20
1458.366598747722
 10
-2757.350585774579
 20
1459.177657119776
 10
-2758.161644146633
 20
1459.719588998088
 10
-2759.118352727546
 20
1459.909890166809
 10
-2760.075061308458
 20
1459.719588998088
 10
-2760.886119680512
 20
1459.177657119776
 10
-2761.428051558824
 20
1458.366598747722
 10
-2761.618352727546
 20
1457.409890166809
 10
-2761.428051558824
 20
1456.453181585897
 10
-2760.886119680512
 20
1455.642123213843
 10
-2760.075061308458
 20
1455.100191335531
 10
-2759.118352727546
 20
1454.909890166809
 10
-2758.161644146633
 20
1455.100191335531
 10
-2757.350585774579
 20
1455.642123213843
 10
-2756.808653896268
 20
1456.453181585897
 97
        0
 75
     0
 76
     1
 98
        0
  0
LINE
  5
10A
330
1F
100
AcDbEntity
  8
0
  6
Continuous
370
    13
100
AcDbLine
 10
-2703.298003721367
 20
1173.849785703298
 30
0.0
 11
-2734.328925463743
 21
1131.480793561255
 31
0.0
  0
CIRCLE
  5
10B
330
1F
100
AcDbEntity
  8
0
  6
Continuous
370
    13
100
AcDbCircle
 10
-2735.806106245173
 20
1129.463880836575
 30
0.0
 40
2.5
  0
HATCH
  5
10C
330
1F
100
AcDbEntity
  8
0
  6
Continuous
370
    13
100
AcDbHatch
 10
0.0
 20
0.0
 30
0.0
210
0.0
220
0.0
230
1.0
  2
SOLID
 70
     1
 71
     0
 91
        1
 92
        2
 72
     0
 73
     1
 93
       16
 10
-2733.306106245173
 20
1129.463880836575
 10
-2733.496407413895
 20
1130.420589417488
 10
-2734.038339292206
 20
1131.231647789542
 10
-2734.84939766426
 20
1131.773579667854
 10
-2735.806106245173
 20
1131.963880836575
 10
-2736.762814826086
 20
1131.773579667854
 10
-2737.57387319814
 20
1131.231647789542
 10
-2738.115805076451
 20
1130.420589417488
 10
-2738.306106245173
 20
1129.463880836575
 10
-2738.115805076451
 20
1128.507172255662
 10
-2737.57387319814
 20
1127.696113883609
 10
-2736.762814826086
 20
1127.154182005297
 10
-2735.806106245173
 20
1126.963880836575
 10
-2734.84939766426
 20
1127.154182005297
 10
-2734.038339292206
 20
1127.696113883609
 10
-2733.496407413895
 20
1128.507172255662
 97
        0
 75
     0
 76
     1
 98
        0
  0
LINE
  5
10D
330
1F
100
AcDbEntity
  8
0
  6
Continuous
370
    13
100
AcDbLine
 10
-2750.394796000765
 20
1139.457566649716
 30
0.0
 11
-2701.960039700385
 21
1222.975416840442
 31
0.0
  0
CIRCLE
  5
10E
330
1F
100
AcDbEntity
  8
0
  6
Continuous
370
    13
100
AcDbCircle
 10
-2751.648982778697
 20
1137.294925781227
 30
0.0
 40
2.5
  0
HATCH
  5
10F
330
1F
100
AcDbEntity
  8
0
  6
Continuous
370
    13
100
AcDbHatch
 10
0.0
 20
0.0
 30
0.0
210
0.0
220
0.0
230
1.0
  2
SOLID
 70
     1
 71
     0
 91
        1
 92
        2
 72
     0
 73
     1
 93
       16
 10
-2749.148982778697
 20
1137.294925781227
 10
-2749.339283947419
 20
1138.25163436214
 10
-2749.881215825731
 20
1139.062692734193
 10
-2750.692274197784
 20
1139.604624612505
 10
-2751.648982778697
 20
1139.794925781227
 10
-2752.605691359609
 20
1139.604624612505
 10
-2753.416749731663
 20
1139.062692734193
 10
-2753.958681609975
 20
1138.25163436214
 10
-2754.148982778697
 20
1137.294925781227
 10
-2753.958681609975
 20
1136.338217200314
 10
-2753.416749731663
 20
1135.527158828261
 10
-2752.605691359609
 20
1134.985226949949
 10
-2751.648982778697
 20
1134.794925781227
 10
-2750.692274197784
 20
1134.985226949949
 10
-2749.881215825731
 20
1135.527158828261
 10
-2749.339283947419
 20
1136.338217200314
 97
        0
 75
     0
 76
     1
 98
        0
  0
LINE
  5
110
330
1F
100
AcDbEntity
  8
0
  6
Continuous
370
    13
100
AcDbLine
 10
-2721.384953218826
 20
1136.408130421409
 30
0.0
 11
-2657.046982806225
 21
1177.831172927802
 31
0.0
  0
CIRCLE
  5
111
330
1F
100
AcDbEntity
  8
0
  6
Continuous
370
    13
100
AcDbCircle
 10
-2723.486963847732
 20
1135.054782234146
 30
0.0
 40
2.5
  0
HATCH
  5
112
330
1F
100
AcDbEntity
  8
0
  6
Continuous
370
    13
100
AcDbHatch
 10
0.0
 20
0.0
 30
0.0
210
0.0
220
0.0
230
1.0
  2
SOLID
 70
     1
 71
     0
 91
        1
 92
        2
 72
     0
 73
     1
 93
       16
 10
-2720.986963847732
 20
1135.054782234146
 10
-2721.177265016453
 20
1136.011490815059
 10
-2721.719196894765
 20
1136.822549187112
 10
-2722.530255266819
 20
1137.364481065424
 10
-2723.486963847732
 20
1137.554782234146
 10
-2724.443672428644
 20
1137.364481065424
 10
-2725.254730800698
 20
1136.822549187112
 10
-2725.79666267901
 20
1136.011490815059
 10
-2725.986963847732
 20
1135.054782234146
 10
-2725.79666267901
 20
1134.098073653233
 10
-2725.254730800698
 20
1133.287015281179
 10
-2724.443672428644
 20
1132.745083402868
 10
-2723.486963847732
 20
1132.554782234146
 10
-2722.530255266819
 20
1132.745083402868
 10
-2721.719196894765
 20
1133.287015281179
 10
-2721.177265016453
 20
1134.098073653233
 97
        0
 75
     0
 76
     1
 98
        0
  0
LINE
  5
113
330
1F
100
AcDbEntity
  8
0
  6
Continuous
370
    13
100
AcDbLine
 10
-2626.037487803136
 20
1134.624541759209
 30
0.0
 11
-2593.880072900751
 21
1174.298405388286
 31
0.0
  0
CIRCLE
  5
114
330
1F
100
AcDbEntity
  8
0
  6
Continuous
370
    13
100
AcDbCircle
 10
-2627.611680114463
 20
1132.682398982027
 30
0.0
 40
2.5
  0
HATCH
  5
115
330
1F
100
AcDbEntity
  8
0
  6
Continuous
370
    13
100
AcDbHatch
 10
0.0
 20
0.0
 30
0.0
210
0.0
220
0.0
230
1.0
  2
SOLID
 70
     1
 71
     0
 91
        1
 92
        2
 72
     0
 73
     1
 93
       16
 10
-2625.111680114463
 20
1132.682398982027
 10
-2625.301981283184
 20
1133.639107562939
 10
-2625.843913161496
 20
1134.450165934993
 10
-2626.65497153355
 20
1134.992097813305
 10
-2627.611680114463
 20
1135.182398982027
 10
-2628.568388695375
 20
1134.992097813305
 10
-2629.379447067429
 20
1134.450165934993
 10
-2629.92137894574
 20
1133.639107562939
 10
-2630.111680114463
 20
1132.682398982027
 10
-2629.92137894574
 20
1131.725690401114
 10
-2629.379447067429
 20
1130.91463202906
 10
-2628.568388695375
 20
1130.372700150748
 10
-2627.611680114463
 20
1130.182398982027
 10
-2626.65497153355
 20
1130.372700150748
 10
-2625.843913161496
 20
1130.91463202906
 10
-2625.301981283184
 20
1131.725690401114
 97
        0
 75
     0
 76
     1
 98
        0
  0
LINE
  5
116
330
1F
100
AcDbEntity
  8
0
  6
Continuous
370
    13
100
AcDbLine
 10
-2560.683910785501
 20
1123.179463534641
 30
0.0
 11
-2609.109475848787
 21
1123.179463534641
 31
0.0
  0
CIRCLE
  5
117
330
1F
100
AcDbEntity
  8
0
  6
Continuous
370
    13
100
AcDbCircle
 10
-2611.609475848787
 20
1123.179463534641
 30
0.0
 40
2.5
  0
HATCH
  5
118
330
1F
100
AcDbEntity
  8
0
  6
Continuous
370
    13
100
AcDbHatch
 10
0.0
 20
0.0
 30
0.0
210
0.0
220
0.0
230
1.0
  2
SOLID
 70
     1
 71
     0
 91
        1
 92
        2
 72
     0
 73
     1
 93
       16
 10
-2609.109475848787
 20
1123.179463534641
 10
-2609.299777017509
 20
1124.136172115554
 10
-2609.841708895821
 20
1124.947230487608
 10
-2610.652767267875
 20
1125.48916236592
 10
-2611.609475848787
 20
1125.679463534641
 10
-2612.5661844297
 20
1125.48916236592
 10
-2613.377242801754
 20
1124.947230487608
 10
-2613.919174680066
 20
1124.136172115554
 10
-2614.109475848787
 20
1123.179463534641
 10
-2613.919174680066
 20
1122.222754953729
 10
-2613.377242801754
 20
1121.411696581675
 10
-2612.5661844297
 20
1120.869764703363
 10
-2611.609475848787
 20
1120.679463534642
 10
-2610.652767267875
 20
1120.869764703363
 10
-2609.841708895821
 20
1121.411696581675
 10
-2609.299777017509
 20
1122.222754953729
 97
        0
 75
     0
 76
     1
 98
        0
  0
LINE
  5
119
330
1F
100
AcDbEntity
  8
0
  6
Continuous
370
    13
100
AcDbLine
 10
-2583.298003721367
 20
623.8497857032979
 30
0.0
 11
-2614.328925463744
 21
581.4807935612554
 31
0.0
  0
CIRCLE
  5
11A
330
1F
100
AcDbEntity
  8
0
  6
Continuous
370
    13
100
AcDbCircle
 10
-2615.806106245173
 20
579.4638808365753
 30
0.0
 40
2.5
  0
HATCH
  5
11B
330
1F
100
AcDbEntity
  8
0
  6
Continuous
370
    13
100
AcDbHatch
 10
0.0
 20
0.0
 30
0.0
210
0.0
220
0.0
230
1.0
  2
SOLID
 70
     1
 71
     0
 91
        1
 92
        2
 72
     0
 73
     1
 93
       16
 10
-2613.306106245174
 20
579.4638808365753
 10
-2613.496407413896
 20
580.420589417488
 10
-2614.038339292207
 20
581.2316477895416
 10
-2614.849397664261
 20
581.7735796678535
 10
-2615.806106245173
 20
581.9638808365753
 10
-2616.762814826086
 20
581.7735796678535
 10
-2617.57387319814
 20
581.2316477895416
 10
-2618.115805076452
 20
580.420589417488
 10
-2618.306106245173
 20
579.4638808365753
 10
-2618.115805076452
 20
578.5071722556626
 10
-2617.57387319814
 20
577.696113883609
 10
-2616.762814826086
 20
577.1541820052971
 10
-2615.806106245173
 20
576.9638808365753
 10
-2614.849397664261
 20
577.1541820052971
 10
-2614.038339292207
 20
577.696113883609
 10
-2613.496407413896
 20
578.5071722556626
 97
        0
 75
     0
 76
     1
 98
        0
  0
LINE
  5
11C
330
1F
100
AcDbEntity
  8
0
  6
Continuous
370
    13
100
AcDbLine
 10
-2601.384953218827
 20
586.4081304214088
 30
0.0
 11
-2537.046982806226
 21
627.8311729278018
 31
0.0
  0
CIRCLE
  5
11D
330
1F
100
AcDbEntity
  8
0
  6
Continuous
370
    13
100
AcDbCircle
 10
-2603.486963847733
 20
585.054782234146
 30
0.0
 40
2.5
  0
HATCH
  5
11E
330
1F
100
AcDbEntity
  8
0
  6
Continuous
370
    13
100
AcDbHatch
 10
0.0
 20
0.0
 30
0.0
210
0.0
220
0.0
230
1.0
  2
SOLID
 70
     1
 71
     0
 91
        1
 92
        2
 72
     0
 73
     1
 93
       16
 10
-2600.986963847733
 20
585.054782234146
 10
-2601.177265016454
 20
586.0114908150588
 10
-2601.719196894766
 20
586.8225491871124
 10
-2602.53025526682
 20
587.3644810654242
 10
-2603.486963847733
 20
587.554782234146
 10
-2604.443672428645
 20
587.3644810654242
 10
-2605.254730800699
 20
586.8225491871124
 10
-2605.796662679011
 20
586.0114908150588
 10
-2605.986963847733
 20
585.054782234146
 10
-2605.796662679011
 20
584.0980736532334
 10
-2605.254730800699
 20
583.2870152811797
 10
-2604.443672428645
 20
582.7450834028679
 10
-2603.486963847733
 20
582.5547822341462
 10
-2602.53025526682
 20
582.7450834028679
 10
-2601.719196894766
 20
583.2870152811797
 10
-2601.177265016454
 20
584.0980736532334
 97
        0
 75
     0
 76
     1
 98
        0
  0
LINE
  5
11F
330
1F
100
AcDbEntity
  8
0
  6
Continuous
370
    13
100
AcDbLine
 10
-2843.148982778698
 20
611.2631895467969
 30
0.0
 11
-2780.84022074402
 21
611.2631895467969
 31
0.0
  0
CIRCLE
  5
120
330
1F
100
AcDbEntity
  8
0
  6
Continuous
370
    13
100
AcDbCircle
 10
-2845.648982778698
 20
611.2631895467969
 30
0.0
 40
2.5
  0
HATCH
  5
121
330
1F
100
AcDbEntity
  8
0
  6
Continuous
370
    13
100
AcDbHatch
 10
0.0
 20
0.0
 30
0.0
210
0.0
220
0.0
230
1.0
  2
SOLID
 70
     1
 71
     0
 91
        1
 92
        2
 72
     0
 73
     1
 93
       16
 10
-2843.148982778698
 20
611.2631895467969
 10
-2843.33928394742
 20
612.2198981277095
 10
-2843.881215825731
 20
613.0309564997631
 10
-2844.692274197786
 20
613.572888378075
 10
-2845.648982778698
 20
613.7631895467968
 10
-2846.605691359611
 20
613.572888378075
 10
-2847.416749731665
 20
613.0309564997631
 10
-2847.958681609976
 20
612.2198981277095
 10
-2848.148982778698
 20
611.2631895467969
 10
-2847.958681609976
 20
610.3064809658841
 10
-2847.416749731665
 20
609.4954225938305
 10
-2846.605691359611
 20
608.9534907155187
 10
-2845.648982778698
 20
608.7631895467969
 10
-2844.692274197786
 20
608.9534907155187
 10
-2843.881215825731
 20
609.4954225938305
 10
-2843.33928394742
 20
610.3064809658841
 97
        0
 75
     0
 76
     1
 98
        0
  0
LINE
  5
122
330
1F
100
AcDbEntity
  8
0
  6
Continuous
370
    50
100
AcDbLine
 10
-2726.648982778697
 20
1632.168516224417
 30
0.0
 11
-2726.648982778697
 21
1145.168516224416
 31
0.0
  0
LINE
  5
123
330
1F
100
AcDbEntity
  8
0
  6
Continuous
370
    50
100
AcDbLine
 10
-2718.648982778698
 20
1137.168516224416
 30
0.0
 11
-2611.648982778698
 21
1137.168516224416
 31
0.0
  0
LINE
  5
124
330
1F
100
AcDbEntity
  8
0
  6
Continuous
370
    50
100
AcDbLine
 10
-2606.648982778697
 20
1132.168516224416
 30
0.0
 11
-2606.648982778697
 21
910.5666163971284
 31
0.0
  0
LINE
  5
125
330
1F
100
AcDbEntity
  8
0
  6
Continuous
370
    50
100
AcDbLine
 10
-2606.648982778697
 20
890.5666163971284
 30
0.0
 11
-2606.648982778697
 21
595.1685162244162
 31
0.0
  0
LINE
  5
126
330
1F
100
AcDbEntity
  8
0
  6
Continuous
370
    50
100
AcDbLine
 10
-2598.648982778698
 20
587.1685162244161
 30
0.0
 11
-2076.648982778698
 21
587.1685162244161
 31
0.0
  0
LINE
  5
127
330
1F
100
AcDbEntity
  8
0
  6
Continuous
370
    50
100
AcDbLine
 10
-2473.188742864686
 20
955.4533300135988
 30
0.0
 11
-2473.188742864686
 21
1144.119093911639
 31
0.0
  0
LINE
  5
128
330
1F
100
AcDbEntity
  8
0
  6
Continuous
370
    50
100
AcDbLine
 10
-2473.188742864686
 20
424.6120772745262
 30
0.0
 11
-2473.188742864686
 21
889.4685976716714
 31
0.0
  0
LINE
  5
129
330
1F
100
AcDbEntity
  8
0
  6
Continuous
370
    13
100
AcDbLine
 10
-2026.648982778697
 20
380.3938700705705
 30
0.0
 11
-2026.648982778697
 21
270.3938700705704
 31
0.0
  0
LINE
  5
12A
330
1F
100
AcDbEntity
  8
0
  6
Continuous
370
    13
100
AcDbLine
 10
-2926.648982778698
 20
270.3938700705697
 30
0.0
 11
-2026.648982778697
 21
270.3938700705697
 31
0.0
  0
LINE
  5
12B
330
1F
100
AcDbEntity
  8
0
  6
Continuous
370
    13
100
AcDbLine
 10
-2765.96418050966
 20
1444.440868347433
 30
0.0
 11
-2755.863970835678
 21
1395.51028735981
 31
0.0
  0
LWPOLYLINE
  5
12C
330
1F
100
AcDbEntity
  8
0
  6
Continuous
370
    13
100
AcDbPolyline
 90
        4
 70
   129
 43
0.0
 10
-2926.78762946108
 20
270.3938700705704
 10
-2926.78762946108
 20
1705.393870070582
 10
-2026.648982778697
 20
1705.393870070582
 10
-2026.648982778697
 20
270.3938700705704
  0
LWPOLYLINE
  5
12D
330
1F
100
AcDbEntity
  8
@__WIDOCZNE
  6
Continuous
370
    13
100
AcDbPolyline
 90
        2
 70
   129
 43
0.0
 10
-2026.648982778697
 20
300.3938700705671
 10
-2658.78384367927
 20
300.3938700705671
  0
LWPOLYLINE
  5
12E
330
1F
100
AcDbEntity
  8
@__WIDOCZNE
  6
Continuous
370
    13
100
AcDbPolyline
 90
        4
 70
   129
 43
0.0
 10
-2926.648982778698
 20
380.3938700705585
 10
-2926.648982778698
 20
270.3938700705697
 10
-2026.648982778697
 20
270.3938700705704
 10
-2026.648982778697
 20
380.3938700705589
  0
LWPOLYLINE
  5
12F
330
1F
100
AcDbEntity
  8
@__WIDOCZNE
  6
Continuous
370
    13
100
AcDbPolyline
 90
        2
 70
   128
 43
0.0
 10
-2096.648982778627
 20
355.3938700705617
 10
-2096.648982778627
 20
380.3938700705589
  0
LWPOLYLINE
  5
130
330
1F
100
AcDbEntity
  8
@__WIDOCZNE
  6
Continuous
370
    13
100
AcDbPolyline
 90
        2
 70
   128
 43
0.0
 10
-2026.648982778697
 20
355.3938700705617
 10
-2181.648982778654
 20
355.3938700705617
  0
LWPOLYLINE
  5
131
330
1F
100
AcDbEntity
  8
@__WIDOCZNE
  6
Continuous
370
    13
100
AcDbPolyline
 90
        2
 70
   128
 43
0.0
 10
-2181.648982778654
 20
300.3938700705671
 10
-2181.648982778654
 20
380.3938700705589
  0
LWPOLYLINE
  5
132
330
1F
100
AcDbEntity
  8
@__WIDOCZNE
  6
Continuous
370
    13
100
AcDbPolyline
 90
        2
 70
   128
 43
0.0
 10
-2658.78384367927
 20
380.3938700705585
 10
-2658.78384367927
 20
270.3938700705693
  0
LWPOLYLINE
  5
133
330
1F
100
AcDbEntity
  8
@__WIDOCZNE
  6
Continuous
370
    13
100
AcDbPolyline
 90
        4
 70
   129
 43
0.0
 10
-2001.645131481965
 20
245.168954341384
 10
-3051.806885944926
 20
245.168954341384
 10
-3051.806885944925
 20
1730.397721367315
 10
-2001.645131481964
 20
1730.397721367315
  0
LWPOLYLINE
  5
134
330
1F
100
AcDbEntity
  8
0
  6
Continuous
 62
    22
370
    50
100
AcDbPolyline
 90
        4
 70
   128
 43
0.0
 10
-2677.645214678086
 20
1112.168516224416
 10
-2640.648982778698
 20
1112.168516224416
 42
-0.414213562373095
 10
-2631.648982778698
 20
1103.168516224416
 10
-2631.648982778698
 20
1064.802281214433
  0
ARC
  5
135
330
1F
100
AcDbEntity
  8
Linia Izolacji - ARCHICAD
  6
IZOLACJA GRUBA
370
    13
100
AcDbCircle
 10
-2640.648982778698
 20
1103.168516224416
 30
0.0
 40
9.000000000000341
100
AcDbArc
 50
0.0
 51
90.0
  0
ARC
  5
136
330
1F
100
AcDbEntity
  8
0
  6
Continuous
370
    50
100
AcDbCircle
 10
-2716.850832013312
 20
1146.9666669898
 30
0.0
 40
9.961782199799819
100
AcDbArc
 50
190.3991717286056
 51
259.6008282713879
  0
ARC
  5
137
330
1F
100
AcDbEntity
  8
0
  6
Continuous
370
    50
100
AcDbCircle
 10
-2611.648982778698
 20
1132.168516224416
 30
0.0
 40
5.000000000000782
100
AcDbArc
 50
0.0
 51
90.0
  0
ARC
  5
138
330
1F
100
AcDbEntity
  8
0
  6
Continuous
370
    50
100
AcDbCircle
 10
-2596.850832013313
 20
596.9666669898
 30
0.0
 40
9.961782199799819
100
AcDbArc
 50
190.399171728605
 51
259.6008282713879
  0
CIRCLE
  5
139
330
1F
100
AcDbEntity
  8
0
  6
Continuous
370
    13
100
AcDbCircle
 10
-2461.617314293257
 20
1565.695677541468
 30
0.0
 40
14.99999999999968
  0
CIRCLE
  5
13A
330
1F
100
AcDbEntity
  8
0
  6
Continuous
370
    35
100
AcDbCircle
 10
-2735.333820903985
 20
1127.483678099127
 30
0.0
 40
9.292786201295838
  0
ELLIPSE
  5
13B
330
1F
100
AcDbEntity
  8
0
  6
Continuous
370
    50
100
AcDbEllipse
 10
-2845.648982778698
 20
558.1685162244162
 30
0.0
 11
13.91977305422643
 21
0.0
 31
0.0
210
0.0
220
0.0
230
1.0
 40
0.432377710238472
 41
0.0
 42
6.283185307179586
  0
CIRCLE
  5
13C
330
1F
100
AcDbEntity
  8
0
  6
Continuous
370
    35
100
AcDbCircle
 10
-2615.333820903986
 20
577.4836780991274
 30
0.0
 40
9.292786201295838
  0
MTEXT
  5
13D
330
1F
100
AcDbEntity
  8
0
  6
Continuous
370
    13
100
AcDbMText
 10
-2440.888545709472
 20
1466.88627555431
 30
0.0
 40
10.0
 41
0.0
 71
     1
 72
     1
  1
{- PŁYTKA BASENOWA O ZAOKRĄGLONEJ\P  KRAWĘDZI}
  7
GENERATED_STYLE_1
 73
     1
 44
0.9305735717105633
  0
MTEXT
  5
13F
330
1F
100
AcDbEntity
  8
0
  6
Continuous
370
    13
100
AcDbMText
 10
-2440.888545709472
 20
1501.88627555431
 30
0.0
 40
9.999999999999998
 41
0.0
 71
     1
 72
     1
  1
\A1;{\pt163.418;\fArial|b0|i0|c238|p38;- SILIKON BASENOWY - \fArial|b1|i0|c238|p38;BOTAMENT S3}
  7
GENERATED_STYLE_1
 73
     1
 44
1.0
  0
MTEXT
  5
140
330
1F
100
AcDbEntity
  8
0
  6
Continuous
370
    13
100
AcDbMText
 10
-2440.888545709472
 20
1433.715914679945
 30
0.0
 40
10.0
 41
0.0
 71
     1
 72
     1
  1
{- TAŚMA DYLATACYJNA NA PRZERWIE \P  TECHNOLOGICZNEJ}
  7
GENERATED_STYLE_1
 73
     1
 44
0.9207281006216306
  0
MTEXT
  5
141
330
1F
100
AcDbEntity
  8
0
  6
Continuous
370
    13
100
AcDbMText
 10
-2440.888545709472
 20
1398.381573365674
 30
0.0
 40
9.999999999999998
 41
0.0
 71
     1
 72
     1
  3
\A1;{\fArial|b0|i0|c238|p38;- PROFILACJA, KOREKTA WYMIARÓW ORAZ\P  UZUPEŁNIENIE UBYTKÓW - SYSTEM BOTAMENT \P  - MOSTEK SZCZEPNY - \fArial|b1|i0|c238|p38;BOTAMENT HB1\P\fArial|b0|i0|c238|p38;  - GRUBOZIARNISTA MASA NAPRAWCZA:\P    \fArial|b1|i0|c238|
  1
p38;BOTAMENT M03\fArial|b0|i0|c238|p38; (gr. warstwy 6 ÷ 50 mm)\P  - DROBNOZIARNISTA MASA SZPACHLOWA:\P    \fArial|b1|i0|c238|p38;BOTAMENT M06\fArial|b0|i0|c238|p38; (gr. warstwy 2 ÷ 6 mm)}
  7
GENERATED_STYLE_1
 73
     1
 44
0.909845353860915
  0
MTEXT
  5
142
330
1F
100
AcDbEntity
  8
0
  6
Continuous
370
    13
100
AcDbMText
 10
-2473.188742864686
 20
1608.739944795846
 30
0.0
 40
15.0
 41
0.0
 71
     1
 72
     1
  1
{\LLEGENDA:}
  7
GENERATED_STYLE_1
 73
     1
 44
1.0
  0
MTEXT
  5
143
330
1F
100
AcDbEntity
  8
0
  6
Continuous
370
    13
100
AcDbMText
 10
-2440.888545709472
 20
1559.679583955865
 30
0.0
 40
9.999999999999998
 41
0.0
 71
     4
 72
     1
  1
\A1;{\fArial|b0|i0|c238|p38;- TAŚMA DYLATACYJNO - USZCZELNIAJĄCA - \P   \fArial|b1|i0|c238|p38;BOTAMENT SB78\fArial|b0|i0|c238|p38; (zatopiona w warstwie izolacyjnej)}
  7
GENERATED_STYLE_1
 73
     1
 44
0.9186980100444315
  0
MTEXT
  5
144
330
1F
100
AcDbEntity
  8
0
  6
Continuous
370
    13
100
AcDbMText
 10
-2440.888545709472
 20
1536.88627555431
 30
0.0
 40
10.0
 41
0.0
 71
     1
 72
     1
  1
{- SZNUR POLIETYLENOWY}
  7
GENERATED_STYLE_1
 73
     1
 44
1.0
  0
MTEXT
  5
145
330
1F
100
AcDbEntity
  8
0
  6
Continuous
370
    13
100
AcDbMText
 10
-2464.830238377161
 20
1141.73921677697
 30
0.0
 40
9.999999999999995
 41
0.0
 71
     1
 72
     1
  3
\A1;{\fArial|b0|i0|c238|p38;• PŁYTKI CERAMICZNE BASENOWE\P• WYPEŁNIENIE SPOIN - ZAPRAWA CHEMOODPORNA\P  - \fArial|b1|i0|c238|p38;BOTAMENT CF200\fArial|b0|i0|c238|p38; lub\P  - \fArial|b1|i0|c238|p38;MULTIFUGE Diamond MAX\P\fArial|b0|i0|c238|p38;• ZA
  3
PRAWA KLEJOWA\P  - \fArial|b1|i0|c238|p38;MULTILIGHT \fArial|b0|i0|c238|p38;lub\P  - \fArial|b1|i0|c238|p38;BOTAMENT M21HP\P\fArial|b0|i0|c238|p38;  - \fArial|b1|i0|c238|p38;MULTISTONE\fArial|b0|i0|c238|p38; (do mozaiki szklanej)\P• IZOLACJA PRZECIW
  1
WODNA - \fArial|b1|i0|c238|p38;BOTAMENT MD28\fArial|b0|i0|c238|p38; \P• PROFILACJA, KOREKTA WYMIARÓW ORAZ\P  UZUPEŁNIENIE UBYTKÓW - SYSTEM BOTAMENT \P• ŻELBETOWA NIECKA BASENU - ŚCIANA BOCZNA}
  7
GENERATED_STYLE_1
 73
     1
 44
0.8985250822162825
  0
MTEXT
  5
146
330
1F
100
AcDbEntity
  8
0
  6
Continuous
370
    13
100
AcDbMText
 10
-2464.269452692168
 20
887.1828833859571
 30
0.0
 40
9.999999999999998
 41
0.0
 71
     1
 72
     1
  3
\A1;{\fArial|b0|i0|c238|p38;• PŁYTKI CERAMICZNE BASENOWE\P• WYPEŁNIENIE SPOIN - ZAPRAWA CHEMOODPORNA\P  - \fArial|b1|i0|c238|p38;BOTAMENT CF200\fArial|b0|i0|c238|p38; lub\P  - \fArial|b1|i0|c238|p38;MULTIFUGE Diamond MAX\P\fArial|b0|i0|c238|p38;• ZA
  3
PRAWA KLEJOWA\P  - \fArial|b1|i0|c238|p38;MULTILIGHT \fArial|b0|i0|c238|p38;lub\P  - \fArial|b1|i0|c238|p38;BOTAMENT M21HP\P\fArial|b0|i0|c238|p38;  - \fArial|b1|i0|c238|p38;MULTISTONE\fArial|b0|i0|c238|p38; (do mozaiki szklanej)\P• IZOLACJA PRZECIW
  1
WODNA - \fArial|b1|i0|c238|p38;BOTAMENT MD28\P\fArial|b0|i0|c238|p38;• PROFILACJA, KOREKTA WYMIARÓW ORAZ\P  UZUPEŁNIENIE UBYTKÓW - SYSTEM BOTAMENT \P• ŻELBETOWA NIECKA BASENU - PŁYTA DENNA}
  7
GENERATED_STYLE_1
 73
     1
 44
0.9003034245756546
  0
MTEXT
  5
147
330
1F
100
AcDbEntity
  8
@__WIDOCZNE
  6
Continuous
370
    13
100
AcDbMText
 10
-2401.389467980973
 20
340.2905230688884
 30
0.0
 40
14.0
 41
0.0
 71
     5
 72
     1
  1
{IZOLACJA BASENU\P- SZCZEGÓŁ SPOCZNIKA I NAROŻNIKA}
  7
GENERATED_STYLE_2
 73
     1
 44
0.7938417127736347
  0
MTEXT
  5
148
330
1F
100
AcDbEntity
  8
@__WIDOCZNE
  6
Continuous
370
    13
100
AcDbMText
 10
-2177.461288863336
 20
308.415333502021
 30
0.0
 40
25.0
 41
0.0
 71
     7
 72
     1
  1
{08.01.02.}
  7
GENERATED_STYLE_2
 73
     1
 44
1.0
  0
MTEXT
  5
149
330
1F
100
AcDbEntity
  8
@__WIDOCZNE
  6
Continuous
370
    13
100
AcDbMText
 10
-2648.774878930399
 20
284.9289855621253
 30
0.0
 40
7.5
 41
0.0
 71
     4
 72
     1
  1
{Rysunek nie wyczerpuje wszystkich aspektów technicznych zagadnienia, a jego integralną częścią są karty techniczne \Pposzczególnych produktów. Szczegółowych informacji udzielają technicy zastosowań i doradcy handlowo-techniczni Botament. }
  7
GENERATED_STYLE_1
 73
     1
 44
0.9278263558916975
  0
MTEXT
  5
14A
330
1F
100
AcDbEntity
  8
@__WIDOCZNE
  6
Continuous
370
    13
100
AcDbMText
 10
-2791.917945333976
 20
285.8565174713805
 30
0.0
 40
7.5
 41
0.0
 71
     5
 72
     1
  1
{ ul. Prądzyńskiego 20, 63-000 Środa Wlkp., botament.pl\P +48 606-318-643, 61-286-45-17, technik@botament.pl  }
  7
GENERATED_STYLE_1
 73
     1
 44
0.9181612291118321
  0
MTEXT
  5
14B
330
1F
100
AcDbEntity
  8
@__WIDOCZNE
  6
Continuous
370
    13
100
AcDbMText
 10
-2181.648982778654
 20
353.6795843562759
 30
0.0
 40
7.5
 41
0.0
 71
     1
 72
     1
  1
{ nr rys:}
  7
GENERATED_STYLE_1
 73
     1
 44
1.0
  0
MTEXT
  5
14C
330
1F
100
AcDbEntity
  8
@__WIDOCZNE
  6
Continuous
370
    13
100
AcDbMText
 10
-2168.791114723098
 20
378.6795843562732
 30
0.0
 40
7.5
 41
0.0
 71
     2
 72
     1
  1
{ data:}
  7
GENERATED_STYLE_1
 73
     1
 44
1.0
  0
MTEXT
  5
14D
330
1F
100
AcDbEntity
  8
@__WIDOCZNE
  6
Continuous
370
    13
100
AcDbMText
 10
-2081.803211945293
 20
378.6795843562732
 30
0.0
 40
7.5
 41
0.0
 71
     2
 72
     1
  1
{ skala:}
  7
GENERATED_STYLE_1
 73
     1
 44
1.0
  0
MTEXT
  5
14E
330
1F
100
AcDbEntity
  8
@__WIDOCZNE
  6
Continuous
370
    13
100
AcDbMText
 10
-2049.506157314301
 20
358.6124472641739
 30
0.0
 40
10.0
 41
0.0
 71
     7
 72
     1
  1
{1:5 }
  7
GENERATED_STYLE_1
 73
     1
 44
1.0
  0
MTEXT
  5
14F
330
1F
100
AcDbEntity
  8
@__WIDOCZNE
  6
Continuous
370
    13
100
AcDbMText
 10
-2149.860782448848
 20
358.8962241586092
 30
0.0
 40
10.0
 41
0.0
 71
     7
 72
     1
  1
{2022.10.}
  7
GENERATED_STYLE_1
 73
     1
 44
1.0
  0
LINE
  5
150
330
1F
100
AcDbEntity
  8
0
  6
Continuous
 62
    22
370
    50
100
AcDbLine
 10
-2593.138577099053
 20
562.1685162244156
 30
0.0
 11
-2631.648982778698
 21
562.1685162244156
 31
0.0
  0
LINE
  5
151
330
1F
100
AcDbEntity
  8
0
  6
Continuous
 62
    22
370
    50
100
AcDbLine
 10
-2631.648982778698
 20
562.1685162244156
 30
0.0
 11
-2631.648982778698
 21
603.450324271735
 31
0.0
  0
MTEXT
  5
152
330
1F
100
AcDbEntity
  8
@__WIDOCZNE
  6
Continuous
370
    50
100
AcDbMText
 10
-2930.00621282027
 20
1704.387885029559
 30
0.0
 40
10.0
 41
0.0
 71
     9
 72
     1
  1
{druk: 221108}
  7
GENERATED_STYLE_1
 11
6.123233995736766E-17
 21
1.0
 31
0.0
 73
     1
 44
1.0
  0
LINE
  5
153
330
1F
100
AcDbEntity
  8
0
  6
Continuous
 62
    22
370
    50
100
AcDbLine
 10
-2713.370672631985
 20
1112.168516224416
 30
0.0
 11
-2751.648982778697
 21
1112.168516224416
 31
0.0
  0
WIPEOUT
  5
155
330
1F
100
AcDbEntity
  8
@__WIDOCZNE
  6
Wipeout_Contour
 62
   254
 48
11482.90225150088
370
     0
 92
      140
310
8C00000001000000840000000600000005000000AE9527F8BC79A6C060782D6E885C8C400000000000000000672021E0630EA4C060782D6E885C8C400000000000000000672021E0630EA4C062782D6E888C8C400000000000000000AE9527F8BC79A6C062782D6E888C8C400000000000000000AE9527F8BC79A6C060782D
310
6E885C8C400000000000000000
100
AcDbWipeout
 90
        0
 10
-2876.869080769559
 20
907.5666163971291
 30
0.0
 11
309.6740114229356
 21
0.0
 31
0.0
 12
0.0
 22
6.000000000000227
 32
0.0
 13
1.0
 23
1.0
340
0
 70
    15
280
     1
281
    50
282
    50
283
     0
360
0
 71
     2
 91
        5
 14
-0.5000000000000008
 24
0.5
 14
0.4999999999999993
 24
0.5
 14
0.4999999999999993
 24
-0.5
 14
-0.5000000000000008
 24
-0.5
 14
-0.5000000000000008
 24
0.5
  0
WIPEOUT
  5
157
330
1F
100
AcDbEntity
  8
@__WIDOCZNE
  6
Wipeout_Contour
 62
   254
 48
11457.71139709245
370
     0
 92
      140
310
8C00000001000000840000000600000005000000AE9527F8BC79A6C05D782D6E88BC8B400000000000000000672021E0630EA4C05D782D6E88BC8B400000000000000000672021E0630EA4C05F782D6E88EC8B400000000000000000AE9527F8BC79A6C05F782D6E88EC8B400000000000000000AE9527F8BC79A6C05D782D
310
6E88BC8B400000000000000000
100
AcDbWipeout
 90
        0
 10
-2876.869080769559
 20
887.5666163971288
 30
0.0
 11
309.6740114229356
 21
0.0
 31
0.0
 12
0.0
 22
6.000000000000227
 32
0.0
 13
1.0
 23
1.0
340
0
 70
    15
280
     1
281
    50
282
    50
283
     0
360
0
 71
     2
 91
        5
 14
-0.5000000000000008
 24
0.5
 14
0.4999999999999993
 24
0.5
 14
0.4999999999999993
 24
-0.5
 14
-0.5000000000000008
 24
-0.5
 14
-0.5000000000000008
 24
0.5
  0
WIPEOUT
  5
158
330
1F
100
AcDbEntity
  8
@__WIDOCZNE
  6
Wipeout_Contour
 62
   254
 48
10062.32221495386
370
     0
 92
      140
310
8C00000001000000840000000600000005000000578478474C79A6C06C8B113EB2227B400000000000000000E953F787D637A0C06C8B113EB2227B400000000000000000E953F787D637A0C0708B113EB2827B400000000000000000578478474C79A6C0708B113EB2827B400000000000000000578478474C79A6C06C8B11
310
3EB2227B400000000000000000
100
AcDbWipeout
 90
        0
 10
-2876.648982778697
 20
434.1685162244164
 30
0.0
 11
800.729976689493
 21
0.0
 31
0.0
 12
0.0
 22
6.000000000000227
 32
0.0
 13
1.0
 23
1.0
340
0
 70
    15
280
     1
281
    50
282
    50
283
     0
360
0
 71
     2
 91
        5
 14
-0.5
 24
0.5
 14
0.5
 24
0.5
 14
0.5
 24
-0.5
 14
-0.5
 24
-0.5
 14
-0.5
 24
0.5
  0
WIPEOUT
  5
159
330
1F
100
AcDbEntity
  8
@__WIDOCZNE
  6
Wipeout_Contour
 62
   254
 48
11840.31470170599
370
     0
 92
      140
310
8C00000001000000840000000600000005000000578478474C73A6C0678B113EB2527B400000000000000000578478474C73A6C05D782D6E88BC8B400000000000000000588478474C7FA6C05D782D6E88BC8B400000000000000000588478474C7FA6C0678B113EB2527B400000000000000000578478474C73A6C0678B11
310
3EB2527B400000000000000000
100
AcDbWipeout
 90
        0
 10
-2879.648982778697
 20
437.1685162244161
 30
0.0
 11
6.000000000000455
 21
0.0
 31
0.0
 12
0.0
 22
450.3981001727126
 32
0.0
 13
1.0
 23
1.0
340
0
 70
    15
280
     1
281
    50
282
    50
283
     0
360
0
 71
     2
 91
        5
 14
0.5000000000000379
 24
0.4999999999999999
 14
0.5000000000000379
 24
-0.5000000000000001
 14
-0.4999999999999621
 24
-0.5000000000000001
 14
-0.4999999999999621
 24
0.4999999999999999
 14
0.5000000000000379
 24
0.4999999999999999
  0
WIPEOUT
  5
15A
330
1F
100
AcDbEntity
  8
@__WIDOCZNE
  6
Wipeout_Contour
 62
   254
 48
12649.58938171652
370
     0
 92
      140
310
8C00000001000000840000000600000005000000578478474C73A6C05A782D6E88748C400000000000000000578478474C73A6C0DE62848FAC8099400000000000000000588478474C7FA6C0DE62848FAC8099400000000000000000588478474C7FA6C05A782D6E88748C400000000000000000578478474C73A6C05A782D
310
6E88748C400000000000000000
100
AcDbWipeout
 90
        0
 10
-2879.648982778697
 20
910.5666163971284
 30
0.0
 11
6.000000000000455
 21
0.0
 31
0.0
 12
0.0
 22
721.6018998272887
 32
0.0
 13
1.0
 23
1.0
340
0
 70
    15
280
     1
281
    50
282
    50
283
     0
360
0
 71
     2
 91
        5
 14
0.5000000000000379
 24
0.5000000000000001
 14
0.5000000000000379
 24
-0.4999999999999998
 14
-0.4999999999999621
 24
-0.4999999999999998
 14
-0.4999999999999621
 24
0.5000000000000001
 14
0.5000000000000379
 24
0.5000000000000001
  0
WIPEOUT
  5
15B
330
1F
100
AcDbEntity
  8
@__WIDOCZNE
  6
Wipeout_Contour
 62
   254
 48
12934.4569801277
370
     0
 92
      140
310
8C00000001000000840000000600000005000000AE9527F8BC79A6C0DF62848FAC7499400000000000000000CFFA93D8C022A5C0DF62848FAC7499400000000000000000CFFA93D8C022A5C0E062848FAC8C99400000000000000000AE9527F8BC79A6C0E062848FAC8C99400000000000000000AE9527F8BC79A6C0DF6284
310
8FAC7499400000000000000000
100
AcDbWipeout
 90
        0
 10
-2876.869080769559
 20
1629.168516224417
 30
0.0
 11
171.4924284102012
 21
0.0
 31
0.0
 12
0.0
 22
6.000000000000227
 32
0.0
 13
1.0
 23
1.0
340
0
 70
    15
280
     1
281
    50
282
    50
283
     0
360
0
 71
     2
 91
        5
 14
-0.5000000000000013
 24
0.500000000000019
 14
0.4999999999999987
 24
0.500000000000019
 14
0.4999999999999987
 24
-0.4999999999999811
 14
-0.5000000000000013
 24
-0.4999999999999811
 14
-0.5000000000000013
 24
0.500000000000019
  0
WIPEOUT
  5
15C
330
1F
100
AcDbEntity
  8
@__WIDOCZNE
  6
Wipeout_Contour
 62
   254
 48
8579.105456256355
370
     0
 92
      140
310
8C000000010000008400000006000000050000000373C996DB32A0C0678B113EB2527B4000000000000000000373C996DB32A0C02E29AAE51270834000000000000000000473C996DB3EA0C02E29AAE51270834000000000000000000473C996DB3EA0C0678B113EB2527B4000000000000000000373C996DB32A0C0678B11
310
3EB2527B400000000000000000
100
AcDbWipeout
 90
        0
 10
-2079.428884787836
 20
437.1685162244161
 30
0.0
 11
6.000000000000455
 21
0.0
 31
0.0
 12
0.0
 22
184.840710888718
 32
0.0
 13
1.0
 23
1.0
340
0
 70
    15
280
     1
281
    50
282
    50
283
     0
360
0
 71
     2
 91
        5
 14
0.5000000000000379
 24
0.5000000000000001
 14
0.5000000000000379
 24
-0.4999999999999998
 14
-0.4999999999999621
 24
-0.4999999999999998
 14
-0.4999999999999621
 24
0.5000000000000001
 14
0.5000000000000379
 24
0.5000000000000001
  0
LINE
  5
15D
330
1F
100
AcDbEntity
  8
0
  6
Continuous
370
    13
100
AcDbLine
 10
-2629.148982778698
 20
1077.068557836272
 30
0.0
 11
-2560.683910785501
 21
1077.068557836272
 31
0.0
  0
CIRCLE
  5
15E
330
1F
100
AcDbEntity
  8
0
  6
Continuous
370
    13
100
AcDbCircle
 10
-2631.648982778698
 20
1077.068557836272
 30
0.0
 40
2.5
  0
HATCH
  5
15F
330
1F
100
AcDbEntity
  8
0
  6
Continuous
370
    13
100
AcDbHatch
 10
0.0
 20
0.0
 30
0.0
210
0.0
220
0.0
230
1.0
  2
SOLID
 70
     1
 71
     0
 91
        1
 92
        2
 72
     0
 73
     1
 93
       16
 10
-2629.148982778698
 20
1077.068557836272
 10
-2629.33928394742
 20
1078.025266417184
 10
-2629.881215825731
 20
1078.836324789238
 10
-2630.692274197785
 20
1079.37825666755
 10
-2631.648982778698
 20
1079.568557836272
 10
-2632.60569135961
 20
1079.37825666755
 10
-2633.416749731664
 20
1078.836324789238
 10
-2633.958681609976
 20
1078.025266417184
 10
-2634.148982778698
 20
1077.068557836272
 10
-2633.958681609976
 20
1076.111849255359
 10
-2633.416749731664
 20
1075.300790883305
 10
-2632.60569135961
 20
1074.758859004993
 10
-2631.648982778698
 20
1074.568557836272
 10
-2630.692274197785
 20
1074.758859004993
 10
-2629.881215825731
 20
1075.300790883305
 10
-2629.33928394742
 20
1076.111849255359
 97
        0
 75
     0
 76
     1
 98
        0
  0
LINE
  5
160
330
1F
100
AcDbEntity
  8
0
  6
Continuous
370
    13
100
AcDbLine
 10
-2630.394796000766
 20
589.4575666497165
 30
0.0
 11
-2581.960039700386
 21
672.9754168404418
 31
0.0
  0
CIRCLE
  5
161
330
1F
100
AcDbEntity
  8
0
  6
Continuous
370
    13
100
AcDbCircle
 10
-2631.648982778698
 20
587.2949257812272
 30
0.0
 40
2.5
  0
HATCH
  5
162
330
1F
100
AcDbEntity
  8
0
  6
Continuous
370
    13
100
AcDbHatch
 10
0.0
 20
0.0
 30
0.0
210
0.0
220
0.0
230
1.0
  2
SOLID
 70
     1
 71
     0
 91
        1
 92
        2
 72
     0
 73
     1
 93
       16
 10
-2629.148982778698
 20
587.2949257812272
 10
-2629.33928394742
 20
588.25163436214
 10
-2629.881215825731
 20
589.0626927341935
 10
-2630.692274197785
 20
589.6046246125054
 10
-2631.648982778698
 20
589.7949257812272
 10
-2632.60569135961
 20
589.6046246125054
 10
-2633.416749731664
 20
589.0626927341935
 10
-2633.958681609976
 20
588.25163436214
 10
-2634.148982778698
 20
587.2949257812272
 10
-2633.958681609976
 20
586.3382172003145
 10
-2633.416749731664
 20
585.5271588282609
 10
-2632.60569135961
 20
584.985226949949
 10
-2631.648982778698
 20
584.7949257812272
 10
-2630.692274197785
 20
584.985226949949
 10
-2629.881215825731
 20
585.5271588282609
 10
-2629.33928394742
 20
586.3382172003145
 97
        0
 75
     0
 76
     1
 98
        0
  0
LINE
  5
163
330
1F
100
AcDbEntity
  8
@__WIDOCZNE
  6
Przerywana gęsta
370
    13
100
AcDbLine
 10
-2567.925046036118
 20
910.5666163971288
 30
0.0
 11
-2876.648982778697
 21
910.5666163971288
 31
0.0
  0
LINE
  5
164
330
1F
100
AcDbEntity
  8
@__WIDOCZNE
  6
Przerywana gęsta
370
    13
100
AcDbLine
 10
-2567.925046036118
 20
890.5666163971284
 30
0.0
 11
-2876.648982778697
 21
890.5666163971284
 31
0.0
  0
LINE
  5
165
330
1F
100
AcDbEntity
  8
@__WIDOCZNE
  6
Przerywana gęsta
370
    13
100
AcDbLine
 10
-2076.648982778698
 20
437.1685162244161
 30
0.0
 11
-2876.648982778697
 21
437.1685162244161
 31
0.0
  0
LINE
  5
166
330
1F
100
AcDbEntity
  8
@__WIDOCZNE
  6
Przerywana gęsta
370
    13
100
AcDbLine
 10
-2876.648982778697
 20
1632.168516224417
 30
0.0
 11
-2876.648982778697
 21
910.5666163971284
 31
0.0
  0
LINE
  5
167
330
1F
100
AcDbEntity
  8
@__WIDOCZNE
  6
Przerywana gęsta
370
    13
100
AcDbLine
 10
-2876.648982778697
 20
887.5666163971288
 30
0.0
 11
-2876.648982778697
 21
437.1685162244161
 31
0.0
  0
LINE
  5
168
330
1F
100
AcDbEntity
  8
@__WIDOCZNE
  6
Przerywana gęsta
370
    13
100
AcDbLine
 10
-2701.478002984866
 20
1632.168516224417
 30
0.0
 11
-2876.648982778697
 21
1632.168516224417
 31
0.0
  0
LINE
  5
169
330
1F
100
AcDbEntity
  8
@__WIDOCZNE
  6
Przerywana gęsta
370
    13
100
AcDbLine
 10
-2076.428884787836
 20
622.0092271131341
 30
0.0
 11
-2076.428884787836
 21
437.1685162244161
 31
0.0
  0
VIEWPORT
  5
5D
330
1B
100
AcDbEntity
 67
     1
  8
0
  6
Continuous
370
     0
100
AcDbViewport
 10
104.9838245537038
 20
148.4544916901222
 30
0.0
 40
252.0388210711109
 41
356.5092199437067
 68
     1
 69
     1
 12
104.9838245537038
 22
148.4544916901222
 13
0.0
 23
0.0
 14
0.5
 24
0.5
 15
0.0
 25
0.0
 16
0.0
 26
0.0
 36
1.0
 17
0.0
 27
0.0
 37
0.0
 42
50.0
 43
0.0
 44
0.0
 45
356.5092199437067
 50
0.0
 51
0.0
 72
   100
 90
   557152
  1

281
     0
 71
     1
 74
     0
110
0.0
120
0.0
130
0.0
111
1.0
121
0.0
131
0.0
112
0.0
122
1.0
132
0.0
 79
     0
146
0.0
170
     0
  0
INSERT
  5
170
102
{ACAD_XDICTIONARY
360
171
102
}
330
1B
100
AcDbEntity
 67
     1
  8
0
370
    13
100
AcDbBlockReference
  2
Rysunek_1
 10
0.0
 20
0.0
 30
0.0
  0
VIEWPORT
  5
174
330
1B
100
AcDbEntity
 67
     1
  8
NonPlottable_0
  6
Continuous
 62
    65
370
    20
100
AcDbViewport
 10
104.9838245537038
 20
148.4544916901222
 30
0.0
 40
210.0323508925924
 41
297.0910166197556
 68
     2
 69
     2
 12
0.0
 22
0.0
 13
0.0
 23
0.0
 14
0.5
 24
0.5
 15
0.0
 25
0.0
 16
0.0
 26
0.0
 36
1.0
 17
-2526.726008713445
 27
987.8050687072617
 37
0.0
 42
50.0
 43
0.0
 44
0.0
 45
1485.455083098778
 50
0.0
 51
0.0
 72
   100
 90
   622688
340
176
  1

281
     0
 71
     1
 74
     0
110
0.0
120
0.0
130
0.0
111
1.0
121
0.0
131
0.0
112
0.0
122
1.0
132
0.0
 79
     0
146
0.0
170
     0
  0
LWPOLYLINE
  5
176
102
{ACAD_REACTORS
330
174
102
}
330
1B
100
AcDbEntity
 67
     1
  8
NonPlottable_0
  6
Continuous
 62
    65
370
    20
100
AcDbPolyline
 90
        4
 70
   129
 43
0.0
 10
-0.0323508925924587
 20
-0.0910166197556146
 10
210.0
 20
-0.0910166197556146
 10
210.0
 20
297.0
 10
-0.0323508925924587
 20
297.0
  0
ENDSEC
  0
SECTION
  2
OBJECTS
  0
DICTIONARY
  5
C
330
0
100
AcDbDictionary
281
     1
  3
ACAD_GROUP
350
D
  3
ACAD_LAYOUT
350
1A
  3
ACAD_MLEADERSTYLE
350
17D
  3
ACAD_MLINESTYLE
350
17
  3
ACAD_PLOTSETTINGS
350
19
  3
ACAD_PLOTSTYLENAME
350
E
  3
ACAD_SCALELIST
350
3B
  3
ACAD_TABLESTYLE
350
17C
  3
ACAD_VISUALSTYLE
350
2A
  3
WATERMARKS
350
17A
  0
DICTIONARY
  5
171
330
170
100
AcDbDictionary
280
     1
281
     1
  3
ACAD_FILTER
360
172
  0
DICTIONARY
  5
D
102
{ACAD_REACTORS
330
C
102
}
330
C
100
AcDbDictionary
281
     1
  0
DICTIONARY
  5
1A
102
{ACAD_REACTORS
330
C
102
}
330
C
100
AcDbDictionary
281
     1
  3
02.04.2-20 ŚCIANA+PIWICA 08.01.
350
1E
  3
Layout2
350
26
  3
Model
350
22
  0
DICTIONARY
  5
17D
102
{ACAD_REACTORS
330
C
102
}
330
C
100
AcDbDictionary
281
     1
  0
DICTIONARY
  5
17
102
{ACAD_REACTORS
330
C
102
}
330
C
100
AcDbDictionary
281
     1
  3
Standard
350
18
  0
DICTIONARY
  5
19
102
{ACAD_REACTORS
330
C
102
}
330
C
100
AcDbDictionary
281
     1
  0
ACDBDICTIONARYWDFLT
  5
E
102
{ACAD_REACTORS
330
C
102
}
330
C
100
AcDbDictionary
281
     1
  3
Normal
350
F
100
AcDbDictionaryWithDefault
340
F
  0
DICTIONARY
  5
3B
102
{ACAD_REACTORS
330
C
102
}
330
C
100
AcDbDictionary
281
     1
  3
A0
350
3C
  3
A1
350
3D
  3
A2
350
3E
  3
A3
350
3F
  3
A4
350
40
  3
A5
350
41
  3
A6
350
42
  3
A7
350
43
  3
A8
350
44
  3
A9
350
45
  3
B0
350
46
  3
B1
350
47
  3
B2
350
48
  3
B3
350
49
  3
B4
350
4A
  3
B5
350
4B
  3
B6
350
4C
  3
B7
350
4D
  3
B8
350
4E
  3
B9
350
4F
  3
C0
350
50
  3
C1
350
51
  3
C2
350
52
  3
C3
350
53
  3
C4
350
54
  3
C5
350
55
  3
C6
350
56
  3
C7
350
57
  3
C8
350
58
  3
C9
350
59
  3
D0
350
5A
  3
D1
350
5B
  3
D2
350
5C
  0
DICTIONARY
  5
17C
102
{ACAD_REACTORS
330
C
102
}
330
C
100
AcDbDictionary
281
     1
  0
DICTIONARY
  5
2A
102
{ACAD_REACTORS
330
C
102
}
330
C
100
AcDbDictionary
281
     1
  3
2dWireframe
350
2F
  3
3D Hidden
350
31
  3
3dWireframe
350
30
  3
Basic
350
32
  3
Brighten
350
36
  3
ColorChange
350
3A
  3
Conceptual
350
34
  3
Dim
350
35
  3
Facepattern
350
39
  3
Flat
350
2B
  3
FlatWithEdges
350
2C
  3
Gouraud
350
2D
  3
GouraudWithEdges
350
2E
  3
Linepattern
350
38
  3
Realistic
350
33
  3
Thicken
350
37
  0
DICTIONARY
  5
17A
102
{ACAD_REACTORS
330
C
102
}
330
C
100
AcDbDictionary
281
     1
  3
AC_WATERMARK
350
17B
  0
DICTIONARY
  5
172
102
{ACAD_REACTORS
330
171
102
}
330
171
100
AcDbDictionary
280
     1
281
     1
  3
SPATIAL
360
173
  0
LAYOUT
  5
1E
102
{ACAD_REACTORS
330
1A
102
}
330
1A
100
AcDbPlotSettings
  1

  2
none_device
  4

  6

 40
0.0
 41
0.0
 42
0.0
 43
0.0
 44
210.0
 45
297.0
 46
0.0
 47
0.0
 48
0.0
 49
0.0
140
0.0
141
0.0
142
1.0
143
1.0
 70
   688
 72
     1
 73
     0
 74
     5
  7

 75
    16
 76
     0
 77
     2
 78
   300
147
1.0
148
0.0
149
0.0
100
AcDbLayout
  1
02.04.2-20 ŚCIANA+PIWICA 08.01.
 70
     0
 71
     1
 10
-0.0323508925924587
 20
-0.0910166197556146
 11
210.0
 21
297.0
 12
0.0
 22
0.0
 32
0.0
 14
-0.0323508925924587
 24
-0.0910166197556146
 34
0.0
 15
210.0
 25
297.0
 35
0.0
146
0.0
 13
0.0
 23
0.0
 33
0.0
 16
1.0
 26
0.0
 36
0.0
 17
0.0
 27
1.0
 37
0.0
 76
     0
330
1B
331
5D
  0
LAYOUT
  5
26
102
{ACAD_REACTORS
330
1A
102
}
330
1A
100
AcDbPlotSettings
  1

  2
none_device
  4

  6

 40
0.0
 41
0.0
 42
0.0
 43
0.0
 44
0.0
 45
0.0
 46
0.0
 47
0.0
 48
0.0
 49
0.0
140
0.0
141
0.0
142
1.0
143
1.0
 70
   688
 72
     0
 73
     0
 74
     5
  7

 75
    16
 76
     0
 77
     2
 78
   300
147
1.0
148
0.0
149
0.0
100
AcDbLayout
  1
Layout2
 70
     1
 71
     2
 10
0.0
 20
0.0
 11
0.0
 21
0.0
 12
0.0
 22
0.0
 32
0.0
 14
0.0
 24
0.0
 34
0.0
 15
0.0
 25
0.0
 35
0.0
146
0.0
 13
0.0
 23
0.0
 33
0.0
 16
1.0
 26
0.0
 36
0.0
 17
0.0
 27
1.0
 37
0.0
 76
     0
330
23
  0
LAYOUT
  5
22
102
{ACAD_REACTORS
330
1A
102
}
330
1A
100
AcDbPlotSettings
  1

  2
none_device
  4

  6

 40
0.0
 41
0.0
 42
0.0
 43
0.0
 44
0.0
 45
0.0
 46
0.0
 47
0.0
 48
0.0
 49
0.0
140
0.0
141
0.0
142
1.0
143
1.0
 70
  1712
 72
     0
 73
     0
 74
     0
  7

 75
     0
 76
     0
 77
     2
 78
   300
147
1.0
148
0.0
149
0.0
100
AcDbLayout
  1
Model
 70
     1
 71
     0
 10
0.0
 20
0.0
 11
12.0
 21
9.0
 12
0.0
 22
0.0
 32
0.0
 14
1.000000000000000E+20
 24
1.000000000000000E+20
 34
1.000000000000000E+20
 15
-1.000000000000000E+20
 25
-1.000000000000000E+20
 35
-1.000000000000000E+20
146
0.0
 13
0.0
 23
0.0
 33
0.0
 16
1.0
 26
0.0
 36
0.0
 17
0.0
 27
1.0
 37
0.0
 76
     0
330
1F
331
29
  0
MLINESTYLE
  5
18
102
{ACAD_REACTORS
330
17
102
}
330
17
100
AcDbMlineStyle
  2
Standard
 70
     0
  3

 62
   256
 51
90.0
 52
90.0
 71
     2
 49
0.5
 62
   256
  6
BYLAYER
 49
-0.5
 62
   256
  6
BYLAYER
  0
ACDBPLACEHOLDER
  5
F
102
{ACAD_REACTORS
330
E
102
}
330
E
  0
SCALE
  5
3C
102
{ACAD_REACTORS
330
3B
102
}
330
3B
100
AcDbScale
 70
     0
300
1:1
140
1.0
141
1.0
290
     1
  0
SCALE
  5
3D
102
{ACAD_REACTORS
330
3B
102
}
330
3B
100
AcDbScale
 70
     0
300
1:2
140
1.0
141
2.0
290
     0
  0
SCALE
  5
3E
102
{ACAD_REACTORS
330
3B
102
}
330
3B
100
AcDbScale
 70
     0
300
1:4
140
1.0
141
4.0
290
     0
  0
SCALE
  5
3F
102
{ACAD_REACTORS
330
3B
102
}
330
3B
100
AcDbScale
 70
     0
300
1:5
140
1.0
141
5.0
290
     0
  0
SCALE
  5
40
102
{ACAD_REACTORS
330
3B
102
}
330
3B
100
AcDbScale
 70
     0
300
1:8
140
1.0
141
8.0
290
     0
  0
SCALE
  5
41
102
{ACAD_REACTORS
330
3B
102
}
330
3B
100
AcDbScale
 70
     0
300
1:10
140
1.0
141
10.0
290
     0
  0
SCALE
  5
42
102
{ACAD_REACTORS
330
3B
102
}
330
3B
100
AcDbScale
 70
     0
300
1:16
140
1.0
141
16.0
290
     0
  0
SCALE
  5
43
102
{ACAD_REACTORS
330
3B
102
}
330
3B
100
AcDbScale
 70
     0
300
1:20
140
1.0
141
20.0
290
     0
  0
SCALE
  5
44
102
{ACAD_REACTORS
330
3B
102
}
330
3B
100
AcDbScale
 70
     0
300
1:30
140
1.0
141
30.0
290
     0
  0
SCALE
  5
45
102
{ACAD_REACTORS
330
3B
102
}
330
3B
100
AcDbScale
 70
     0
300
1:40
140
1.0
141
40.0
290
     0
  0
SCALE
  5
46
102
{ACAD_REACTORS
330
3B
102
}
330
3B
100
AcDbScale
 70
     0
300
1:50
140
1.0
141
50.0
290
     0
  0
SCALE
  5
47
102
{ACAD_REACTORS
330
3B
102
}
330
3B
100
AcDbScale
 70
     0
300
1:100
140
1.0
141
100.0
290
     0
  0
SCALE
  5
48
102
{ACAD_REACTORS
330
3B
102
}
330
3B
100
AcDbScale
 70
     0
300
2:1
140
2.0
141
1.0
290
     0
  0
SCALE
  5
49
102
{ACAD_REACTORS
330
3B
102
}
330
3B
100
AcDbScale
 70
     0
300
4:1
140
4.0
141
1.0
290
     0
  0
SCALE
  5
4A
102
{ACAD_REACTORS
330
3B
102
}
330
3B
100
AcDbScale
 70
     0
300
8:1
140
8.0
141
1.0
290
     0
  0
SCALE
  5
4B
102
{ACAD_REACTORS
330
3B
102
}
330
3B
100
AcDbScale
 70
     0
300
10:1
140
10.0
141
1.0
290
     0
  0
SCALE
  5
4C
102
{ACAD_REACTORS
330
3B
102
}
330
3B
100
AcDbScale
 70
     0
300
100:1
140
100.0
141
1.0
290
     0
  0
SCALE
  5
4D
102
{ACAD_REACTORS
330
3B
102
}
330
3B
100
AcDbScale
 70
     0
300
1/128" = 1'-0"
140
0.0078125
141
12.0
290
     0
  0
SCALE
  5
4E
102
{ACAD_REACTORS
330
3B
102
}
330
3B
100
AcDbScale
 70
     0
300
1/64" = 1'-0"
140
0.015625
141
12.0
290
     0
  0
SCALE
  5
4F
102
{ACAD_REACTORS
330
3B
102
}
330
3B
100
AcDbScale
 70
     0
300
1/32" = 1'-0"
140
0.03125
141
12.0
290
     0
  0
SCALE
  5
50
102
{ACAD_REACTORS
330
3B
102
}
330
3B
100
AcDbScale
 70
     0
300
1/16" = 1'-0"
140
0.0625
141
12.0
290
     0
  0
SCALE
  5
51
102
{ACAD_REACTORS
330
3B
102
}
330
3B
100
AcDbScale
 70
     0
300
3/32" = 1'-0"
140
0.09375
141
12.0
290
     0
  0
SCALE
  5
52
102
{ACAD_REACTORS
330
3B
102
}
330
3B
100
AcDbScale
 70
     0
300
1/8" = 1'-0"
140
0.125
141
12.0
290
     0
  0
SCALE
  5
53
102
{ACAD_REACTORS
330
3B
102
}
330
3B
100
AcDbScale
 70
     0
300
3/16" = 1'-0"
140
0.1875
141
12.0
290
     0
  0
SCALE
  5
54
102
{ACAD_REACTORS
330
3B
102
}
330
3B
100
AcDbScale
 70
     0
300
1/4" = 1'-0"
140
0.25
141
12.0
290
     0
  0
SCALE
  5
55
102
{ACAD_REACTORS
330
3B
102
}
330
3B
100
AcDbScale
 70
     0
300
3/8" = 1'-0"
140
0.375
141
12.0
290
     0
  0
SCALE
  5
56
102
{ACAD_REACTORS
330
3B
102
}
330
3B
100
AcDbScale
 70
     0
300
1/2" = 1'-0"
140
0.5
141
12.0
290
     0
  0
SCALE
  5
57
102
{ACAD_REACTORS
330
3B
102
}
330
3B
100
AcDbScale
 70
     0
300
3/4" = 1'-0"
140
0.75
141
12.0
290
     0
  0
SCALE
  5
58
102
{ACAD_REACTORS
330
3B
102
}
330
3B
100
AcDbScale
 70
     0
300
1" = 1'-0"
140
1.0
141
12.0
290
     0
  0
SCALE
  5
59
102
{ACAD_REACTORS
330
3B
102
}
330
3B
100
AcDbScale
 70
     0
300
1-1/2" = 1'-0"
140
1.5
141
12.0
290
     0
  0
SCALE
  5
5A
102
{ACAD_REACTORS
330
3B
102
}
330
3B
100
AcDbScale
 70
     0
300
3" = 1'-0"
140
3.0
141
12.0
290
     0
  0
SCALE
  5
5B
102
{ACAD_REACTORS
330
3B
102
}
330
3B
100
AcDbScale
 70
     0
300
6" = 1'-0"
140
6.0
141
12.0
290
     0
  0
SCALE
  5
5C
102
{ACAD_REACTORS
330
3B
102
}
330
3B
100
AcDbScale
 70
     0
300
1'-0" = 1'-0"
140
12.0
141
12.0
290
     0
  0
VISUALSTYLE
  5
2F
102
{ACAD_REACTORS
330
2A
102
}
330
2A
100
AcDbVisualStyle
  2
2dWireframe
 70
     4
 71
     0
 72
     2
 73
     0
 90
        0
 40
-0.6
 41
-30.0
 62
     5
 63
     7
421
 16777215
 74
     1
 91
        4
 64
     7
 65
   257
 75
     1
175
     1
 42
1.0
 92
        0
 66
   257
 43
1.0
 76
     1
 77
     6
 78
     2
 67
     7
 79
     5
170
     0
171
     0
290
     0
174
     0
 93
        1
 44
0.0
173
     0
291
     0
 45
0.0
1001
ACAD
1000
AcDbSavedByObjectVersion
1070
     0
  0
VISUALSTYLE
  5
31
102
{ACAD_REACTORS
330
2A
102
}
330
2A
100
AcDbVisualStyle
  2
3D Hidden
 70
     6
 71
     1
 72
     2
 73
     2
 90
        0
 40
-0.6
 41
-30.0
 62
     5
 63
     7
421
 16777215
 74
     2
 91
        2
 64
     7
 65
   257
 75
     2
175
     1
 42
40.0
 92
        0
 66
   257
 43
1.0
 76
     1
 77
     6
 78
     2
 67
     7
 79
     3
170
     0
171
     0
290
     0
174
     0
 93
        1
 44
0.0
173
     0
291
     0
 45
0.0
1001
ACAD
1000
AcDbSavedByObjectVersion
1070
     0
  0
VISUALSTYLE
  5
30
102
{ACAD_REACTORS
330
2A
102
}
330
2A
100
AcDbVisualStyle
  2
3dWireframe
 70
     5
 71
     0
 72
     2
 73
     0
 90
        0
 40
-0.6
 41
-30.0
 62
     5
 63
     7
421
 16777215
 74
     1
 91
        4
 64
     7
 65
   257
 75
     1
175
     1
 42
1.0
 92
        0
 66
   257
 43
1.0
 76
     1
 77
     6
 78
     2
 67
     7
 79
     5
170
     0
171
     0
290
     0
174
     0
 93
        1
 44
0.0
173
     0
291
     0
 45
0.0
1001
ACAD
1000
AcDbSavedByObjectVersion
1070
     0
  0
VISUALSTYLE
  5
32
102
{ACAD_REACTORS
330
2A
102
}
330
2A
100
AcDbVisualStyle
  2
Basic
 70
     7
 71
     1
 72
     0
 73
     1
 90
        0
 40
-0.6
 41
-30.0
 62
     5
 63
     7
421
 16777215
 74
     0
 91
        4
 64
     7
 65
   257
 75
     1
175
     1
 42
1.0
 92
        8
 66
     7
 43
1.0
 76
     1
 77
     6
 78
     2
 67
     7
 79
     5
170
     0
171
     0
290
     0
174
     0
 93
        1
 44
0.0
173
     0
291
     1
 45
0.0
1001
ACAD
1000
AcDbSavedByObjectVersion
1070
     0
  0
VISUALSTYLE
  5
36
102
{ACAD_REACTORS
330
2A
102
}
330
2A
100
AcDbVisualStyle
  2
Brighten
 70
    12
 71
     2
 72
     2
 73
     0
 90
        0
 40
-0.6
 41
-30.0
 62
     5
 63
     7
421
 16777215
 74
     1
 91
        4
 64
     7
 65
   257
 75
     1
175
     1
 42
1.0
 92
        8
 66
     7
 43
1.0
 76
     1
 77
     6
 78
     2
 67
     7
 79
     5
170
     0
171
     0
290
     0
174
     0
 93
        1
 44
50.0
173
     0
291
     1
 45
0.0
1001
ACAD
1000
AcDbSavedByObjectVersion
1070
     0
  0
VISUALSTYLE
  5
3A
102
{ACAD_REACTORS
330
2A
102
}
330
2A
100
AcDbVisualStyle
  2
ColorChange
 70
    16
 71
     2
 72
     2
 73
     3
 90
        0
 40
-0.6
 41
-30.0
 62
     5
 63
     8
421
  8421504
 74
     1
 91
        4
 64
     7
 65
   257
 75
     1
175
     1
 42
1.0
 92
        8
 66
     8
424
  8421504
 43
1.0
 76
     1
 77
     6
 78
     2
 67
     7
 79
     5
170
     0
171
     0
290
     0
174
     0
 93
        1
 44
0.0
173
     0
291
     1
 45
0.0
1001
ACAD
1000
AcDbSavedByObjectVersion
1070
     0
  0
VISUALSTYLE
  5
34
102
{ACAD_REACTORS
330
2A
102
}
330
2A
100
AcDbVisualStyle
  2
Conceptual
 70
     9
 71
     3
 72
     2
 73
     0
 90
        0
 40
-0.6
 41
-30.0
 62
     5
 63
     7
421
 16777215
 74
     2
 91
        2
 64
     7
 65
   257
 75
     1
175
     1
 42
40.0
 92
        8
 66
     7
 43
1.0
 76
     1
 77
     6
 78
     2
 67
     7
 79
     3
170
     0
171
     0
290
     0
174
     0
 93
        1
 44
0.0
173
     0
291
     0
 45
0.0
1001
ACAD
1000
AcDbSavedByObjectVersion
1070
     0
  0
VISUALSTYLE
  5
35
102
{ACAD_REACTORS
330
2A
102
}
330
2A
100
AcDbVisualStyle
  2
Dim
 70
    11
 71
     2
 72
     2
 73
     0
 90
        0
 40
-0.6
 41
-30.0
 62
     5
 63
     7
421
 16777215
 74
     1
 91
        4
 64
     7
 65
   257
 75
     1
175
     1
 42
1.0
 92
        8
 66
     7
 43
1.0
 76
     1
 77
     6
 78
     2
 67
     7
 79
     5
170
     0
171
     0
290
     0
174
     0
 93
        1
 44
-50.0
173
     0
291
     1
 45
0.0
1001
ACAD
1000
AcDbSavedByObjectVersion
1070
     0
  0
VISUALSTYLE
  5
39
102
{ACAD_REACTORS
330
2A
102
}
330
2A
100
AcDbVisualStyle
  2
Facepattern
 70
    15
 71
     2
 72
     2
 73
     0
 90
        0
 40
-0.6
 41
-30.0
 62
     5
 63
     7
421
 16777215
 74
     1
 91
        4
 64
     7
 65
   257
 75
     1
175
     1
 42
1.0
 92
        8
 66
     7
 43
1.0
 76
     1
 77
     6
 78
     2
 67
     7
 79
     5
170
     0
171
     0
290
     0
174
     0
 93
        1
 44
0.0
173
     0
291
     1
 45
0.0
1001
ACAD
1000
AcDbSavedByObjectVersion
1070
     0
  0
VISUALSTYLE
  5
2B
102
{ACAD_REACTORS
330
2A
102
}
330
2A
100
AcDbVisualStyle
  2
Flat
 70
     0
 71
     2
 72
     1
 73
     1
 90
        2
 40
-0.6
 41
30.0
 62
     5
 63
     7
421
 16777215
 74
     0
 91
        4
 64
     7
 65
   257
 75
     1
175
     1
 42
1.0
 92
        8
 66
     7
 43
1.0
 76
     1
 77
     6
 78
     2
 67
     7
 79
     5
170
     0
171
     0
290
     0
174
     0
 93
       13
 44
0.0
173
     0
291
     1
 45
0.0
1001
ACAD
1000
AcDbSavedByObjectVersion
1070
     0
  0
VISUALSTYLE
  5
2C
102
{ACAD_REACTORS
330
2A
102
}
330
2A
100
AcDbVisualStyle
  2
FlatWithEdges
 70
     1
 71
     2
 72
     1
 73
     1
 90
        2
 40
-0.6
 41
30.0
 62
     5
 63
     7
421
 16777215
 74
     1
 91
        4
 64
     7
 65
   257
 75
     1
175
     1
 42
1.0
 92
        0
 66
   257
 43
1.0
 76
     1
 77
     6
 78
     2
 67
     7
 79
     5
170
     0
171
     0
290
     0
174
     0
 93
       13
 44
0.0
173
     0
291
     1
 45
0.0
1001
ACAD
1000
AcDbSavedByObjectVersion
1070
     0
  0
VISUALSTYLE
  5
2D
102
{ACAD_REACTORS
330
2A
102
}
330
2A
100
AcDbVisualStyle
  2
Gouraud
 70
     2
 71
     2
 72
     2
 73
     1
 90
        2
 40
-0.6
 41
30.0
 62
     5
 63
     7
421
 16777215
 74
     0
 91
        4
 64
     7
 65
   257
 75
     1
175
     1
 42
1.0
 92
        0
 66
     7
 43
1.0
 76
     1
 77
     6
 78
     2
 67
     7
 79
     5
170
     0
171
     0
290
     0
174
     0
 93
       13
 44
0.0
173
     0
291
     1
 45
0.0
1001
ACAD
1000
AcDbSavedByObjectVersion
1070
     0
  0
VISUALSTYLE
  5
2E
102
{ACAD_REACTORS
330
2A
102
}
330
2A
100
AcDbVisualStyle
  2
GouraudWithEdges
 70
     3
 71
     2
 72
     2
 73
     1
 90
        2
 40
-0.6
 41
30.0
 62
     5
 63
     7
421
 16777215
 74
     1
 91
        4
 64
     7
 65
   257
 75
     1
175
     1
 42
1.0
 92
        0
 66
   257
 43
1.0
 76
     1
 77
     6
 78
     2
 67
     7
 79
     5
170
     0
171
     0
290
     0
174
     0
 93
       13
 44
0.0
173
     0
291
     1
 45
0.0
1001
ACAD
1000
AcDbSavedByObjectVersion
1070
     0
  0
VISUALSTYLE
  5
38
102
{ACAD_REACTORS
330
2A
102
}
330
2A
100
AcDbVisualStyle
  2
Linepattern
 70
    14
 71
     2
 72
     2
 73
     0
 90
        0
 40
-0.6
 41
-30.0
 62
     5
 63
     7
421
 16777215
 74
     1
 91
        4
 64
     7
 65
   257
 75
     7
175
     7
 42
1.0
 92
        8
 66
     7
 43
1.0
 76
     1
 77
     6
 78
     2
 67
     7
 79
     5
170
     0
171
     0
290
     0
174
     0
 93
        1
 44
0.0
173
     0
291
     1
 45
0.0
1001
ACAD
1000
AcDbSavedByObjectVersion
1070
     0
  0
VISUALSTYLE
  5
33
102
{ACAD_REACTORS
330
2A
102
}
330
2A
100
AcDbVisualStyle
  2
Realistic
 70
     8
 71
     2
 72
     2
 73
     0
 90
        0
 40
-0.6
 41
-30.0
 62
     5
 63
     7
421
 16777215
 74
     1
 91
        0
 64
     7
 65
   257
 75
     1
175
     1
 42
1.0
 92
        8
 66
     8
424
  7895160
 43
1.0
 76
     1
 77
     6
 78
     2
 67
     7
 79
     5
170
     0
171
     0
290
     0
174
     0
 93
       13
 44
0.0
173
     0
291
     0
 45
0.0
1001
ACAD
1000
AcDbSavedByObjectVersion
1070
     0
  0
VISUALSTYLE
  5
37
102
{ACAD_REACTORS
330
2A
102
}
330
2A
100
AcDbVisualStyle
  2
Thicken
 70
    13
 71
     2
 72
     2
 73
     0
 90
        0
 40
-0.6
 41
-30.0
 62
     5
 63
     7
421
 16777215
 74
     1
 91
        4
 64
     7
 65
   257
 75
     1
175
     1
 42
1.0
 92
       12
 66
     7
 43
1.0
 76
     1
 77
     6
 78
     2
 67
     7
 79
     5
170
     0
171
     0
290
     0
174
     0
 93
        1
 44
0.0
173
     0
291
     1
 45
0.0
1001
ACAD
1000
AcDbSavedByObjectVersion
1070
     0
  0
XRECORD
  5
17B
102
{ACAD_REACTORS
330
17A
102
}
330
17A
100
AcDbXrecord
280
     1
1000
Ten plik DWG został utworzony w programie ArchiCAD(TM)®
  0
SPATIAL_FILTER
  5
173
102
{ACAD_REACTORS
330
172
102
}
330
172
100
AcDbFilter
100
AcDbSpatialFilter
 70
     4
 10
0.0
 20
0.0
 10
210.0
 20
0.0
 10
210.0
 20
297.0
 10
0.0
 20
297.0
210
0.0
220
0.0
230
1.0
 11
0.0
 21
0.0
 31
0.0
 71
     1
 72
     0
 73
     0
 40
1.0
 40
0.0
 40
0.0
 40
0.0
 40
0.0
 40
1.0
 40
0.0
 40
0.0
 40
0.0
 40
0.0
 40
1.0
 40
0.0
 40
1.0
 40
0.0
 40
0.0
 40
0.0
 40
0.0
 40
1.0
 40
0.0
 40
0.0
 40
0.0
 40
0.0
 40
1.0
 40
0.0
  0
ENDSEC
  0
EOF
