  0
SECTION
  2
HEADER
  9
$ACADVER
  1
AC1018
  9
$ACADMAINTVER
 70
     0
  9
$DWGCODEPAGE
  3
ANSI_1250
  9
$INSBASE
 10
0.0
 20
0.0
 30
0.0
  9
$EXTMIN
 10
1.000000000000000E+20
 20
1.000000000000000E+20
 30
1.000000000000000E+20
  9
$EXTMAX
 10
-1.000000000000000E+20
 20
-1.000000000000000E+20
 30
-1.000000000000000E+20
  9
$LIMMIN
 10
0.0
 20
0.0
  9
$LIMMAX
 10
12.0
 20
9.0
  9
$ORTHOMODE
 70
     0
  9
$REGENMODE
 70
     1
  9
$FILLMODE
 70
     1
  9
$QTEXTMODE
 70
     0
  9
$MIRRTEXT
 70
     1
  9
$LTSCALE
 40
1.0
  9
$ATTMODE
 70
     1
  9
$TEXTSIZE
 40
0.2
  9
$TRACEWID
 40
0.05
  9
$TEXTSTYLE
  7
Standard
  9
$CLAYER
  8
0
  9
$CELTYPE
  6
ByLayer
  9
$CECOLOR
 62
   256
  9
$CELTSCALE
 40
1.0
  9
$DISPSILH
 70
     0
  9
$DIMSCALE
 40
1.0
  9
$DIMASZ
 40
0.18
  9
$DIMEXO
 40
0.0625
  9
$DIMDLI
 40
0.38
  9
$DIMRND
 40
0.0
  9
$DIMDLE
 40
0.0
  9
$DIMEXE
 40
0.18
  9
$DIMTP
 40
0.0
  9
$DIMTM
 40
0.0
  9
$DIMTXT
 40
0.18
  9
$DIMCEN
 40
0.09
  9
$DIMTSZ
 40
0.0
  9
$DIMTOL
 70
     0
  9
$DIMLIM
 70
     0
  9
$DIMTIH
 70
     1
  9
$DIMTOH
 70
     1
  9
$DIMSE1
 70
     0
  9
$DIMSE2
 70
     0
  9
$DIMTAD
 70
     0
  9
$DIMZIN
 70
     0
  9
$DIMBLK
  1

  9
$DIMASO
 70
     1
  9
$DIMSHO
 70
     1
  9
$DIMPOST
  1

  9
$DIMAPOST
  1

  9
$DIMALT
 70
     0
  9
$DIMALTD
 70
     2
  9
$DIMALTF
 40
25.4
  9
$DIMLFAC
 40
1.0
  9
$DIMTOFL
 70
     0
  9
$DIMTVP
 40
0.0
  9
$DIMTIX
 70
     0
  9
$DIMSOXD
 70
     0
  9
$DIMSAH
 70
     0
  9
$DIMBLK1
  1

  9
$DIMBLK2
  1

  9
$DIMSTYLE
  2
Standard
  9
$DIMCLRD
 70
     0
  9
$DIMCLRE
 70
     0
  9
$DIMCLRT
 70
     0
  9
$DIMTFAC
 40
1.0
  9
$DIMGAP
 40
0.09
  9
$DIMJUST
 70
     0
  9
$DIMSD1
 70
     0
  9
$DIMSD2
 70
     0
  9
$DIMTOLJ
 70
     1
  9
$DIMTZIN
 70
     0
  9
$DIMALTZ
 70
     0
  9
$DIMALTTZ
 70
     0
  9
$DIMUPT
 70
     0
  9
$DIMDEC
 70
     4
  9
$DIMTDEC
 70
     4
  9
$DIMALTU
 70
     2
  9
$DIMALTTD
 70
     2
  9
$DIMTXSTY
  7
Standard
  9
$DIMAUNIT
 70
     0
  9
$DIMADEC
 70
     0
  9
$DIMALTRND
 40
0.0
  9
$DIMAZIN
 70
     0
  9
$DIMDSEP
 70
    46
  9
$DIMATFIT
 70
     3
  9
$DIMFRAC
 70
     0
  9
$DIMLDRBLK
  1

  9
$DIMLUNIT
 70
     2
  9
$DIMLWD
 70
    -2
  9
$DIMLWE
 70
    -2
  9
$DIMTMOVE
 70
     0
  9
$LUNITS
 70
     2
  9
$LUPREC
 70
     4
  9
$SKETCHINC
 40
0.1
  9
$FILLETRAD
 40
0.5
  9
$AUNITS
 70
     0
  9
$AUPREC
 70
     0
  9
$MENU
  1
.
  9
$ELEVATION
 40
0.0
  9
$PELEVATION
 40
0.0
  9
$THICKNESS
 40
0.0
  9
$LIMCHECK
 70
     0
  9
$CHAMFERA
 40
0.5
  9
$CHAMFERB
 40
0.5
  9
$CHAMFERC
 40
1.0
  9
$CHAMFERD
 40
0.0
  9
$SKPOLY
 70
     0
  9
$TDCREATE
 40
2459892.610761771
  9
$TDUCREATE
 40
2459892.569095104
  9
$TDUPDATE
 40
2459892.610761783
  9
$TDUUPDATE
 40
2459892.569095116
  9
$TDINDWG
 40
0.0000000116
  9
$TDUSRTIMER
 40
0.0000000116
  9
$USRTIMER
 70
     1
  9
$ANGBASE
 50
0.0
  9
$ANGDIR
 70
     0
  9
$PDMODE
 70
     0
  9
$PDSIZE
 40
0.0
  9
$PLINEWID
 40
0.0
  9
$SPLFRAME
 70
     0
  9
$SPLINETYPE
 70
     6
  9
$SPLINESEGS
 70
     8
  9
$HANDSEED
  5
2D5
  9
$SURFTAB1
 70
     6
  9
$SURFTAB2
 70
     6
  9
$SURFTYPE
 70
     6
  9
$SURFU
 70
     6
  9
$SURFV
 70
     6
  9
$UCSBASE
  2

  9
$UCSNAME
  2

  9
$UCSORG
 10
0.0
 20
0.0
 30
0.0
  9
$UCSXDIR
 10
1.0
 20
0.0
 30
0.0
  9
$UCSYDIR
 10
0.0
 20
1.0
 30
0.0
  9
$UCSORTHOREF
  2

  9
$UCSORTHOVIEW
 70
     0
  9
$UCSORGTOP
 10
0.0
 20
0.0
 30
0.0
  9
$UCSORGBOTTOM
 10
0.0
 20
0.0
 30
0.0
  9
$UCSORGLEFT
 10
0.0
 20
0.0
 30
0.0
  9
$UCSORGRIGHT
 10
0.0
 20
0.0
 30
0.0
  9
$UCSORGFRONT
 10
0.0
 20
0.0
 30
0.0
  9
$UCSORGBACK
 10
0.0
 20
0.0
 30
0.0
  9
$PUCSBASE
  2

  9
$PUCSNAME
  2

  9
$PUCSORG
 10
0.0
 20
0.0
 30
0.0
  9
$PUCSXDIR
 10
1.0
 20
0.0
 30
0.0
  9
$PUCSYDIR
 10
0.0
 20
1.0
 30
0.0
  9
$PUCSORTHOREF
  2

  9
$PUCSORTHOVIEW
 70
     0
  9
$PUCSORGTOP
 10
0.0
 20
0.0
 30
0.0
  9
$PUCSORGBOTTOM
 10
0.0
 20
0.0
 30
0.0
  9
$PUCSORGLEFT
 10
0.0
 20
0.0
 30
0.0
  9
$PUCSORGRIGHT
 10
0.0
 20
0.0
 30
0.0
  9
$PUCSORGFRONT
 10
0.0
 20
0.0
 30
0.0
  9
$PUCSORGBACK
 10
0.0
 20
0.0
 30
0.0
  9
$USERI1
 70
     0
  9
$USERI2
 70
     0
  9
$USERI3
 70
     0
  9
$USERI4
 70
     0
  9
$USERI5
 70
     0
  9
$USERR1
 40
0.0
  9
$USERR2
 40
0.0
  9
$USERR3
 40
0.0
  9
$USERR4
 40
0.0
  9
$USERR5
 40
0.0
  9
$WORLDVIEW
 70
     1
  9
$SHADEDGE
 70
     3
  9
$SHADEDIF
 70
    70
  9
$TILEMODE
 70
     0
  9
$MAXACTVP
 70
    64
  9
$PINSBASE
 10
0.0
 20
0.0
 30
0.0
  9
$PLIMCHECK
 70
     0
  9
$PEXTMIN
 10
-0.0373702838302938
 20
-0.0528082348634758
 30
0.0
  9
$PEXTMAX
 10
210.0145871361454
 20
297.0166637024349
 30
0.0
  9
$PLIMMIN
 10
-0.0373702838302938
 20
-0.0528082348634758
  9
$PLIMMAX
 10
210.0145871361454
 20
297.0166637024349
  9
$UNITMODE
 70
     0
  9
$VISRETAIN
 70
     1
  9
$PLINEGEN
 70
     0
  9
$PSLTSCALE
 70
     0
  9
$TREEDEPTH
 70
  3020
  9
$CMLSTYLE
  2
Standard
  9
$CMLJUST
 70
     0
  9
$CMLSCALE
 40
1.0
  9
$PROXYGRAPHICS
 70
     1
  9
$MEASUREMENT
 70
     0
  9
$CELWEIGHT
370
    -1
  9
$ENDCAPS
280
     0
  9
$JOINSTYLE
280
     0
  9
$LWDISPLAY
290
     1
  9
$INSUNITS
 70
     0
  9
$HYPERLINKBASE
  1

  9
$STYLESHEET
  1

  9
$XEDIT
290
     1
  9
$CEPSNTYPE
380
     0
  9
$PSTYLEMODE
290
     1
  9
$FINGERPRINTGUID
  2
{2DC97BD1-1F95-46FA-98DD-2044A799FBDA}
  9
$VERSIONGUID
  2
{FAEB1C32-E019-11D5-929B-00C0DF256EC4}
  9
$EXTNAMES
290
     1
  9
$PSVPSCALE
 40
0.0
  9
$OLESTARTUP
290
     0
  9
$SORTENTS
280
   127
  9
$INDEXCTL
280
     0
  9
$HIDETEXT
280
     1
  9
$XCLIPFRAME
290
     0
  9
$HALOGAP
280
     0
  9
$OBSCOLOR
 70
   257
  9
$OBSLTYPE
280
     0
  9
$INTERSECTIONDISPLAY
280
     0
  9
$INTERSECTIONCOLOR
 70
   257
  9
$DIMASSOC
280
     2
  9
$PROJECTNAME
  1

  0
ENDSEC
  0
SECTION
  2
CLASSES
  0
CLASS
  1
ACDBDICTIONARYWDFLT
  2
AcDbDictionaryWithDefault
  3
ObjectDBX Classes
 90
        0
 91
        3
280
     0
281
     0
  0
CLASS
  1
VISUALSTYLE
  2
AcDbVisualStyle
  3
ObjectDBX Classes
 90
     4095
 91
        3
280
     0
281
     0
  0
CLASS
  1
SCALE
  2
AcDbScale
  3
ObjectDBX Classes
 90
     1153
 91
        3
280
     0
281
     0
  0
CLASS
  1
WIPEOUT
  2
AcDbWipeout
  3
WipeOut|AutoCAD Express Tool|expresstools@autodesk.com
 90
      127
 91
        3
280
     0
281
     1
  0
CLASS
  1
SPATIAL_FILTER
  2
AcDbSpatialFilter
  3
ObjectDBX Classes
 90
        0
 91
        3
280
     0
281
     0
  0
ENDSEC
  0
SECTION
  2
TABLES
  0
TABLE
  2
VPORT
  5
8
330
0
100
AcDbSymbolTable
 70
     1
  0
VPORT
  5
29
330
8
100
AcDbSymbolTableRecord
100
AcDbViewportTableRecord
  2
*Active
 70
     0
 10
0.0
 20
0.0
 11
1.0
 21
1.0
 12
10.42990654205607
 22
4.5
 13
0.0
 23
0.0
 14
0.5
 24
0.5
 15
0.5
 25
0.5
 16
0.0
 26
0.0
 36
1.0
 17
0.0
 27
0.0
 37
0.0
 40
9.0
 41
1.972972972850329
 42
50.0
 43
0.0
 44
0.0
 50
0.0
 51
0.0
 71
     0
 72
   100
 73
     1
 74
     3
 75
     0
 76
     0
 77
     0
 78
     0
281
     0
 65
     1
110
0.0
120
0.0
130
0.0
111
1.0
121
0.0
131
0.0
112
0.0
122
1.0
132
0.0
 79
     0
146
0.0
  0
ENDTAB
  0
TABLE
  2
LTYPE
  5
5
330
0
100
AcDbSymbolTable
 70
     4
  0
LTYPE
  5
14
330
5
100
AcDbSymbolTableRecord
100
AcDbLinetypeTableRecord
  2
ByBlock
 70
     0
  3

 72
    65
 73
     0
 40
0.0
  0
LTYPE
  5
15
330
5
100
AcDbSymbolTableRecord
100
AcDbLinetypeTableRecord
  2
ByLayer
 70
     0
  3

 72
    65
 73
     0
 40
0.0
  0
LTYPE
  5
16
330
5
100
AcDbSymbolTableRecord
100
AcDbLinetypeTableRecord
  2
Continuous
 70
     0
  3
Solid line
 72
    65
 73
     0
 40
0.0
  0
LTYPE
  5
82
330
5
100
AcDbSymbolTableRecord
100
AcDbLinetypeTableRecord
  2
Przerywana gęsta
 70
     0
  3
- - - - - 
 72
    65
 73
     2
 40
15.0
 49
10.0
 74
     0
 49
-5.0
 74
     0
  0
LTYPE
  5
26A
330
5
100
AcDbSymbolTableRecord
100
AcDbLinetypeTableRecord
  2
IZOLACJA GRUBA
 70
     0
  3
??????????
 72
    65
 73
     3
 40
50.0
 49
0.0
 74
     4
 75
     1
340
26B
 46
0.3968253968253968
 50
0.0
 44
0.0
 45
0.0
 49
-50.0
 74
     0
 49
0.0
 74
     0
  0
LTYPE
  5
2A0
330
5
100
AcDbSymbolTableRecord
100
AcDbLinetypeTableRecord
  2
Wipeout_Contour
 70
     0
  3
- - - - - 
 72
    65
 73
     2
 40
1000.0
 49
0.0
 74
     0
 49
-1000.0
 74
     0
  0
ENDTAB
  0
TABLE
  2
LAYER
  5
2
330
0
100
AcDbSymbolTable
 70
     4
  0
LAYER
  5
10
330
2
100
AcDbSymbolTableRecord
100
AcDbLayerTableRecord
  2
0
 70
     0
 62
     7
  6
Continuous
370
    -3
390
F
  0
LAYER
  5
6B
330
2
100
AcDbSymbolTableRecord
100
AcDbLayerTableRecord
  2
@__WIDOCZNE
 70
     0
 62
     7
  6
Continuous
370
    -3
390
F
  0
LAYER
  5
26D
330
2
100
AcDbSymbolTableRecord
100
AcDbLayerTableRecord
  2
Linia Izolacji - ARCHICAD
 70
     0
 62
     7
  6
Continuous
370
    -3
390
F
  0
LAYER
  5
2CC
330
2
100
AcDbSymbolTableRecord
100
AcDbLayerTableRecord
  2
NonPlottable_0
 70
     0
 62
     7
  6
Continuous
290
     0
370
    -3
390
F
  0
ENDTAB
  0
TABLE
  2
STYLE
  5
3
330
0
100
AcDbSymbolTable
 70
     4
  0
STYLE
  5
11
330
3
100
AcDbSymbolTableRecord
100
AcDbTextStyleTableRecord
  2
Standard
 70
     0
 40
0.0
 41
1.0
 50
0.0
 71
     0
 42
0.2
  3
txt
  4
BIGFONT.SHX
  0
STYLE
  5
135
330
3
100
AcDbSymbolTableRecord
100
AcDbTextStyleTableRecord
  2
GENERATED_STYLE_1
 70
     0
 40
0.0
 41
1.0
 50
0.0
 71
     0
 42
0.2
  3

  4

1001
ACAD
1000
Arial
1071
    60966
  0
STYLE
  5
26B
330
3
100
AcDbSymbolTableRecord
100
AcDbTextStyleTableRecord
  2

 70
     1
 40
0.2
 41
1.0
 50
0.0
 71
     0
 42
0.2
  3
08.01.01 BASEN_głowica1.Shx
  4

  0
STYLE
  5
28A
330
3
100
AcDbSymbolTableRecord
100
AcDbTextStyleTableRecord
  2
GENERATED_STYLE_2
 70
     0
 40
0.0
 41
1.0
 50
0.0
 71
     0
 42
0.2
  3

  4

1001
ACAD
1000
Arial
1071
 33615398
  0
ENDTAB
  0
TABLE
  2
VIEW
  5
6
330
0
100
AcDbSymbolTable
 70
     0
  0
ENDTAB
  0
TABLE
  2
UCS
  5
7
330
0
100
AcDbSymbolTable
 70
     0
  0
ENDTAB
  0
TABLE
  2
APPID
  5
9
330
0
100
AcDbSymbolTable
 70
     1
  0
APPID
  5
12
330
9
100
AcDbSymbolTableRecord
100
AcDbRegAppTableRecord
  2
ACAD
 70
     0
  0
ENDTAB
  0
TABLE
  2
DIMSTYLE
  5
A
330
0
100
AcDbSymbolTable
 70
     1
100
AcDbDimStyleTable
  0
DIMSTYLE
105
27
330
A
100
AcDbSymbolTableRecord
100
AcDbDimStyleTableRecord
  2
Standard
 70
     0
340
11
  0
ENDTAB
  0
TABLE
  2
BLOCK_RECORD
  5
1
330
0
100
AcDbSymbolTable
 70
    13
  0
BLOCK_RECORD
  5
1F
330
1
100
AcDbSymbolTableRecord
100
AcDbBlockTableRecord
  2
*Model_Space
340
22
  0
BLOCK_RECORD
  5
1B
330
1
100
AcDbSymbolTableRecord
100
AcDbBlockTableRecord
  2
*Paper_Space
340
1E
  0
BLOCK_RECORD
  5
23
330
1
100
AcDbSymbolTableRecord
100
AcDbBlockTableRecord
  2
*Paper_Space0
340
26
  0
BLOCK_RECORD
  5
83
330
1
100
AcDbSymbolTableRecord
100
AcDbBlockTableRecord
  2
InsulFib 65
340
0
102
{BLKREFS
331
FB
102
}
  0
BLOCK_RECORD
  5
FC
330
1
100
AcDbSymbolTableRecord
100
AcDbBlockTableRecord
  2
InsulFib 65_2
340
0
102
{BLKREFS
331
130
102
}
  0
BLOCK_RECORD
  5
131
330
1
100
AcDbSymbolTableRecord
100
AcDbBlockTableRecord
  2
Sygnał termostatu 12
340
0
102
{BLKREFS
331
137
331
185
331
19D
331
1A0
331
1A3
102
}
  0
BLOCK_RECORD
  5
13A
330
1
100
AcDbSymbolTableRecord
100
AcDbBlockTableRecord
  2
Sygnał termostatu 12_2
340
0
102
{BLKREFS
331
13F
331
182
102
}
  0
BLOCK_RECORD
  5
142
330
1
100
AcDbSymbolTableRecord
100
AcDbBlockTableRecord
  2
Sygnał termostatu 12_3
340
0
102
{BLKREFS
331
147
331
17F
331
188
331
18B
331
18E
331
191
331
194
331
197
331
19A
102
}
  0
BLOCK_RECORD
  5
14A
330
1
100
AcDbSymbolTableRecord
100
AcDbBlockTableRecord
  2
Sygnał termostatu 12_4
340
0
102
{BLKREFS
331
14F
331
179
331
17C
102
}
  0
BLOCK_RECORD
  5
152
330
1
100
AcDbSymbolTableRecord
100
AcDbBlockTableRecord
  2
Sygnał termostatu 12_5
340
0
102
{BLKREFS
331
157
331
15A
102
}
  0
BLOCK_RECORD
  5
15D
330
1
100
AcDbSymbolTableRecord
100
AcDbBlockTableRecord
  2
Sygnał termostatu 12_6
340
0
102
{BLKREFS
331
162
331
173
331
176
102
}
  0
BLOCK_RECORD
  5
165
330
1
100
AcDbSymbolTableRecord
100
AcDbBlockTableRecord
  2
Sygnał termostatu 12_7
340
0
102
{BLKREFS
331
16A
331
16D
331
170
102
}
  0
BLOCK_RECORD
  5
2C1
330
1
100
AcDbSymbolTableRecord
100
AcDbBlockTableRecord
  2
Bez nazwy_STORY_MARKER
340
0
  0
BLOCK_RECORD
  5
2C4
330
1
100
AcDbSymbolTableRecord
100
AcDbBlockTableRecord
  2
Rysunek_1
340
0
102
{BLKREFS
331
2C7
102
}
  0
BLOCK_RECORD
  5
2CE
330
1
100
AcDbSymbolTableRecord
100
AcDbBlockTableRecord
  2
02.04.2-20 \U+FF8CCIANA+PIWICA 08.01._STORY_MARKER
340
0
  0
ENDTAB
  0
ENDSEC
  0
SECTION
  2
BLOCKS
  0
BLOCK
  5
20
330
1F
100
AcDbEntity
  8
0
100
AcDbBlockBegin
  2
*Model_Space
 70
     0
 10
0.0
 20
0.0
 30
0.0
  3
*Model_Space
  1

  0
ENDBLK
  5
21
330
1F
100
AcDbEntity
  8
0
100
AcDbBlockEnd
  0
BLOCK
  5
1C
330
1B
100
AcDbEntity
 67
     1
  8
0
100
AcDbBlockBegin
  2
*Paper_Space
 70
     0
 10
0.0
 20
0.0
 30
0.0
  3
*Paper_Space
  1

  0
ENDBLK
  5
1D
330
1B
100
AcDbEntity
 67
     1
  8
0
100
AcDbBlockEnd
  0
BLOCK
  5
24
330
23
100
AcDbEntity
  8
0
100
AcDbBlockBegin
  2
*Paper_Space0
 70
     0
 10
0.0
 20
0.0
 30
0.0
  3
*Paper_Space0
  1

  0
ENDBLK
  5
25
330
23
100
AcDbEntity
  8
0
100
AcDbBlockEnd
  0
BLOCK
  5
84
330
83
100
AcDbEntity
  8
0
100
AcDbBlockBegin
  2
InsulFib 65
 70
     0
 10
0.0
 20
0.0
 30
0.0
  3
InsulFib 65
  1

  0
LINE
  5
86
330
83
100
AcDbEntity
  8
0
  6
Continuous
370
    13
100
AcDbLine
 10
4.613786497158459
 20
5.959775390123357
 30
0.0
 11
8.155040884912909
 21
14.04022221789847
 31
0.0
  0
LINE
  5
87
330
83
100
AcDbEntity
  8
0
  6
Continuous
370
    13
100
AcDbLine
 10
0.3575112350409548
 20
14.04022221789847
 30
0.0
 11
3.898762431357695
 21
5.959775390123357
 31
0.0
  0
LINE
  5
88
330
83
100
AcDbEntity
  8
0
  6
Continuous
370
    13
100
AcDbLine
 10
13.12652413155662
 20
5.959775390123357
 30
0.0
 11
16.66777851931107
 21
14.04022221789847
 31
0.0
  0
LINE
  5
89
330
83
100
AcDbEntity
  8
0
  6
Continuous
370
    13
100
AcDbLine
 10
8.87024886943912
 20
14.04022221789847
 30
0.0
 11
12.41150006575586
 21
5.959775390123357
 31
0.0
  0
LINE
  5
8A
330
83
100
AcDbEntity
  8
0
  6
Continuous
370
    13
100
AcDbLine
 10
21.63926176595479
 20
5.959775390123357
 30
0.0
 11
25.18051615370924
 21
14.04022221789847
 31
0.0
  0
LINE
  5
8B
330
83
100
AcDbEntity
  8
0
  6
Continuous
370
    13
100
AcDbLine
 10
17.38298650383728
 20
14.04022221789847
 30
0.0
 11
20.92423770015403
 21
5.959775390123357
 31
0.0
  0
LINE
  5
8C
330
83
100
AcDbEntity
  8
0
  6
Continuous
370
    13
100
AcDbLine
 10
30.15199940035296
 20
5.959775390123357
 30
0.0
 11
33.69325378810741
 21
14.04022221789847
 31
0.0
  0
LINE
  5
8D
330
83
100
AcDbEntity
  8
0
  6
Continuous
370
    13
100
AcDbLine
 10
25.89572413823545
 20
14.04022221789847
 30
0.0
 11
29.43697533455219
 21
5.959775390123357
 31
0.0
  0
LINE
  5
8E
330
83
100
AcDbEntity
  8
0
  6
Continuous
370
    13
100
AcDbLine
 10
38.66473703475112
 20
5.959775390123357
 30
0.0
 11
42.20599142250557
 21
14.04022221789847
 31
0.0
  0
LINE
  5
8F
330
83
100
AcDbEntity
  8
0
  6
Continuous
370
    13
100
AcDbLine
 10
34.40846177263361
 20
14.04022221789847
 30
0.0
 11
37.94971296895035
 21
5.959775390123357
 31
0.0
  0
LINE
  5
90
330
83
100
AcDbEntity
  8
0
  6
Continuous
370
    13
100
AcDbLine
 10
47.17747466914929
 20
5.959775390123357
 30
0.0
 11
50.71872905690373
 21
14.04022221789847
 31
0.0
  0
LINE
  5
91
330
83
100
AcDbEntity
  8
0
  6
Continuous
370
    13
100
AcDbLine
 10
42.92119940703179
 20
14.04022221789847
 30
0.0
 11
46.46245060334852
 21
5.959775390123357
 31
0.0
  0
LINE
  5
92
330
83
100
AcDbEntity
  8
0
  6
Continuous
370
    13
100
AcDbLine
 10
55.69021230354745
 20
5.959775390123357
 30
0.0
 11
59.2314666913019
 21
14.04022221789847
 31
0.0
  0
LINE
  5
93
330
83
100
AcDbEntity
  8
0
  6
Continuous
370
    13
100
AcDbLine
 10
51.43393704142995
 20
14.04022221789847
 30
0.0
 11
54.97518823774669
 21
5.959775390123357
 31
0.0
  0
LINE
  5
94
330
83
100
AcDbEntity
  8
0
  6
Continuous
370
    13
100
AcDbLine
 10
64.20294993794562
 20
5.959775390123357
 30
0.0
 11
67.74420432570007
 21
14.04022221789847
 31
0.0
  0
LINE
  5
95
330
83
100
AcDbEntity
  8
0
  6
Continuous
370
    13
100
AcDbLine
 10
59.94667467582811
 20
14.04022221789847
 30
0.0
 11
63.48792587214486
 21
5.959775390123357
 31
0.0
  0
LINE
  5
96
330
83
100
AcDbEntity
  8
0
  6
Continuous
370
    13
100
AcDbLine
 10
72.71568757234378
 20
5.959775390123357
 30
0.0
 11
76.25694196009823
 21
14.04022221789847
 31
0.0
  0
LINE
  5
97
330
83
100
AcDbEntity
  8
0
  6
Continuous
370
    13
100
AcDbLine
 10
68.45941231022627
 20
14.04022221789847
 30
0.0
 11
72.00066350654302
 21
5.959775390123357
 31
0.0
  0
LINE
  5
98
330
83
100
AcDbEntity
  8
0
  6
Continuous
370
    13
100
AcDbLine
 10
81.22842520674195
 20
5.959775390123357
 30
0.0
 11
84.7696795944964
 21
14.04022221789847
 31
0.0
  0
LINE
  5
99
330
83
100
AcDbEntity
  8
0
  6
Continuous
370
    13
100
AcDbLine
 10
76.97214994462443
 20
14.04022221789847
 30
0.0
 11
80.51340114094118
 21
5.959775390123357
 31
0.0
  0
LINE
  5
9A
330
83
100
AcDbEntity
  8
0
  6
Continuous
370
    13
100
AcDbLine
 10
89.74116284114011
 20
5.959775390123357
 30
0.0
 11
93.28241722889456
 21
14.04022221789847
 31
0.0
  0
LINE
  5
9B
330
83
100
AcDbEntity
  8
0
  6
Continuous
370
    13
100
AcDbLine
 10
85.4848875790226
 20
14.04022221789847
 30
0.0
 11
89.02613877533935
 21
5.959775390123357
 31
0.0
  0
LINE
  5
9C
330
83
100
AcDbEntity
  8
0
  6
Continuous
370
    13
100
AcDbLine
 10
98.25390047553827
 20
5.959775390123357
 30
0.0
 11
101.7951548632927
 21
14.04022221789847
 31
0.0
  0
LINE
  5
9D
330
83
100
AcDbEntity
  8
0
  6
Continuous
370
    13
100
AcDbLine
 10
93.99762521342078
 20
14.04022221789847
 30
0.0
 11
97.53887640973751
 21
5.959775390123357
 31
0.0
  0
LINE
  5
9E
330
83
100
AcDbEntity
  8
0
  6
Continuous
370
    13
100
AcDbLine
 10
106.7666381099365
 20
5.959775390123357
 30
0.0
 11
110.3078924976909
 21
14.04022221789847
 31
0.0
  0
LINE
  5
9F
330
83
100
AcDbEntity
  8
0
  6
Continuous
370
    13
100
AcDbLine
 10
102.5103628478189
 20
14.04022221789847
 30
0.0
 11
106.0516140441357
 21
5.959775390123357
 31
0.0
  0
LINE
  5
A0
330
83
100
AcDbEntity
  8
0
  6
Continuous
370
    13
100
AcDbLine
 10
115.2793757443346
 20
5.959775390123357
 30
0.0
 11
118.8206301320891
 21
14.04022221789847
 31
0.0
  0
LINE
  5
A1
330
83
100
AcDbEntity
  8
0
  6
Continuous
370
    13
100
AcDbLine
 10
111.0231004822171
 20
14.04022221789847
 30
0.0
 11
114.5643516785339
 21
5.959775390123357
 31
0.0
  0
LINE
  5
A2
330
83
100
AcDbEntity
  8
0
  6
Continuous
370
    13
100
AcDbLine
 10
123.7921133787328
 20
5.959775390123357
 30
0.0
 11
127.3333677664872
 21
14.04022221789847
 31
0.0
  0
LINE
  5
A3
330
83
100
AcDbEntity
  8
0
  6
Continuous
370
    13
100
AcDbLine
 10
119.5358381166153
 20
14.04022221789847
 30
0.0
 11
123.077089312932
 21
5.959775390123357
 31
0.0
  0
LINE
  5
A4
330
83
100
AcDbEntity
  8
0
  6
Continuous
370
    13
100
AcDbLine
 10
132.3048510131309
 20
5.959775390123357
 30
0.0
 11
135.8461054008854
 21
14.04022221789847
 31
0.0
  0
LINE
  5
A5
330
83
100
AcDbEntity
  8
0
  6
Continuous
370
    13
100
AcDbLine
 10
128.0485757510134
 20
14.04022221789847
 30
0.0
 11
131.5898269473302
 21
5.959775390123357
 31
0.0
  0
LINE
  5
A6
330
83
100
AcDbEntity
  8
0
  6
Continuous
370
    13
100
AcDbLine
 10
140.8175886475291
 20
5.959775390123357
 30
0.0
 11
144.3588430352836
 21
14.04022221789847
 31
0.0
  0
LINE
  5
A7
330
83
100
AcDbEntity
  8
0
  6
Continuous
370
    13
100
AcDbLine
 10
136.5613133854116
 20
14.04022221789847
 30
0.0
 11
140.1025645817284
 21
5.959775390123357
 31
0.0
  0
LINE
  5
A8
330
83
100
AcDbEntity
  8
0
  6
Continuous
370
    13
100
AcDbLine
 10
149.3303262819273
 20
5.959775390123357
 30
0.0
 11
152.8715806696817
 21
14.04022221789847
 31
0.0
  0
LINE
  5
A9
330
83
100
AcDbEntity
  8
0
  6
Continuous
370
    13
100
AcDbLine
 10
145.0740510198098
 20
14.04022221789847
 30
0.0
 11
148.6153022161265
 21
5.959775390123357
 31
0.0
  0
LINE
  5
AA
330
83
100
AcDbEntity
  8
0
  6
Continuous
370
    13
100
AcDbLine
 10
157.8430639163254
 20
5.959775390123357
 30
0.0
 11
161.3843183040799
 21
14.04022221789847
 31
0.0
  0
LINE
  5
AB
330
83
100
AcDbEntity
  8
0
  6
Continuous
370
    13
100
AcDbLine
 10
153.5867886542079
 20
14.04022221789847
 30
0.0
 11
157.1280398505247
 21
5.959775390123357
 31
0.0
  0
LINE
  5
AC
330
83
100
AcDbEntity
  8
0
  6
Continuous
370
    13
100
AcDbLine
 10
166.3558015507236
 20
5.959775390123357
 30
0.0
 11
169.897055938478
 21
14.04022221789847
 31
0.0
  0
LINE
  5
AD
330
83
100
AcDbEntity
  8
0
  6
Continuous
370
    13
100
AcDbLine
 10
162.0995262886061
 20
14.04022221789847
 30
0.0
 11
165.6407774849228
 21
5.959775390123357
 31
0.0
  0
LINE
  5
AE
330
83
100
AcDbEntity
  8
0
  6
Continuous
370
    13
100
AcDbLine
 10
174.8685391851218
 20
5.959775390123357
 30
0.0
 11
178.4097935728762
 21
14.04022221789847
 31
0.0
  0
LINE
  5
AF
330
83
100
AcDbEntity
  8
0
  6
Continuous
370
    13
100
AcDbLine
 10
170.6122639230043
 20
14.04022221789847
 30
0.0
 11
174.153515119321
 21
5.959775390123357
 31
0.0
  0
LINE
  5
B0
330
83
100
AcDbEntity
  8
0
  6
Continuous
370
    13
100
AcDbLine
 10
183.3812768195199
 20
5.959775390123357
 30
0.0
 11
186.9225312072744
 21
14.04022221789847
 31
0.0
  0
LINE
  5
B1
330
83
100
AcDbEntity
  8
0
  6
Continuous
370
    13
100
AcDbLine
 10
179.1250015574024
 20
14.04022221789847
 30
0.0
 11
182.6662527537192
 21
5.959775390123357
 31
0.0
  0
LINE
  5
B2
330
83
100
AcDbEntity
  8
0
  6
Continuous
370
    13
100
AcDbLine
 10
191.8940144539181
 20
5.959775390123357
 30
0.0
 11
195.4352688416726
 21
14.04022221789847
 31
0.0
  0
LINE
  5
B3
330
83
100
AcDbEntity
  8
0
  6
Continuous
370
    13
100
AcDbLine
 10
187.6377391918006
 20
14.04022221789847
 30
0.0
 11
191.1789903881173
 21
5.959775390123357
 31
0.0
  0
LINE
  5
B4
330
83
100
AcDbEntity
  8
0
  6
Continuous
370
    13
100
AcDbLine
 10
200.4067520883163
 20
5.959775390123357
 30
0.0
 11
203.9480064760707
 21
14.04022221789847
 31
0.0
  0
LINE
  5
B5
330
83
100
AcDbEntity
  8
0
  6
Continuous
370
    13
100
AcDbLine
 10
196.1504768261988
 20
14.04022221789847
 30
0.0
 11
199.6917280225155
 21
5.959775390123357
 31
0.0
  0
LINE
  5
B6
330
83
100
AcDbEntity
  8
0
  6
Continuous
370
    13
100
AcDbLine
 10
208.9194897227144
 20
5.959775390123357
 30
0.0
 11
212.4607441104689
 21
14.04022221789847
 31
0.0
  0
LINE
  5
B7
330
83
100
AcDbEntity
  8
0
  6
Continuous
370
    13
100
AcDbLine
 10
204.6632144605969
 20
14.04022221789847
 30
0.0
 11
208.2044656569137
 21
5.959775390123357
 31
0.0
  0
LINE
  5
B8
330
83
100
AcDbEntity
  8
0
  6
Continuous
370
    13
100
AcDbLine
 10
217.4322273571126
 20
5.959775390123357
 30
0.0
 11
220.973481744867
 21
14.04022221789847
 31
0.0
  0
LINE
  5
B9
330
83
100
AcDbEntity
  8
0
  6
Continuous
370
    13
100
AcDbLine
 10
213.1759520949951
 20
14.04022221789847
 30
0.0
 11
216.7172032913118
 21
5.959775390123357
 31
0.0
  0
LINE
  5
BA
330
83
100
AcDbEntity
  8
0
  6
Continuous
370
    13
100
AcDbLine
 10
225.9449649915108
 20
5.959775390123357
 30
0.0
 11
229.4862193792652
 21
14.04022221789847
 31
0.0
  0
LINE
  5
BB
330
83
100
AcDbEntity
  8
0
  6
Continuous
370
    13
100
AcDbLine
 10
221.6886897293933
 20
14.04022221789847
 30
0.0
 11
225.22994092571
 21
5.959775390123357
 31
0.0
  0
LINE
  5
BC
330
83
100
AcDbEntity
  8
0
  6
Continuous
370
    13
100
AcDbLine
 10
234.4577026259089
 20
5.959775390123357
 30
0.0
 11
237.9989570136634
 21
14.04022221789847
 31
0.0
  0
LINE
  5
BD
330
83
100
AcDbEntity
  8
0
  6
Continuous
370
    13
100
AcDbLine
 10
230.2014273637914
 20
14.04022221789847
 30
0.0
 11
233.7426785601082
 21
5.959775390123357
 31
0.0
  0
LINE
  5
BE
330
83
100
AcDbEntity
  8
0
  6
Continuous
370
    13
100
AcDbLine
 10
242.9704402603071
 20
5.959775390123357
 30
0.0
 11
246.5116946480616
 21
14.04022221789847
 31
0.0
  0
LINE
  5
BF
330
83
100
AcDbEntity
  8
0
  6
Continuous
370
    13
100
AcDbLine
 10
238.7141649981896
 20
14.04022221789847
 30
0.0
 11
242.2554161945063
 21
5.959775390123357
 31
0.0
  0
ELLIPSE
  5
C0
330
83
100
AcDbEntity
  8
0
  6
Continuous
370
    13
100
AcDbEllipse
 10
0.0
 20
4.253429537605092
 30
0.0
 11
4.256276458906646
 21
0.0
 31
0.0
210
0.0
220
0.0
230
1.0
 40
0.9993312176344468
 41
4.71238898038469
 42
6.695978724992363
  0
ELLIPSE
  5
C1
330
83
100
AcDbEntity
  8
0
  6
Continuous
370
    13
100
AcDbEllipse
 10
4.256278453555214
 20
15.7465696650684
 30
0.0
 11
4.256276458906646
 21
0.0
 31
0.0
210
0.0
220
0.0
230
1.0
 40
0.9993312176344468
 41
5.870391545948018
 42
9.837571270793731
  0
ELLIPSE
  5
C2
330
83
100
AcDbEntity
  8
0
  6
Continuous
370
    13
100
AcDbEllipse
 10
8.512552119953865
 20
4.253431132256758
 30
0.0
 11
4.256276458906646
 21
0.0
 31
0.0
210
0.0
220
0.0
230
1.0
 40
0.9993312176344468
 41
2.728799880000444
 42
6.695979068411154
  0
ELLIPSE
  5
C3
330
83
100
AcDbEntity
  8
0
  6
Continuous
370
    13
100
AcDbEllipse
 10
12.76901608795338
 20
15.7465696650684
 30
0.0
 11
4.256276458906646
 21
0.0
 31
0.0
210
0.0
220
0.0
230
1.0
 40
0.9993312176344468
 41
5.870391545948018
 42
9.837571270793731
  0
ELLIPSE
  5
C4
330
83
100
AcDbEntity
  8
0
  6
Continuous
370
    13
100
AcDbEllipse
 10
17.02528975435203
 20
4.253431132256758
 30
0.0
 11
4.256276458906646
 21
0.0
 31
0.0
210
0.0
220
0.0
230
1.0
 40
0.9993312176344468
 41
2.728799880000444
 42
6.695979068411154
  0
ELLIPSE
  5
C5
330
83
100
AcDbEntity
  8
0
  6
Continuous
370
    13
100
AcDbEllipse
 10
21.28175372235154
 20
15.7465696650684
 30
0.0
 11
4.256276458906646
 21
0.0
 31
0.0
210
0.0
220
0.0
230
1.0
 40
0.9993312176344468
 41
5.870391545948018
 42
9.837571270793731
  0
ELLIPSE
  5
C6
330
83
100
AcDbEntity
  8
0
  6
Continuous
370
    13
100
AcDbEllipse
 10
25.5380273887502
 20
4.253431132256758
 30
0.0
 11
4.256276458906646
 21
0.0
 31
0.0
210
0.0
220
0.0
230
1.0
 40
0.9993312176344468
 41
2.728799880000444
 42
6.695979068411154
  0
ELLIPSE
  5
C7
330
83
100
AcDbEntity
  8
0
  6
Continuous
370
    13
100
AcDbEllipse
 10
29.79449135674971
 20
15.7465696650684
 30
0.0
 11
4.256276458906646
 21
0.0
 31
0.0
210
0.0
220
0.0
230
1.0
 40
0.9993312176344468
 41
5.870391545948018
 42
9.837571270793731
  0
ELLIPSE
  5
C8
330
83
100
AcDbEntity
  8
0
  6
Continuous
370
    13
100
AcDbEllipse
 10
34.05076502314837
 20
4.253431132256758
 30
0.0
 11
4.256276458906646
 21
0.0
 31
0.0
210
0.0
220
0.0
230
1.0
 40
0.9993312176344468
 41
2.728799880000444
 42
6.695979068411154
  0
ELLIPSE
  5
C9
330
83
100
AcDbEntity
  8
0
  6
Continuous
370
    13
100
AcDbEllipse
 10
38.30722899114788
 20
15.7465696650684
 30
0.0
 11
4.256276458906646
 21
0.0
 31
0.0
210
0.0
220
0.0
230
1.0
 40
0.9993312176344468
 41
5.870391545948018
 42
9.837571270793731
  0
ELLIPSE
  5
CA
330
83
100
AcDbEntity
  8
0
  6
Continuous
370
    13
100
AcDbEllipse
 10
42.56350265754653
 20
4.253431132256758
 30
0.0
 11
4.256276458906646
 21
0.0
 31
0.0
210
0.0
220
0.0
230
1.0
 40
0.9993312176344468
 41
2.728799880000444
 42
6.695979068411154
  0
ELLIPSE
  5
CB
330
83
100
AcDbEntity
  8
0
  6
Continuous
370
    13
100
AcDbEllipse
 10
46.81996662554604
 20
15.7465696650684
 30
0.0
 11
4.256276458906646
 21
0.0
 31
0.0
210
0.0
220
0.0
230
1.0
 40
0.9993312176344468
 41
5.870391545948018
 42
9.837571270793731
  0
ELLIPSE
  5
CC
330
83
100
AcDbEntity
  8
0
  6
Continuous
370
    13
100
AcDbEllipse
 10
51.07624029194469
 20
4.253431132256758
 30
0.0
 11
4.256276458906646
 21
0.0
 31
0.0
210
0.0
220
0.0
230
1.0
 40
0.9993312176344468
 41
2.728799880000444
 42
6.695979068411154
  0
ELLIPSE
  5
CD
330
83
100
AcDbEntity
  8
0
  6
Continuous
370
    13
100
AcDbEllipse
 10
55.33270425994421
 20
15.7465696650684
 30
0.0
 11
4.256276458906646
 21
0.0
 31
0.0
210
0.0
220
0.0
230
1.0
 40
0.9993312176344468
 41
5.870391545948018
 42
9.837571270793731
  0
ELLIPSE
  5
CE
330
83
100
AcDbEntity
  8
0
  6
Continuous
370
    13
100
AcDbEllipse
 10
59.58897792634286
 20
4.253431132256758
 30
0.0
 11
4.256276458906646
 21
0.0
 31
0.0
210
0.0
220
0.0
230
1.0
 40
0.9993312176344468
 41
2.728799880000444
 42
6.695979068411154
  0
ELLIPSE
  5
CF
330
83
100
AcDbEntity
  8
0
  6
Continuous
370
    13
100
AcDbEllipse
 10
63.84544189434236
 20
15.7465696650684
 30
0.0
 11
4.256276458906646
 21
0.0
 31
0.0
210
0.0
220
0.0
230
1.0
 40
0.9993312176344468
 41
5.870391545948019
 42
9.837571270793731
  0
ELLIPSE
  5
D0
330
83
100
AcDbEntity
  8
0
  6
Continuous
370
    13
100
AcDbEllipse
 10
68.10171556074101
 20
4.253431132256758
 30
0.0
 11
4.256276458906646
 21
0.0
 31
0.0
210
0.0
220
0.0
230
1.0
 40
0.9993312176344468
 41
2.728799880000443
 42
6.695979068411154
  0
ELLIPSE
  5
D1
330
83
100
AcDbEntity
  8
0
  6
Continuous
370
    13
100
AcDbEllipse
 10
72.35817952874054
 20
15.7465696650684
 30
0.0
 11
4.256276458906646
 21
0.0
 31
0.0
210
0.0
220
0.0
230
1.0
 40
0.9993312176344468
 41
5.870391545948019
 42
9.837571270793731
  0
ELLIPSE
  5
D2
330
83
100
AcDbEntity
  8
0
  6
Continuous
370
    13
100
AcDbEllipse
 10
76.61445319513918
 20
4.253431132256758
 30
0.0
 11
4.256276458906646
 21
0.0
 31
0.0
210
0.0
220
0.0
230
1.0
 40
0.9993312176344468
 41
2.728799880000443
 42
6.695979068411154
  0
ELLIPSE
  5
D3
330
83
100
AcDbEntity
  8
0
  6
Continuous
370
    13
100
AcDbEllipse
 10
80.8709171631387
 20
15.7465696650684
 30
0.0
 11
4.256276458906646
 21
0.0
 31
0.0
210
0.0
220
0.0
230
1.0
 40
0.9993312176344468
 41
5.870391545948019
 42
9.837571270793731
  0
ELLIPSE
  5
D4
330
83
100
AcDbEntity
  8
0
  6
Continuous
370
    13
100
AcDbEllipse
 10
85.12719082953734
 20
4.253431132256758
 30
0.0
 11
4.256276458906646
 21
0.0
 31
0.0
210
0.0
220
0.0
230
1.0
 40
0.9993312176344468
 41
2.728799880000443
 42
6.695979068411154
  0
ELLIPSE
  5
D5
330
83
100
AcDbEntity
  8
0
  6
Continuous
370
    13
100
AcDbEllipse
 10
89.38365479753686
 20
15.7465696650684
 30
0.0
 11
4.256276458906646
 21
0.0
 31
0.0
210
0.0
220
0.0
230
1.0
 40
0.9993312176344468
 41
5.870391545948019
 42
9.837571270793731
  0
ELLIPSE
  5
D6
330
83
100
AcDbEntity
  8
0
  6
Continuous
370
    13
100
AcDbEllipse
 10
93.63992846393552
 20
4.253431132256758
 30
0.0
 11
4.256276458906646
 21
0.0
 31
0.0
210
0.0
220
0.0
230
1.0
 40
0.9993312176344468
 41
2.728799880000443
 42
6.695979068411154
  0
ELLIPSE
  5
D7
330
83
100
AcDbEntity
  8
0
  6
Continuous
370
    13
100
AcDbEllipse
 10
97.89639243193503
 20
15.7465696650684
 30
0.0
 11
4.256276458906646
 21
0.0
 31
0.0
210
0.0
220
0.0
230
1.0
 40
0.9993312176344468
 41
5.870391545948019
 42
9.837571270793731
  0
ELLIPSE
  5
D8
330
83
100
AcDbEntity
  8
0
  6
Continuous
370
    13
100
AcDbEllipse
 10
102.1526660983337
 20
4.253431132256758
 30
0.0
 11
4.256276458906646
 21
0.0
 31
0.0
210
0.0
220
0.0
230
1.0
 40
0.9993312176344468
 41
2.728799880000443
 42
6.695979068411154
  0
ELLIPSE
  5
D9
330
83
100
AcDbEntity
  8
0
  6
Continuous
370
    13
100
AcDbEllipse
 10
106.4091300663332
 20
15.7465696650684
 30
0.0
 11
4.256276458906646
 21
0.0
 31
0.0
210
0.0
220
0.0
230
1.0
 40
0.9993312176344468
 41
5.870391545948019
 42
9.837571270793731
  0
ELLIPSE
  5
DA
330
83
100
AcDbEntity
  8
0
  6
Continuous
370
    13
100
AcDbEllipse
 10
110.6654037327318
 20
4.253431132256758
 30
0.0
 11
4.256276458906646
 21
0.0
 31
0.0
210
0.0
220
0.0
230
1.0
 40
0.9993312176344468
 41
2.728799880000443
 42
6.695979068411154
  0
ELLIPSE
  5
DB
330
83
100
AcDbEntity
  8
0
  6
Continuous
370
    13
100
AcDbEllipse
 10
114.9218677007314
 20
15.7465696650684
 30
0.0
 11
4.256276458906646
 21
0.0
 31
0.0
210
0.0
220
0.0
230
1.0
 40
0.9993312176344468
 41
5.870391545948019
 42
9.837571270793731
  0
ELLIPSE
  5
DC
330
83
100
AcDbEntity
  8
0
  6
Continuous
370
    13
100
AcDbEllipse
 10
119.17814136713
 20
4.253431132256758
 30
0.0
 11
4.256276458906646
 21
0.0
 31
0.0
210
0.0
220
0.0
230
1.0
 40
0.9993312176344468
 41
2.728799880000443
 42
6.695979068411154
  0
ELLIPSE
  5
DD
330
83
100
AcDbEntity
  8
0
  6
Continuous
370
    13
100
AcDbEllipse
 10
123.4346053351295
 20
15.7465696650684
 30
0.0
 11
4.256276458906646
 21
0.0
 31
0.0
210
0.0
220
0.0
230
1.0
 40
0.9993312176344468
 41
5.87039154594802
 42
9.837571270793731
  0
ELLIPSE
  5
DE
330
83
100
AcDbEntity
  8
0
  6
Continuous
370
    13
100
AcDbEllipse
 10
127.6908790015282
 20
4.253431132256758
 30
0.0
 11
4.256276458906646
 21
0.0
 31
0.0
210
0.0
220
0.0
230
1.0
 40
0.9993312176344468
 41
2.728799880000443
 42
6.695979068411154
  0
ELLIPSE
  5
DF
330
83
100
AcDbEntity
  8
0
  6
Continuous
370
    13
100
AcDbEllipse
 10
131.9473429695277
 20
15.7465696650684
 30
0.0
 11
4.256276458906646
 21
0.0
 31
0.0
210
0.0
220
0.0
230
1.0
 40
0.9993312176344468
 41
5.870391545948016
 42
9.837571270793731
  0
ELLIPSE
  5
E0
330
83
100
AcDbEntity
  8
0
  6
Continuous
370
    13
100
AcDbEllipse
 10
136.2036166359264
 20
4.253431132256758
 30
0.0
 11
4.256276458906646
 21
0.0
 31
0.0
210
0.0
220
0.0
230
1.0
 40
0.9993312176344468
 41
2.728799880000443
 42
6.695979068411154
  0
ELLIPSE
  5
E1
330
83
100
AcDbEntity
  8
0
  6
Continuous
370
    13
100
AcDbEllipse
 10
140.4600806039259
 20
15.7465696650684
 30
0.0
 11
4.256276458906646
 21
0.0
 31
0.0
210
0.0
220
0.0
230
1.0
 40
0.9993312176344468
 41
5.870391545948019
 42
9.837571270793731
  0
ELLIPSE
  5
E2
330
83
100
AcDbEntity
  8
0
  6
Continuous
370
    13
100
AcDbEllipse
 10
144.7163542703245
 20
4.253431132256758
 30
0.0
 11
4.256276458906646
 21
0.0
 31
0.0
210
0.0
220
0.0
230
1.0
 40
0.9993312176344468
 41
2.728799880000443
 42
6.695979068411154
  0
ELLIPSE
  5
E3
330
83
100
AcDbEntity
  8
0
  6
Continuous
370
    13
100
AcDbEllipse
 10
148.972818238324
 20
15.7465696650684
 30
0.0
 11
4.256276458906646
 21
0.0
 31
0.0
210
0.0
220
0.0
230
1.0
 40
0.9993312176344468
 41
5.870391545948016
 42
9.837571270793731
  0
ELLIPSE
  5
E4
330
83
100
AcDbEntity
  8
0
  6
Continuous
370
    13
100
AcDbEllipse
 10
153.2290919047227
 20
4.253431132256758
 30
0.0
 11
4.256276458906646
 21
0.0
 31
0.0
210
0.0
220
0.0
230
1.0
 40
0.9993312176344468
 41
2.728799880000443
 42
6.695979068411154
  0
ELLIPSE
  5
E5
330
83
100
AcDbEntity
  8
0
  6
Continuous
370
    13
100
AcDbEllipse
 10
157.4855558727222
 20
15.7465696650684
 30
0.0
 11
4.256276458906646
 21
0.0
 31
0.0
210
0.0
220
0.0
230
1.0
 40
0.9993312176344468
 41
5.870391545948019
 42
9.837571270793731
  0
ELLIPSE
  5
E6
330
83
100
AcDbEntity
  8
0
  6
Continuous
370
    13
100
AcDbEllipse
 10
161.7418295391208
 20
4.253431132256758
 30
0.0
 11
4.256276458906646
 21
0.0
 31
0.0
210
0.0
220
0.0
230
1.0
 40
0.9993312176344468
 41
2.728799880000443
 42
6.695979068411154
  0
ELLIPSE
  5
E7
330
83
100
AcDbEntity
  8
0
  6
Continuous
370
    13
100
AcDbEllipse
 10
165.9982935071204
 20
15.7465696650684
 30
0.0
 11
4.256276458906646
 21
0.0
 31
0.0
210
0.0
220
0.0
230
1.0
 40
0.9993312176344468
 41
5.870391545948016
 42
9.837571270793731
  0
ELLIPSE
  5
E8
330
83
100
AcDbEntity
  8
0
  6
Continuous
370
    13
100
AcDbEllipse
 10
170.254567173519
 20
4.253431132256758
 30
0.0
 11
4.256276458906646
 21
0.0
 31
0.0
210
0.0
220
0.0
230
1.0
 40
0.9993312176344468
 41
2.728799880000443
 42
6.695979068411154
  0
ELLIPSE
  5
E9
330
83
100
AcDbEntity
  8
0
  6
Continuous
370
    13
100
AcDbEllipse
 10
174.5110311415185
 20
15.7465696650684
 30
0.0
 11
4.256276458906646
 21
0.0
 31
0.0
210
0.0
220
0.0
230
1.0
 40
0.9993312176344468
 41
5.870391545948019
 42
9.837571270793731
  0
ELLIPSE
  5
EA
330
83
100
AcDbEntity
  8
0
  6
Continuous
370
    13
100
AcDbEllipse
 10
178.7673048079172
 20
4.253431132256758
 30
0.0
 11
4.256276458906646
 21
0.0
 31
0.0
210
0.0
220
0.0
230
1.0
 40
0.9993312176344468
 41
2.728799880000443
 42
6.695979068411154
  0
ELLIPSE
  5
EB
330
83
100
AcDbEntity
  8
0
  6
Continuous
370
    13
100
AcDbEllipse
 10
183.0237687759167
 20
15.7465696650684
 30
0.0
 11
4.256276458906646
 21
0.0
 31
0.0
210
0.0
220
0.0
230
1.0
 40
0.9993312176344468
 41
5.870391545948016
 42
9.837571270793731
  0
ELLIPSE
  5
EC
330
83
100
AcDbEntity
  8
0
  6
Continuous
370
    13
100
AcDbEllipse
 10
187.2800424423153
 20
4.253431132256758
 30
0.0
 11
4.256276458906646
 21
0.0
 31
0.0
210
0.0
220
0.0
230
1.0
 40
0.9993312176344468
 41
2.728799880000443
 42
6.695979068411154
  0
ELLIPSE
  5
ED
330
83
100
AcDbEntity
  8
0
  6
Continuous
370
    13
100
AcDbEllipse
 10
191.5365064103149
 20
15.7465696650684
 30
0.0
 11
4.256276458906646
 21
0.0
 31
0.0
210
0.0
220
0.0
230
1.0
 40
0.9993312176344468
 41
5.870391545948019
 42
9.837571270793731
  0
ELLIPSE
  5
EE
330
83
100
AcDbEntity
  8
0
  6
Continuous
370
    13
100
AcDbEllipse
 10
195.7927800767135
 20
4.253431132256758
 30
0.0
 11
4.256276458906646
 21
0.0
 31
0.0
210
0.0
220
0.0
230
1.0
 40
0.9993312176344468
 41
2.728799880000443
 42
6.695979068411154
  0
ELLIPSE
  5
EF
330
83
100
AcDbEntity
  8
0
  6
Continuous
370
    13
100
AcDbEllipse
 10
200.049244044713
 20
15.7465696650684
 30
0.0
 11
4.256276458906646
 21
0.0
 31
0.0
210
0.0
220
0.0
230
1.0
 40
0.9993312176344468
 41
5.870391545948016
 42
9.837571270793731
  0
ELLIPSE
  5
F0
330
83
100
AcDbEntity
  8
0
  6
Continuous
370
    13
100
AcDbEllipse
 10
204.3055177111117
 20
4.253431132256758
 30
0.0
 11
4.256276458906646
 21
0.0
 31
0.0
210
0.0
220
0.0
230
1.0
 40
0.9993312176344468
 41
2.728799880000443
 42
6.695979068411154
  0
ELLIPSE
  5
F1
330
83
100
AcDbEntity
  8
0
  6
Continuous
370
    13
100
AcDbEllipse
 10
208.5619816791112
 20
15.7465696650684
 30
0.0
 11
4.256276458906646
 21
0.0
 31
0.0
210
0.0
220
0.0
230
1.0
 40
0.9993312176344468
 41
5.870391545948019
 42
9.837571270793731
  0
ELLIPSE
  5
F2
330
83
100
AcDbEntity
  8
0
  6
Continuous
370
    13
100
AcDbEllipse
 10
212.8182553455098
 20
4.253431132256758
 30
0.0
 11
4.256276458906646
 21
0.0
 31
0.0
210
0.0
220
0.0
230
1.0
 40
0.9993312176344468
 41
2.728799880000443
 42
6.695979068411154
  0
ELLIPSE
  5
F3
330
83
100
AcDbEntity
  8
0
  6
Continuous
370
    13
100
AcDbEllipse
 10
217.0747193135093
 20
15.7465696650684
 30
0.0
 11
4.256276458906646
 21
0.0
 31
0.0
210
0.0
220
0.0
230
1.0
 40
0.9993312176344468
 41
5.870391545948016
 42
9.837571270793731
  0
ELLIPSE
  5
F4
330
83
100
AcDbEntity
  8
0
  6
Continuous
370
    13
100
AcDbEllipse
 10
221.330992979908
 20
4.253431132256758
 30
0.0
 11
4.256276458906646
 21
0.0
 31
0.0
210
0.0
220
0.0
230
1.0
 40
0.9993312176344468
 41
2.728799880000443
 42
6.695979068411154
  0
ELLIPSE
  5
F5
330
83
100
AcDbEntity
  8
0
  6
Continuous
370
    13
100
AcDbEllipse
 10
225.5874569479075
 20
15.7465696650684
 30
0.0
 11
4.256276458906646
 21
0.0
 31
0.0
210
0.0
220
0.0
230
1.0
 40
0.9993312176344468
 41
5.870391545948019
 42
9.837571270793731
  0
ELLIPSE
  5
F6
330
83
100
AcDbEntity
  8
0
  6
Continuous
370
    13
100
AcDbEllipse
 10
229.8437306143062
 20
4.253431132256758
 30
0.0
 11
4.256276458906646
 21
0.0
 31
0.0
210
0.0
220
0.0
230
1.0
 40
0.9993312176344468
 41
2.728799880000443
 42
6.695979068411154
  0
ELLIPSE
  5
F7
330
83
100
AcDbEntity
  8
0
  6
Continuous
370
    13
100
AcDbEllipse
 10
234.1001945823057
 20
15.7465696650684
 30
0.0
 11
4.256276458906646
 21
0.0
 31
0.0
210
0.0
220
0.0
230
1.0
 40
0.9993312176344468
 41
5.870391545948016
 42
9.837571270793731
  0
ELLIPSE
  5
F8
330
83
100
AcDbEntity
  8
0
  6
Continuous
370
    13
100
AcDbEllipse
 10
238.3564682487043
 20
4.253431132256758
 30
0.0
 11
4.256276458906646
 21
0.0
 31
0.0
210
0.0
220
0.0
230
1.0
 40
0.9993312176344468
 41
2.728799880000443
 42
6.695979068411154
  0
ELLIPSE
  5
F9
330
83
100
AcDbEntity
  8
0
  6
Continuous
370
    13
100
AcDbEllipse
 10
242.6129322167039
 20
15.7465696650684
 30
0.0
 11
4.256276458906646
 21
0.0
 31
0.0
210
0.0
220
0.0
230
1.0
 40
0.9993312176344468
 41
5.870391545948019
 42
9.837571270793731
  0
ELLIPSE
  5
FA
330
83
100
AcDbEntity
  8
0
  6
Continuous
370
    13
100
AcDbEllipse
 10
246.8692058831025
 20
4.253431132256758
 30
0.0
 11
4.256276458906646
 21
0.0
 31
0.0
210
0.0
220
0.0
230
1.0
 40
0.9993312176344468
 41
2.728799880000443
 42
4.71238898038469
  0
ENDBLK
  5
85
330
83
100
AcDbEntity
  8
0
100
AcDbBlockEnd
  0
BLOCK
  5
FD
330
FC
100
AcDbEntity
  8
0
100
AcDbBlockBegin
  2
InsulFib 65_2
 70
     0
 10
0.0
 20
0.0
 30
0.0
  3
InsulFib 65_2
  1

  0
LINE
  5
FF
330
FC
100
AcDbEntity
  8
0
  6
Continuous
370
    13
100
AcDbLine
 10
8.897607120999128
 20
11.91955078024715
 30
0.0
 11
15.7268546982676
 21
28.08044443579797
 31
0.0
  0
LINE
  5
100
330
FC
100
AcDbEntity
  8
0
  6
Continuous
370
    13
100
AcDbLine
 10
0.6894542070155836
 20
28.08044443579797
 30
0.0
 11
7.518695629651866
 21
11.91955078024715
 31
0.0
  0
LINE
  5
101
330
FC
100
AcDbEntity
  8
0
  6
Continuous
370
    13
100
AcDbLine
 10
25.31427378766587
 20
11.91955078024715
 30
0.0
 11
32.14352136493434
 21
28.08044443579797
 31
0.0
  0
LINE
  5
102
330
FC
100
AcDbEntity
  8
0
  6
Continuous
370
    13
100
AcDbLine
 10
17.10612087368232
 20
28.08044443579797
 30
0.0
 11
23.9353622963186
 21
11.91955078024715
 31
0.0
  0
LINE
  5
103
330
FC
100
AcDbEntity
  8
0
  6
Continuous
370
    13
100
AcDbLine
 10
41.7309404543326
 20
11.91955078024715
 30
0.0
 11
48.56018803160107
 21
28.08044443579797
 31
0.0
  0
LINE
  5
104
330
FC
100
AcDbEntity
  8
0
  6
Continuous
370
    13
100
AcDbLine
 10
33.52278754034906
 20
28.08044443579797
 30
0.0
 11
40.35202896298534
 21
11.91955078024715
 31
0.0
  0
LINE
  5
105
330
FC
100
AcDbEntity
  8
0
  6
Continuous
370
    13
100
AcDbLine
 10
58.14760712099935
 20
11.91955078024715
 30
0.0
 11
64.97685469826781
 21
28.08044443579797
 31
0.0
  0
LINE
  5
106
330
FC
100
AcDbEntity
  8
0
  6
Continuous
370
    13
100
AcDbLine
 10
49.9394542070158
 20
28.08044443579797
 30
0.0
 11
56.76869562965208
 21
11.91955078024715
 31
0.0
  0
LINE
  5
107
330
FC
100
AcDbEntity
  8
0
  6
Continuous
370
    13
100
AcDbLine
 10
74.56427378766608
 20
11.91955078024715
 30
0.0
 11
81.39352136493456
 21
28.08044443579797
 31
0.0
  0
LINE
  5
108
330
FC
100
AcDbEntity
  8
0
  6
Continuous
370
    13
100
AcDbLine
 10
66.35612087368253
 20
28.08044443579797
 30
0.0
 11
73.18536229631881
 21
11.91955078024715
 31
0.0
  0
LINE
  5
109
330
FC
100
AcDbEntity
  8
0
  6
Continuous
370
    13
100
AcDbLine
 10
90.98094045433284
 20
11.91955078024715
 30
0.0
 11
97.8101880316013
 21
28.08044443579797
 31
0.0
  0
LINE
  5
10A
330
FC
100
AcDbEntity
  8
0
  6
Continuous
370
    13
100
AcDbLine
 10
82.77278754034928
 20
28.08044443579797
 30
0.0
 11
89.60202896298557
 21
11.91955078024715
 31
0.0
  0
LINE
  5
10B
330
FC
100
AcDbEntity
  8
0
  6
Continuous
370
    13
100
AcDbLine
 10
107.3976071209996
 20
11.91955078024715
 30
0.0
 11
114.226854698268
 21
28.08044443579797
 31
0.0
  0
LINE
  5
10C
330
FC
100
AcDbEntity
  8
0
  6
Continuous
370
    13
100
AcDbLine
 10
99.18945420701603
 20
28.08044443579797
 30
0.0
 11
106.0186956296523
 21
11.91955078024715
 31
0.0
  0
LINE
  5
10D
330
FC
100
AcDbEntity
  8
0
  6
Continuous
370
    13
100
AcDbLine
 10
123.8142737876663
 20
11.91955078024715
 30
0.0
 11
130.6435213649348
 21
28.08044443579797
 31
0.0
  0
LINE
  5
10E
330
FC
100
AcDbEntity
  8
0
  6
Continuous
370
    13
100
AcDbLine
 10
115.6061208736828
 20
28.08044443579797
 30
0.0
 11
122.4353622963191
 21
11.91955078024715
 31
0.0
  0
LINE
  5
10F
330
FC
100
AcDbEntity
  8
0
  6
Continuous
370
    13
100
AcDbLine
 10
140.2309404543331
 20
11.91955078024715
 30
0.0
 11
147.0601880316015
 21
28.08044443579797
 31
0.0
  0
LINE
  5
110
330
FC
100
AcDbEntity
  8
0
  6
Continuous
370
    13
100
AcDbLine
 10
132.0227875403495
 20
28.08044443579797
 30
0.0
 11
138.8520289629858
 21
11.91955078024715
 31
0.0
  0
LINE
  5
111
330
FC
100
AcDbEntity
  8
0
  6
Continuous
370
    13
100
AcDbLine
 10
156.6476071209998
 20
11.91955078024715
 30
0.0
 11
163.4768546982683
 21
28.08044443579797
 31
0.0
  0
LINE
  5
112
330
FC
100
AcDbEntity
  8
0
  6
Continuous
370
    13
100
AcDbLine
 10
148.4394542070163
 20
28.08044443579797
 30
0.0
 11
155.2686956296526
 21
11.91955078024715
 31
0.0
  0
LINE
  5
113
330
FC
100
AcDbEntity
  8
0
  6
Continuous
370
    13
100
AcDbLine
 10
173.0642737876666
 20
11.91955078024715
 30
0.0
 11
179.893521364935
 21
28.08044443579797
 31
0.0
  0
LINE
  5
114
330
FC
100
AcDbEntity
  8
0
  6
Continuous
370
    13
100
AcDbLine
 10
164.856120873683
 20
28.08044443579797
 30
0.0
 11
171.6853622963193
 21
11.91955078024715
 31
0.0
  0
LINE
  5
115
330
FC
100
AcDbEntity
  8
0
  6
Continuous
370
    13
100
AcDbLine
 10
189.4809404543333
 20
11.91955078024715
 30
0.0
 11
196.3101880316018
 21
28.08044443579797
 31
0.0
  0
LINE
  5
116
330
FC
100
AcDbEntity
  8
0
  6
Continuous
370
    13
100
AcDbLine
 10
181.2727875403498
 20
28.08044443579797
 30
0.0
 11
188.1020289629861
 21
11.91955078024715
 31
0.0
  0
ELLIPSE
  5
117
330
FC
100
AcDbEntity
  8
0
  6
Continuous
370
    13
100
AcDbEllipse
 10
0.0
 20
8.506859075210492
 30
0.0
 11
5.208949356848336E-16
 21
8.506859872536324
 31
0.0
210
0.0
220
0.0
230
1.0
 40
0.9648866144451191
 41
3.141592653589793
 42
5.125182398197467
  0
ELLIPSE
  5
118
330
FC
100
AcDbEntity
  8
0
  6
Continuous
370
    13
100
AcDbEllipse
 10
8.208159068615732
 20
31.49313933013795
 30
0.0
 11
5.208949356848336E-16
 21
8.506859872536324
 31
0.0
210
0.0
220
0.0
230
1.0
 40
0.9648866144451191
 41
4.299595219153122
 42
8.266774943998833
  0
ELLIPSE
  5
119
330
FC
100
AcDbEntity
  8
0
  6
Continuous
370
    13
100
AcDbEllipse
 10
16.41630890528318
 20
8.506862264513824
 30
0.0
 11
5.208949356848336E-16
 21
8.506859872536324
 31
0.0
210
0.0
220
0.0
230
1.0
 40
0.9648866144451191
 41
1.158003553205547
 42
5.125182741616258
  0
ELLIPSE
  5
11A
330
FC
100
AcDbEntity
  8
0
  6
Continuous
370
    13
100
AcDbEllipse
 10
24.62482573528247
 20
31.49313933013795
 30
0.0
 11
5.208949356848336E-16
 21
8.506859872536324
 31
0.0
210
0.0
220
0.0
230
1.0
 40
0.9648866144451191
 41
4.299595219153122
 42
8.266774943998833
  0
ELLIPSE
  5
11B
330
FC
100
AcDbEntity
  8
0
  6
Continuous
370
    13
100
AcDbEllipse
 10
32.83297557194992
 20
8.506862264513824
 30
0.0
 11
5.208949356848336E-16
 21
8.506859872536324
 31
0.0
210
0.0
220
0.0
230
1.0
 40
0.9648866144451191
 41
1.158003553205547
 42
5.125182741616258
  0
ELLIPSE
  5
11C
330
FC
100
AcDbEntity
  8
0
  6
Continuous
370
    13
100
AcDbEllipse
 10
41.04149240194921
 20
31.49313933013795
 30
0.0
 11
5.208949356848336E-16
 21
8.506859872536324
 31
0.0
210
0.0
220
0.0
230
1.0
 40
0.9648866144451191
 41
4.299595219153122
 42
8.266774943998833
  0
ELLIPSE
  5
11D
330
FC
100
AcDbEntity
  8
0
  6
Continuous
370
    13
100
AcDbEllipse
 10
49.24964223861667
 20
8.506862264513824
 30
0.0
 11
5.208949356848336E-16
 21
8.506859872536324
 31
0.0
210
0.0
220
0.0
230
1.0
 40
0.9648866144451191
 41
1.158003553205547
 42
5.125182741616258
  0
ELLIPSE
  5
11E
330
FC
100
AcDbEntity
  8
0
  6
Continuous
370
    13
100
AcDbEllipse
 10
57.45815906861595
 20
31.49313933013795
 30
0.0
 11
5.208949356848336E-16
 21
8.506859872536324
 31
0.0
210
0.0
220
0.0
230
1.0
 40
0.9648866144451191
 41
4.299595219153122
 42
8.266774943998833
  0
ELLIPSE
  5
11F
330
FC
100
AcDbEntity
  8
0
  6
Continuous
370
    13
100
AcDbEllipse
 10
65.6663089052834
 20
8.506862264513824
 30
0.0
 11
5.208949356848336E-16
 21
8.506859872536324
 31
0.0
210
0.0
220
0.0
230
1.0
 40
0.9648866144451191
 41
1.158003553205547
 42
5.125182741616258
  0
ELLIPSE
  5
120
330
FC
100
AcDbEntity
  8
0
  6
Continuous
370
    13
100
AcDbEllipse
 10
73.87482573528268
 20
31.49313933013795
 30
0.0
 11
5.208949356848336E-16
 21
8.506859872536324
 31
0.0
210
0.0
220
0.0
230
1.0
 40
0.9648866144451191
 41
4.299595219153122
 42
8.266774943998833
  0
ELLIPSE
  5
121
330
FC
100
AcDbEntity
  8
0
  6
Continuous
370
    13
100
AcDbEllipse
 10
82.08297557195014
 20
8.506862264513824
 30
0.0
 11
5.208949356848336E-16
 21
8.506859872536324
 31
0.0
210
0.0
220
0.0
230
1.0
 40
0.9648866144451191
 41
1.158003553205547
 42
5.125182741616258
  0
ELLIPSE
  5
122
330
FC
100
AcDbEntity
  8
0
  6
Continuous
370
    13
100
AcDbEllipse
 10
90.29149240194943
 20
31.49313933013795
 30
0.0
 11
5.208949356848336E-16
 21
8.506859872536324
 31
0.0
210
0.0
220
0.0
230
1.0
 40
0.9648866144451191
 41
4.299595219153122
 42
8.266774943998833
  0
ELLIPSE
  5
123
330
FC
100
AcDbEntity
  8
0
  6
Continuous
370
    13
100
AcDbEllipse
 10
98.49964223861689
 20
8.506862264513824
 30
0.0
 11
5.208949356848336E-16
 21
8.506859872536324
 31
0.0
210
0.0
220
0.0
230
1.0
 40
0.9648866144451191
 41
1.158003553205547
 42
5.125182741616258
  0
ELLIPSE
  5
124
330
FC
100
AcDbEntity
  8
0
  6
Continuous
370
    13
100
AcDbEllipse
 10
106.7081590686162
 20
31.49313933013795
 30
0.0
 11
5.208949356848336E-16
 21
8.506859872536324
 31
0.0
210
0.0
220
0.0
230
1.0
 40
0.9648866144451191
 41
4.299595219153122
 42
8.266774943998833
  0
ELLIPSE
  5
125
330
FC
100
AcDbEntity
  8
0
  6
Continuous
370
    13
100
AcDbEllipse
 10
114.9163089052836
 20
8.506862264513824
 30
0.0
 11
5.208949356848336E-16
 21
8.506859872536324
 31
0.0
210
0.0
220
0.0
230
1.0
 40
0.9648866144451191
 41
1.158003553205547
 42
5.125182741616258
  0
ELLIPSE
  5
126
330
FC
100
AcDbEntity
  8
0
  6
Continuous
370
    13
100
AcDbEllipse
 10
123.1248257352829
 20
31.49313933013795
 30
0.0
 11
5.208949356848336E-16
 21
8.506859872536324
 31
0.0
210
0.0
220
0.0
230
1.0
 40
0.9648866144451191
 41
4.299595219153122
 42
8.266774943998833
  0
ELLIPSE
  5
127
330
FC
100
AcDbEntity
  8
0
  6
Continuous
370
    13
100
AcDbEllipse
 10
131.3329755719504
 20
8.506862264513824
 30
0.0
 11
5.208949356848336E-16
 21
8.506859872536324
 31
0.0
210
0.0
220
0.0
230
1.0
 40
0.9648866144451191
 41
1.158003553205546
 42
5.125182741616257
  0
ELLIPSE
  5
128
330
FC
100
AcDbEntity
  8
0
  6
Continuous
370
    13
100
AcDbEllipse
 10
139.5414924019497
 20
31.49313933013795
 30
0.0
 11
5.208949356848336E-16
 21
8.506859872536324
 31
0.0
210
0.0
220
0.0
230
1.0
 40
0.9648866144451191
 41
4.299595219153121
 42
8.266774943998833
  0
ELLIPSE
  5
129
330
FC
100
AcDbEntity
  8
0
  6
Continuous
370
    13
100
AcDbEllipse
 10
147.7496422386171
 20
8.506862264513824
 30
0.0
 11
5.208949356848336E-16
 21
8.506859872536324
 31
0.0
210
0.0
220
0.0
230
1.0
 40
0.9648866144451191
 41
1.158003553205546
 42
5.125182741616257
  0
ELLIPSE
  5
12A
330
FC
100
AcDbEntity
  8
0
  6
Continuous
370
    13
100
AcDbEllipse
 10
155.9581590686164
 20
31.49313933013795
 30
0.0
 11
5.208949356848336E-16
 21
8.506859872536324
 31
0.0
210
0.0
220
0.0
230
1.0
 40
0.9648866144451191
 41
4.299595219153121
 42
8.266774943998833
  0
ELLIPSE
  5
12B
330
FC
100
AcDbEntity
  8
0
  6
Continuous
370
    13
100
AcDbEllipse
 10
164.1663089052839
 20
8.506862264513824
 30
0.0
 11
5.208949356848336E-16
 21
8.506859872536324
 31
0.0
210
0.0
220
0.0
230
1.0
 40
0.9648866144451191
 41
1.158003553205546
 42
5.125182741616257
  0
ELLIPSE
  5
12C
330
FC
100
AcDbEntity
  8
0
  6
Continuous
370
    13
100
AcDbEllipse
 10
172.3748257352832
 20
31.49313933013795
 30
0.0
 11
5.208949356848336E-16
 21
8.506859872536324
 31
0.0
210
0.0
220
0.0
230
1.0
 40
0.9648866144451191
 41
4.299595219153121
 42
8.266774943998833
  0
ELLIPSE
  5
12D
330
FC
100
AcDbEntity
  8
0
  6
Continuous
370
    13
100
AcDbEllipse
 10
180.5829755719506
 20
8.506862264513824
 30
0.0
 11
5.208949356848336E-16
 21
8.506859872536324
 31
0.0
210
0.0
220
0.0
230
1.0
 40
0.9648866144451191
 41
1.158003553205546
 42
5.125182741616257
  0
ELLIPSE
  5
12E
330
FC
100
AcDbEntity
  8
0
  6
Continuous
370
    13
100
AcDbEllipse
 10
188.7914924019499
 20
31.49313933013795
 30
0.0
 11
5.208949356848336E-16
 21
8.506859872536324
 31
0.0
210
0.0
220
0.0
230
1.0
 40
0.9648866144451191
 41
4.299595219153121
 42
8.266774943998833
  0
ELLIPSE
  5
12F
330
FC
100
AcDbEntity
  8
0
  6
Continuous
370
    13
100
AcDbEllipse
 10
196.9996422386174
 20
8.506862264513824
 30
0.0
 11
5.208949356848336E-16
 21
8.506859872536324
 31
0.0
210
0.0
220
0.0
230
1.0
 40
0.9648866144451191
 41
1.158003553205546
 42
3.141592653589793
  0
ENDBLK
  5
FE
330
FC
100
AcDbEntity
  8
0
100
AcDbBlockEnd
  0
BLOCK
  5
132
330
131
100
AcDbEntity
  8
0
100
AcDbBlockBegin
  2
Sygnał termostatu 12
 70
     2
 10
0.0
 20
0.0
 30
0.0
  3
Sygnał termostatu 12
  1

  0
CIRCLE
  5
134
330
131
100
AcDbEntity
  8
@__WIDOCZNE
  6
Continuous
370
    13
100
AcDbCircle
 10
0.0
 20
0.0
 30
0.0
 40
15.0
  0
ATTDEF
  5
136
330
131
100
AcDbEntity
  8
@__WIDOCZNE
370
    13
100
AcDbText
 10
-10.70832499999996
 20
-6.249182936508113
 30
0.0
 40
14.11111111111111
  1
01
  7
GENERATED_STYLE_1
 11
-10.70832499999996
 21
-10.41967772817478
 31
0.0
100
AcDbAttributeDefinition
  3
Tekst
  2
txt
 70
     0
 74
     1
  0
ENDBLK
  5
133
330
131
100
AcDbEntity
  8
0
100
AcDbBlockEnd
  0
BLOCK
  5
13B
330
13A
100
AcDbEntity
  8
0
100
AcDbBlockBegin
  2
Sygnał termostatu 12_2
 70
     2
 10
0.0
 20
0.0
 30
0.0
  3
Sygnał termostatu 12_2
  1

  0
CIRCLE
  5
13D
330
13A
100
AcDbEntity
  8
@__WIDOCZNE
  6
Continuous
370
    13
100
AcDbCircle
 10
0.0
 20
0.0
 30
0.0
 40
15.0
  0
ATTDEF
  5
13E
330
13A
100
AcDbEntity
  8
@__WIDOCZNE
370
    13
100
AcDbText
 10
-10.70835060310094
 20
-6.249167752691909
 30
0.0
 40
14.11111111111111
  1
02
  7
GENERATED_STYLE_1
 11
-10.70835060310094
 21
-10.41966254435857
 31
0.0
100
AcDbAttributeDefinition
  3
Tekst
  2
txt
 70
     0
 74
     1
  0
ENDBLK
  5
13C
330
13A
100
AcDbEntity
  8
0
100
AcDbBlockEnd
  0
BLOCK
  5
143
330
142
100
AcDbEntity
  8
0
100
AcDbBlockBegin
  2
Sygnał termostatu 12_3
 70
     2
 10
0.0
 20
0.0
 30
0.0
  3
Sygnał termostatu 12_3
  1

  0
CIRCLE
  5
145
330
142
100
AcDbEntity
  8
@__WIDOCZNE
  6
Continuous
370
    13
100
AcDbCircle
 10
0.0
 20
0.0
 30
0.0
 40
15.0
  0
ATTDEF
  5
146
330
142
100
AcDbEntity
  8
@__WIDOCZNE
370
    13
100
AcDbText
 10
-10.70835060310094
 20
-6.249167752691909
 30
0.0
 40
14.11111111111111
  1
03
  7
GENERATED_STYLE_1
 11
-10.70835060310094
 21
-10.41966254435857
 31
0.0
100
AcDbAttributeDefinition
  3
Tekst
  2
txt
 70
     0
 74
     1
  0
ENDBLK
  5
144
330
142
100
AcDbEntity
  8
0
100
AcDbBlockEnd
  0
BLOCK
  5
14B
330
14A
100
AcDbEntity
  8
0
100
AcDbBlockBegin
  2
Sygnał termostatu 12_4
 70
     2
 10
0.0
 20
0.0
 30
0.0
  3
Sygnał termostatu 12_4
  1

  0
CIRCLE
  5
14D
330
14A
100
AcDbEntity
  8
@__WIDOCZNE
  6
Continuous
370
    13
100
AcDbCircle
 10
0.0
 20
0.0
 30
0.0
 40
15.0
  0
ATTDEF
  5
14E
330
14A
100
AcDbEntity
  8
@__WIDOCZNE
370
    13
100
AcDbText
 10
-10.70835060310094
 20
-6.249167752691909
 30
0.0
 40
14.11111111111111
  1
04
  7
GENERATED_STYLE_1
 11
-10.70835060310094
 21
-10.41966254435857
 31
0.0
100
AcDbAttributeDefinition
  3
Tekst
  2
txt
 70
     0
 74
     1
  0
ENDBLK
  5
14C
330
14A
100
AcDbEntity
  8
0
100
AcDbBlockEnd
  0
BLOCK
  5
153
330
152
100
AcDbEntity
  8
0
100
AcDbBlockBegin
  2
Sygnał termostatu 12_5
 70
     2
 10
0.0
 20
0.0
 30
0.0
  3
Sygnał termostatu 12_5
  1

  0
CIRCLE
  5
155
330
152
100
AcDbEntity
  8
@__WIDOCZNE
  6
Continuous
370
    13
100
AcDbCircle
 10
0.0
 20
0.0
 30
0.0
 40
15.0
  0
ATTDEF
  5
156
330
152
100
AcDbEntity
  8
@__WIDOCZNE
370
    13
100
AcDbText
 10
-10.70835060310094
 20
-6.249167752691909
 30
0.0
 40
14.11111111111111
  1
06
  7
GENERATED_STYLE_1
 11
-10.70835060310094
 21
-10.41966254435857
 31
0.0
100
AcDbAttributeDefinition
  3
Tekst
  2
txt
 70
     0
 74
     1
  0
ENDBLK
  5
154
330
152
100
AcDbEntity
  8
0
100
AcDbBlockEnd
  0
BLOCK
  5
15E
330
15D
100
AcDbEntity
  8
0
100
AcDbBlockBegin
  2
Sygnał termostatu 12_6
 70
     2
 10
0.0
 20
0.0
 30
0.0
  3
Sygnał termostatu 12_6
  1

  0
CIRCLE
  5
160
330
15D
100
AcDbEntity
  8
@__WIDOCZNE
  6
Continuous
370
    13
100
AcDbCircle
 10
0.0
 20
0.0
 30
0.0
 40
15.0
  0
ATTDEF
  5
161
330
15D
100
AcDbEntity
  8
@__WIDOCZNE
370
    13
100
AcDbText
 10
-10.70835060310094
 20
-6.249167752691909
 30
0.0
 40
14.11111111111111
  1
05
  7
GENERATED_STYLE_1
 11
-10.70835060310094
 21
-10.41966254435857
 31
0.0
100
AcDbAttributeDefinition
  3
Tekst
  2
txt
 70
     0
 74
     1
  0
ENDBLK
  5
15F
330
15D
100
AcDbEntity
  8
0
100
AcDbBlockEnd
  0
BLOCK
  5
166
330
165
100
AcDbEntity
  8
0
100
AcDbBlockBegin
  2
Sygnał termostatu 12_7
 70
     2
 10
0.0
 20
0.0
 30
0.0
  3
Sygnał termostatu 12_7
  1

  0
CIRCLE
  5
168
330
165
100
AcDbEntity
  8
@__WIDOCZNE
  6
Continuous
370
    13
100
AcDbCircle
 10
0.0
 20
0.0
 30
0.0
 40
15.0
  0
ATTDEF
  5
169
330
165
100
AcDbEntity
  8
@__WIDOCZNE
370
    13
100
AcDbText
 10
-10.70835060310094
 20
-6.249167752691909
 30
0.0
 40
14.11111111111111
  1
07
  7
GENERATED_STYLE_1
 11
-10.70835060310094
 21
-10.41966254435857
 31
0.0
100
AcDbAttributeDefinition
  3
Tekst
  2
txt
 70
     0
 74
     1
  0
ENDBLK
  5
167
330
165
100
AcDbEntity
  8
0
100
AcDbBlockEnd
  0
BLOCK
  5
2C2
330
2C1
100
AcDbEntity
  8
0
100
AcDbBlockBegin
  2
Bez nazwy_STORY_MARKER
 70
     0
 10
0.0
 20
0.0
 30
0.0
  3
Bez nazwy_STORY_MARKER
  1

  0
ENDBLK
  5
2C3
330
2C1
100
AcDbEntity
  8
0
100
AcDbBlockEnd
  0
BLOCK
  5
2C5
330
2C4
100
AcDbEntity
  8
0
100
AcDbBlockBegin
  2
Rysunek_1
 70
     0
 10
0.0
 20
0.0
 30
0.0
  3
Rysunek_1
  1

  0
ENDBLK
  5
2C6
330
2C4
100
AcDbEntity
  8
0
100
AcDbBlockEnd
  0
BLOCK
  5
2CF
330
2CE
100
AcDbEntity
  8
0
100
AcDbBlockBegin
  2
02.04.2-20 \U+FF8CCIANA+PIWICA 08.01._STORY_MARKER
 70
     0
 10
0.0
 20
0.0
 30
0.0
  3
02.04.2-20 \U+FF8CCIANA+PIWICA 08.01._STORY_MARKER
  1

  0
ENDBLK
  5
2D0
330
2CE
100
AcDbEntity
  8
0
100
AcDbBlockEnd
  0
ENDSEC
  0
SECTION
  2
ENTITIES
  0
HATCH
  5
5E
330
1F
100
AcDbEntity
  8
0
  6
Continuous
370
    13
100
AcDbHatch
 10
0.0
 20
0.0
 30
0.0
210
0.0
220
0.0
230
1.0
  2
Beton_0002
 70
     0
 71
     0
 91
        1
 92
        2
 72
     0
 73
     1
 93
        4
 10
-1306.28424700394
 20
738.1335002009448
 10
-1306.28424700394
 20
768.1335002009448
 10
-1503.284247003941
 20
768.1335002009448
 10
-1503.284247003941
 20
738.1335002009448
 97
        0
 75
     0
 76
     2
 52
0.0
 41
1.0
 77
     0
 78
     2
 53
44.99999999999999
 43
0.0
 44
0.0
 45
-9.192387818250328
 46
9.19238781825033
 79
     2
 49
9.749999642372131
 49
-3.24999988079071
 53
44.99999999999999
 43
0.0000000000000009
 44
9.192387818250328
 45
-9.192387818250328
 46
9.19238781825033
 79
     2
 49
9.749999642372131
 49
-3.24999988079071
 98
        0
  0
HATCH
  5
5F
330
1F
100
AcDbEntity
  8
0
  6
Continuous
370
    13
100
AcDbHatch
 10
0.0
 20
0.0
 30
0.0
210
0.0
220
0.0
230
1.0
  2
Beton_zbrojony_0002
 70
     0
 71
     0
 91
        1
 92
        2
 72
     0
 73
     1
 93
        4
 10
-1503.284247003941
 20
515.1335002009449
 10
-1503.284247003941
 20
685.1335002009449
 10
-1306.28424700394
 20
685.1335002009449
 10
-1306.28424700394
 20
515.1335002009449
 97
        0
 75
     0
 76
     2
 52
0.0
 41
1.0
 77
     0
 78
     2
 53
44.99999999999999
 43
0.0
 44
0.0
 45
-9.192387818250328
 46
9.19238781825033
 79
     0
 53
44.99999999999999
 43
-4.596193909125164
 44
4.596193909125165
 45
-9.192387818250328
 46
9.19238781825033
 79
     2
 49
9.749999642372131
 49
-3.24999988079071
 98
        0
  0
HATCH
  5
60
330
1F
100
AcDbEntity
  8
0
  6
Continuous
370
    13
100
AcDbHatch
 10
0.0
 20
0.0
 30
0.0
210
0.0
220
0.0
230
1.0
  2
Płyty_kamienne_0002
 70
     0
 71
     0
 91
        1
 92
        2
 72
     0
 73
     1
 93
        4
 10
-1306.28424700394
 20
776.1335002009448
 10
-1306.28424700394
 20
787.1335002009449
 10
-1503.284247003941
 20
787.1335002009449
 10
-1503.284247003941
 20
776.1335002009448
 97
        0
 75
     0
 76
     2
 52
0.0
 41
1.0
 77
     0
 78
     2
 53
45.0
 43
0.0
 44
17.5
 45
-5.568465901844061
 46
5.568465901844062
 79
     4
 49
0.0
 49
-5.249999999999999
 49
0.0
 49
-7.875
 53
110.0
 43
17.5
 44
17.5
 45
7.400079388689027
 46
2.693408628689645
 79
     4
 49
0.0
 49
-3.85
 49
0.0
 49
-6.649999999999999
 98
        0
  0
HATCH
  5
61
330
1F
100
AcDbEntity
  8
0
  6
Continuous
370
    13
100
AcDbHatch
 10
0.0
 20
0.0
 30
0.0
210
0.0
220
0.0
230
1.0
  2
Beton_zbrojony_kopia_0002
 70
     0
 71
     0
 91
        1
 92
        2
 72
     0
 73
     1
 93
       14
 10
-1286.28424700394
 20
507.1335002009449
 10
-1436.28424700394
 20
507.1335002009449
 10
-1436.28424700394
 20
357.1335002009449
 10
-1062.28424700394
 20
-16.86649979905508
 10
-1062.28424700394
 20
-87.36200678968231
 10
-762.2842470039393
 20
-87.36200678968231
 10
-762.284247003941
 20
765.0565771240218
 10
-842.8611700808668
 20
765.0565771240216
 10
-879.7842470039408
 20
728.1335002009434
 10
-879.7842470039408
 20
468.133500200945
 10
-1139.78424700394
 20
468.133500200945
 10
-1139.78424700394
 20
728.1335002009448
 10
-1179.78424700394
 20
768.1335002009448
 10
-1286.28424700394
 20
768.1335002009448
 97
        0
 75
     0
 76
     2
 52
0.0
 41
1.0
 77
     0
 78
     2
 53
44.99999999999999
 43
0.0
 44
0.0
 45
-9.192387818250328
 46
9.19238781825033
 79
     0
 53
44.99999999999999
 43
-4.596193909125164
 44
4.596193909125165
 45
-9.192387818250328
 46
9.19238781825033
 79
     2
 49
9.749999642372131
 49
-3.24999988079071
 98
        0
  0
HATCH
  5
62
330
1F
100
AcDbEntity
  8
0
  6
Continuous
370
    13
100
AcDbHatch
 10
0.0
 20
0.0
 30
0.0
210
0.0
220
0.0
230
1.0
  2
Płyty_kamienne_0002
 70
     0
 71
     0
 91
        1
 92
        2
 72
     0
 73
     1
 93
       24
 10
-880.7842475180303
 20
790.1334996868543
 10
-868.7842478607566
 20
790.1334996868543
 10
-868.7842478607566
 20
791.6335002232966
 10
-865.7842467878725
 20
791.6335002232966
 10
-865.7842467878725
 20
785.6335003946601
 10
-868.7842478607566
 20
785.6335003946601
 10
-868.7842478607566
 20
787.1335009311025
 10
-880.7842475180303
 20
787.1335009311025
 10
-880.7842475180303
 20
775.1335012738294
 10
-864.2842462514304
 20
775.1335012738294
 10
-864.2842462514304
 20
776.633499493139
 10
-861.2842474956776
 20
776.633499493139
 10
-861.2842474956776
 20
772.1335002009448
 10
-850.4825391504243
 20
772.1335002009448
 10
-846.1161596368578
 20
776.6217840698264
 10
-754.284246303583
 20
776.6217840698264
 10
-754.284246303583
 20
772.1335002009448
 10
-743.2842470039392
 20
772.1335002009448
 10
-743.2842470039392
 20
787.1335009311025
 10
-853.2842469517848
 20
787.1335009311025
 10
-861.2842474956776
 20
795.6334993366767
 10
-864.2842462514304
 20
795.6334993366767
 10
-864.2842462514304
 20
799.1335005883755
 10
-880.7842475180303
 20
799.1335005883755
 97
        0
 75
     0
 76
     2
 52
0.0
 41
1.0
 77
     0
 78
     2
 53
45.0
 43
0.0
 44
17.5
 45
-5.568465901844061
 46
5.568465901844062
 79
     4
 49
0.0
 49
-5.249999999999999
 49
0.0
 49
-7.875
 53
110.0
 43
17.5
 44
17.5
 45
7.400079388689027
 46
2.693408628689645
 79
     4
 49
0.0
 49
-3.85
 49
0.0
 49
-6.649999999999999
 98
        0
  0
HATCH
  5
63
330
1F
100
AcDbEntity
  8
0
  6
Continuous
370
    13
100
AcDbHatch
 10
0.0
 20
0.0
 30
0.0
210
0.0
220
0.0
230
1.0
  2
Gips_0002
 70
     0
 71
     1
 91
        1
 92
        2
 72
     0
 73
     1
 93
        3
 10
-1120.78424700394
 20
772.1335002009448
 10
-1171.71232923405
 20
772.1335002009448
 10
-1120.78424700394
 20
721.2054179708351
 97
        1
330
64
 75
     0
 76
     2
 52
0.0
 41
1.0
 77
     0
 78
     1
 53
0.0
 43
0.0
 44
0.0
 45
0.0
 46
5.250000000000001
 79
     2
 49
0.0
 49
-5.250000000000001
 98
        0
  0
LWPOLYLINE
  5
64
102
{ACAD_REACTORS
330
63
102
}
330
1F
100
AcDbEntity
  8
0
  6
Continuous
370
    13
100
AcDbPolyline
 90
        3
 70
   129
 43
0.0
 10
-1120.78424700394
 20
772.1335002009448
 10
-1171.71232923405
 20
772.1335002009448
 10
-1120.78424700394
 20
721.2054179708351
  0
HATCH
  5
65
330
1F
100
AcDbEntity
  8
0
  6
Continuous
370
    13
100
AcDbHatch
 10
0.0
 20
0.0
 30
0.0
210
0.0
220
0.0
230
1.0
  2
Płyty_kamienne_0002
 70
     0
 71
     0
 91
        1
 92
        2
 72
     0
 73
     1
 93
       22
 10
-1166.28424611732
 20
787.1335012365765
 10
-1286.28424700394
 20
787.1335012365765
 10
-1286.28424700394
 20
776.1335003127036
 10
-1174.12739215033
 20
776.1335003127036
 10
-1170.12739203857
 20
772.1335002009448
 10
-1158.284245893802
 20
772.1335002009448
 10
-1158.284245893802
 20
776.6335012514778
 10
-1155.284247659592
 20
776.6335012514778
 10
-1155.284247659592
 20
775.1335009013001
 10
-1138.784246273782
 20
775.1335009013001
 10
-1138.784246273782
 20
787.1335012365765
 10
-1150.784246609059
 20
787.1335012365765
 10
-1150.784246609059
 20
785.6335008863988
 10
-1153.784247309415
 20
785.6335008863988
 10
-1153.784247309415
 20
791.6334998209649
 10
-1150.784246609059
 20
791.6334998209649
 10
-1150.784246609059
 20
790.1334994707873
 10
-1138.784246273782
 20
790.1334994707873
 10
-1138.784246273782
 20
799.1334991057084
 10
-1155.284247659592
 20
799.1334991057084
 10
-1155.284247659592
 20
795.6334999327237
 10
-1158.284245893802
 20
795.6334999327237
 97
        0
 75
     0
 76
     2
 52
0.0
 41
1.0
 77
     0
 78
     2
 53
45.0
 43
0.0
 44
17.5
 45
-5.568465901844061
 46
5.568465901844062
 79
     4
 49
0.0
 49
-5.249999999999999
 49
0.0
 49
-7.875
 53
110.0
 43
17.5
 44
17.5
 45
7.400079388689027
 46
2.693408628689645
 79
     4
 49
0.0
 49
-3.85
 49
0.0
 49
-6.649999999999999
 98
        0
  0
HATCH
  5
66
330
1F
100
AcDbEntity
  8
0
  6
Continuous
370
    13
100
AcDbHatch
 10
0.0
 20
0.0
 30
0.0
210
0.0
220
0.0
230
1.0
  2
Płyty_kamienne_0002
 70
     0
 71
     0
 91
        1
 92
        2
 72
     0
 73
     1
 93
        4
 10
-754.2842470039401
 20
354.7054179708353
 10
-754.2842470039401
 20
-87.36200678968243
 10
-743.2842470039392
 20
-87.36200678968231
 10
-743.2842470039392
 20
343.7054179708365
 97
        0
 75
     0
 76
     2
 52
0.0
 41
1.0
 77
     0
 78
     2
 53
45.0
 43
0.0
 44
17.5
 45
-5.568465901844061
 46
5.568465901844062
 79
     4
 49
0.0
 49
-5.249999999999999
 49
0.0
 49
-7.875
 53
110.0
 43
17.5
 44
17.5
 45
7.400079388689027
 46
2.693408628689645
 79
     4
 49
0.0
 49
-3.85
 49
0.0
 49
-6.649999999999999
 98
        0
  0
HATCH
  5
67
330
1F
100
AcDbEntity
  8
0
  6
Continuous
370
    13
100
AcDbHatch
 10
0.0
 20
0.0
 30
0.0
210
0.0
220
0.0
230
1.0
  2
Płyty_kamienne_0002
 70
     0
 71
     0
 91
        1
 92
        2
 72
     0
 73
     1
 93
        8
 10
-898.7842470039391
 20
499.2054179708354
 10
-898.7842470039391
 20
486.133500200945
 10
-1120.78424700394
 20
486.133500200945
 10
-1120.78424700394
 20
721.205417970836
 10
-1131.784247003941
 20
732.2054179708371
 10
-1131.784247003941
 20
476.133500200945
 10
-887.7842470039399
 20
476.133500200945
 10
-887.7842470039399
 20
488.2054179708351
 97
        0
 75
     0
 76
     2
 52
0.0
 41
1.0
 77
     0
 78
     2
 53
45.0
 43
0.0
 44
17.5
 45
-5.568465901844061
 46
5.568465901844062
 79
     4
 49
0.0
 49
-5.249999999999999
 49
0.0
 49
-7.875
 53
110.0
 43
17.5
 44
17.5
 45
7.400079388689027
 46
2.693408628689645
 79
     4
 49
0.0
 49
-3.85
 49
0.0
 49
-6.649999999999999
 98
        0
  0
HATCH
  5
68
330
1F
100
AcDbEntity
  8
0
  6
Continuous
370
    13
100
AcDbHatch
 10
0.0
 20
0.0
 30
0.0
210
0.0
220
0.0
230
1.0
  2
Gips_0002
 70
     0
 71
     1
 91
        1
 92
        2
 72
     0
 73
     1
 93
        3
 10
-898.7842470039391
 20
772.1335002009448
 10
-847.8561647738294
 20
772.1335002009448
 10
-898.7842470039391
 20
721.2054179708351
 97
        1
330
69
 75
     0
 76
     2
 52
0.0
 41
1.0
 77
     0
 78
     1
 53
0.0
 43
0.0
 44
0.0
 45
0.0
 46
5.250000000000001
 79
     2
 49
0.0
 49
-5.250000000000001
 98
        0
  0
LWPOLYLINE
  5
69
102
{ACAD_REACTORS
330
68
102
}
330
1F
100
AcDbEntity
  8
0
  6
Continuous
370
    13
100
AcDbPolyline
 90
        3
 70
   129
 43
0.0
 10
-898.7842470039391
 20
772.1335002009448
 10
-847.8561647738294
 20
772.1335002009448
 10
-898.7842470039391
 20
721.2054179708351
  0
HATCH
  5
6A
330
1F
100
AcDbEntity
  8
@__WIDOCZNE
  6
Continuous
 62
   142
370
    13
100
AcDbHatch
 10
0.0
 20
0.0
 30
0.0
210
0.0
220
0.0
230
1.0
  2
SOLID
 70
     1
 71
     1
 91
        1
 92
        2
 72
     1
 73
     1
 93
        6
 10
-1258.285241483765
 20
-158.2538794642277
 42
0.0
 10
-1258.285241483765
 20
-145.9647682763585
 42
0.0
 10
-1270.574352671634
 20
-145.9647682763585
 42
0.414213562373095
 10
-1285.321286097078
 20
-160.7117017018009
 42
0.0
 10
-1285.321286097078
 20
-173.0008128896701
 42
0.0
 10
-1273.032174909208
 20
-173.0008128896701
 42
0.414213562373095
 97
        1
330
6C
 75
     0
 76
     1
 98
        0
  0
LWPOLYLINE
  5
6C
102
{ACAD_REACTORS
330
6A
102
}
330
1F
100
AcDbEntity
  8
@__WIDOCZNE
  6
Continuous
 62
   142
370
    13
100
AcDbPolyline
 90
        6
 70
   129
 43
0.0
 10
-1258.285241483765
 20
-158.2538794642277
 10
-1258.285241483765
 20
-145.9647682763585
 10
-1270.574352671634
 20
-145.9647682763585
 42
0.414213562373095
 10
-1285.321286097078
 20
-160.7117017018009
 10
-1285.321286097078
 20
-173.0008128896701
 10
-1273.032174909208
 20
-173.0008128896701
 42
0.414213562373095
  0
HATCH
  5
6D
330
1F
100
AcDbEntity
  8
@__WIDOCZNE
  6
Continuous
370
    13
100
AcDbHatch
 10
0.0
 20
0.0
 30
0.0
210
0.0
220
0.0
230
1.0
  2
SOLID
 70
     1
 71
     1
 91
        3
 92
        2
 72
     1
 73
     1
 93
        8
 10
-1485.588736301994
 20
-172.5933018295198
 42
0.0723831287448308
 10
-1503.424689043262
 20
-172.7453760981987
 42
0.0
 10
-1503.424689043262
 20
-207.0607178382648
 42
0.0475754375093521
 10
-1493.779480340855
 20
-208.112607029957
 42
0.0
 10
-1492.394750305645
 20
-208.112607029957
 42
0.0201526900432898
 10
-1488.283207083355
 20
-207.8909876407682
 42
0.1117820670402823
 10
-1479.516725981289
 20
-205.1217116741697
 42
0.5989391739264164
 10
-1482.426162674919
 20
-188.6836761508823
 42
0.7144612958116017
 97
        1
330
6E
 92
        2
 72
     1
 73
     1
 93
        4
 10
-1497.007559189316
 20
-186.6490418244555
 42
0.018587651104709
 10
-1488.209294201912
 20
-186.6405702929659
 42
0.8637728306683231
 10
-1488.465839045887
 20
-177.5002958840315
 42
0.0363046036528515
 10
-1497.007559189316
 20
-177.5002958840315
 42
0.0
 97
        1
330
6F
 92
        2
 72
     1
 73
     1
 93
        4
 10
-1496.908353830492
 20
-202.5253679550028
 42
0.0570602598095221
 10
-1487.837896688778
 20
-202.437831385718
 42
0.9504624262000833
 10
-1487.933043832063
 20
-191.7723395510924
 42
0.0333151677067815
 10
-1496.908353830492
 20
-191.7723395510924
 42
0.0
 97
        1
330
70
 75
     0
 76
     1
 98
        0
  0
LWPOLYLINE
  5
6E
102
{ACAD_REACTORS
330
6D
102
}
330
1F
100
AcDbEntity
  8
@__WIDOCZNE
  6
Continuous
370
    13
100
AcDbPolyline
 90
        8
 70
   129
 43
0.0
 10
-1485.588736301994
 20
-172.5933018295198
 42
0.0723831287448308
 10
-1503.424689043262
 20
-172.7453760981987
 10
-1503.424689043262
 20
-207.0607178382648
 42
0.0475754375093521
 10
-1493.779480340855
 20
-208.112607029957
 10
-1492.394750305645
 20
-208.112607029957
 42
0.0201526900432898
 10
-1488.283207083355
 20
-207.8909876407682
 42
0.1117820670402823
 10
-1479.516725981289
 20
-205.1217116741697
 42
0.5989391739264164
 10
-1482.426162674919
 20
-188.6836761508823
 42
0.7144612958116017
  0
LWPOLYLINE
  5
6F
102
{ACAD_REACTORS
330
6D
102
}
330
1F
100
AcDbEntity
  8
@__WIDOCZNE
  6
Continuous
370
    13
100
AcDbPolyline
 90
        4
 70
   129
 43
0.0
 10
-1497.007559189316
 20
-186.6490418244555
 42
0.018587651104709
 10
-1488.209294201912
 20
-186.6405702929659
 42
0.8637728306683231
 10
-1488.465839045887
 20
-177.5002958840315
 42
0.0363046036528515
 10
-1497.007559189316
 20
-177.5002958840315
  0
LWPOLYLINE
  5
70
102
{ACAD_REACTORS
330
6D
102
}
330
1F
100
AcDbEntity
  8
@__WIDOCZNE
  6
Continuous
370
    13
100
AcDbPolyline
 90
        4
 70
   129
 43
0.0
 10
-1496.908353830492
 20
-202.5253679550028
 42
0.0570602598095221
 10
-1487.837896688778
 20
-202.437831385718
 42
0.9504624262000833
 10
-1487.933043832063
 20
-191.7723395510924
 42
0.0333151677067815
 10
-1496.908353830492
 20
-191.7723395510924
  0
HATCH
  5
71
330
1F
100
AcDbEntity
  8
@__WIDOCZNE
  6
Continuous
370
    13
100
AcDbHatch
 10
0.0
 20
0.0
 30
0.0
210
0.0
220
0.0
230
1.0
  2
SOLID
 70
     1
 71
     1
 91
        1
 92
        2
 72
     1
 73
     1
 93
       12
 10
-1427.985604224035
 20
-180.4483901492733
 42
0.0
 10
-1435.94631396177
 20
-180.4483901492733
 42
0.0
 10
-1435.94631396177
 20
-172.7054858315391
 42
0.0
 10
-1442.085946308518
 20
-173.9542246139292
 42
0.0
 10
-1442.085946308518
 20
-199.480480169995
 42
0.3686923280690939
 10
-1433.453870887787
 20
-208.0828067395464
 42
0.0
 10
-1427.230624814959
 20
-208.061322388307
 42
0.0
 10
-1425.904372920053
 20
-202.2589703480928
 42
0.0
 10
-1432.259580605409
 20
-202.2589703480928
 42
-0.3159610186060354
 10
-1435.94631396177
 20
-198.5722369917318
 42
0.0
 10
-1435.94631396177
 20
-186.1814585248271
 42
0.0
 10
-1427.985604224035
 20
-186.1814585248271
 42
0.0
 97
        1
330
72
 75
     0
 76
     1
 98
        0
  0
LWPOLYLINE
  5
72
102
{ACAD_REACTORS
330
71
102
}
330
1F
100
AcDbEntity
  8
@__WIDOCZNE
  6
Continuous
370
    13
100
AcDbPolyline
 90
       12
 70
   129
 43
0.0
 10
-1427.985604224035
 20
-180.4483901492733
 10
-1435.94631396177
 20
-180.4483901492733
 10
-1435.94631396177
 20
-172.7054858315391
 10
-1442.085946308518
 20
-173.9542246139292
 10
-1442.085946308518
 20
-199.480480169995
 42
0.3686923280690939
 10
-1433.453870887787
 20
-208.0828067395464
 10
-1427.230624814959
 20
-208.061322388307
 10
-1425.904372920053
 20
-202.2589703480928
 10
-1432.259580605409
 20
-202.2589703480928
 42
-0.3159610186060354
 10
-1435.94631396177
 20
-198.5722369917318
 10
-1435.94631396177
 20
-186.1814585248271
 10
-1427.985604224035
 20
-186.1814585248271
  0
HATCH
  5
73
330
1F
100
AcDbEntity
  8
@__WIDOCZNE
  6
Continuous
370
    13
100
AcDbHatch
 10
0.0
 20
0.0
 30
0.0
210
0.0
220
0.0
230
1.0
  2
SOLID
 70
     1
 71
     1
 91
        2
 92
        2
 72
     1
 73
     1
 93
       14
 10
-1410.973719768411
 20
-186.3486724611216
 42
-0.387209016979461
 10
-1407.105971718622
 20
-190.4068844757092
 42
0.0
 10
-1407.071411073443
 20
-191.941981590575
 42
0.1185067504646354
 10
-1415.958466090167
 20
-191.8619207807533
 42
0.2642193030162518
 10
-1422.317022106284
 20
-196.9091407172512
 42
0.1757337626801403
 10
-1422.324710388534
 20
-202.4978261902024
 42
0.2604621029539542
 10
-1416.186486446
 20
-207.9577080761557
 42
0.0083652857947627
 10
-1414.414391187556
 20
-208.112607029957
 42
0.0
 10
-1406.928696689512
 20
-208.112607029957
 42
0.028992295246684
 10
-1400.819054146027
 20
-207.3236237966161
 42
0.0
 10
-1401.132501388271
 20
-189.990827243091
 42
0.4278697545607686
 10
-1409.841406218407
 20
-180.7911496455059
 42
0.0
 10
-1418.568122315093
 20
-180.7545150635905
 42
0.0
 10
-1419.949029766837
 20
-186.3486724611216
 42
0.0
 97
        1
330
74
 92
        2
 72
     1
 73
     1
 93
        6
 10
-1407.01650933503
 20
-196.1943730667222
 42
0.1273826308893613
 10
-1413.8076281881
 20
-196.0195718980453
 42
0.2091253650713026
 10
-1416.491597926097
 20
-198.5673705126738
 42
0.067218802794298
 10
-1416.460068702101
 20
-200.5211398163167
 42
0.2977682718343915
 10
-1413.699892106582
 20
-203.3586599169859
 42
0.0710664823309622
 10
-1407.01650933503
 20
-203.3455946335019
 42
0.0
 97
        1
330
75
 75
     0
 76
     1
 98
        0
  0
LWPOLYLINE
  5
74
102
{ACAD_REACTORS
330
73
102
}
330
1F
100
AcDbEntity
  8
@__WIDOCZNE
  6
Continuous
370
    13
100
AcDbPolyline
 90
       14
 70
   129
 43
0.0
 10
-1410.973719768411
 20
-186.3486724611216
 42
-0.387209016979461
 10
-1407.105971718622
 20
-190.4068844757092
 10
-1407.071411073443
 20
-191.941981590575
 42
0.1185067504646354
 10
-1415.958466090167
 20
-191.8619207807533
 42
0.2642193030162518
 10
-1422.317022106284
 20
-196.9091407172512
 42
0.1757337626801403
 10
-1422.324710388534
 20
-202.4978261902024
 42
0.2604621029539542
 10
-1416.186486446
 20
-207.9577080761557
 42
0.0083652857947627
 10
-1414.414391187556
 20
-208.112607029957
 10
-1406.928696689512
 20
-208.112607029957
 42
0.028992295246684
 10
-1400.819054146027
 20
-207.3236237966161
 10
-1401.132501388271
 20
-189.990827243091
 42
0.4278697545607686
 10
-1409.841406218407
 20
-180.7911496455059
 10
-1418.568122315093
 20
-180.7545150635905
 10
-1419.949029766837
 20
-186.3486724611216
  0
LWPOLYLINE
  5
75
102
{ACAD_REACTORS
330
73
102
}
330
1F
100
AcDbEntity
  8
@__WIDOCZNE
  6
Continuous
370
    13
100
AcDbPolyline
 90
        6
 70
   129
 43
0.0
 10
-1407.01650933503
 20
-196.1943730667222
 42
0.1273826308893613
 10
-1413.8076281881
 20
-196.0195718980453
 42
0.2091253650713026
 10
-1416.491597926097
 20
-198.5673705126738
 42
0.067218802794298
 10
-1416.460068702101
 20
-200.5211398163167
 42
0.2977682718343915
 10
-1413.699892106582
 20
-203.3586599169859
 42
0.0710664823309622
 10
-1407.01650933503
 20
-203.3455946335019
  0
HATCH
  5
76
330
1F
100
AcDbEntity
  8
@__WIDOCZNE
  6
Continuous
370
    13
100
AcDbHatch
 10
0.0
 20
0.0
 30
0.0
210
0.0
220
0.0
230
1.0
  2
SOLID
 70
     1
 71
     1
 91
        1
 92
        2
 72
     1
 73
     1
 93
       26
 10
-1390.383441181892
 20
-180.6652721706332
 42
0.0863077155126181
 10
-1396.175620130044
 20
-182.0845142345509
 42
0.0
 10
-1396.175620130044
 20
-208.112607029957
 42
0.0
 10
-1389.6767692303
 20
-208.112607029957
 42
0.0
 10
-1389.6767692303
 20
-186.3193743736307
 42
-0.12168371550613
 10
-1384.845379525906
 20
-185.8431590244156
 42
-0.3861329478031837
 10
-1380.903059843137
 20
-190.4344963844746
 42
0.0
 10
-1380.903059843137
 20
-208.112607029957
 42
0.0
 10
-1374.65936593119
 20
-208.112607029957
 42
0.0
 10
-1374.750318670046
 20
-191.0115400838144
 42
0.0
 10
-1374.65936593119
 20
-191.0096644251869
 42
0.0799288732000265
 10
-1375.286144154912
 20
-187.4573348932969
 42
0.0
 10
-1374.653797350986
 20
-187.0662779191341
 42
-0.1916235362829357
 10
-1369.065624108775
 20
-185.9785845007376
 42
-0.3589776600930252
 10
-1365.675951901556
 20
-190.0325359978476
 42
0.0
 10
-1365.672830364925
 20
-208.112607029957
 42
0.0
 10
-1359.718662472191
 20
-208.112607029957
 42
0.0
 10
-1359.721308737923
 20
-188.77859302211
 42
0.3475935087177212
 10
-1366.967577297611
 20
-180.4483901492733
 42
0.0
 10
-1371.869693333157
 20
-180.4483901492733
 42
0.0002381544695914
 10
-1371.903420492285
 20
-180.4507637151593
 42
0.1173548723086789
 10
-1374.90379724534
 20
-181.3181108122299
 42
0.1053500657717058
 10
-1378.009229392864
 20
-183.2694732941762
 42
0.1560368886834541
 10
-1382.610023546889
 20
-180.6093620490554
 42
0.0158994515272265
 10
-1384.823553214976
 20
-180.4483901492733
 42
0.0
 10
-1387.670927912305
 20
-180.4483901492733
 42
0.0194967579096993
 97
        1
330
77
 75
     0
 76
     1
 98
        0
  0
LWPOLYLINE
  5
77
102
{ACAD_REACTORS
330
76
102
}
330
1F
100
AcDbEntity
  8
@__WIDOCZNE
  6
Continuous
370
    13
100
AcDbPolyline
 90
       26
 70
   129
 43
0.0
 10
-1390.383441181892
 20
-180.6652721706332
 42
0.0863077155126181
 10
-1396.175620130044
 20
-182.0845142345509
 10
-1396.175620130044
 20
-208.112607029957
 10
-1389.6767692303
 20
-208.112607029957
 10
-1389.6767692303
 20
-186.3193743736307
 42
-0.12168371550613
 10
-1384.845379525906
 20
-185.8431590244156
 42
-0.3861329478031837
 10
-1380.903059843137
 20
-190.4344963844746
 10
-1380.903059843137
 20
-208.112607029957
 10
-1374.65936593119
 20
-208.112607029957
 10
-1374.750318670046
 20
-191.0115400838144
 10
-1374.65936593119
 20
-191.0096644251869
 42
0.0799288732000265
 10
-1375.286144154912
 20
-187.4573348932969
 10
-1374.653797350986
 20
-187.0662779191341
 42
-0.1916235362829357
 10
-1369.065624108775
 20
-185.9785845007376
 42
-0.3589776600930252
 10
-1365.675951901556
 20
-190.0325359978476
 10
-1365.672830364925
 20
-208.112607029957
 10
-1359.718662472191
 20
-208.112607029957
 10
-1359.721308737923
 20
-188.77859302211
 42
0.3475935087177212
 10
-1366.967577297611
 20
-180.4483901492733
 10
-1371.869693333157
 20
-180.4483901492733
 42
0.0002381544695914
 10
-1371.903420492285
 20
-180.4507637151593
 42
0.1173548723086789
 10
-1374.90379724534
 20
-181.3181108122299
 42
0.1053500657717058
 10
-1378.009229392864
 20
-183.2694732941762
 42
0.1560368886834541
 10
-1382.610023546889
 20
-180.6093620490554
 42
0.0158994515272265
 10
-1384.823553214976
 20
-180.4483901492733
 10
-1387.670927912305
 20
-180.4483901492733
 42
0.0194967579096993
  0
HATCH
  5
78
330
1F
100
AcDbEntity
  8
@__WIDOCZNE
  6
Continuous
370
    13
100
AcDbHatch
 10
0.0
 20
0.0
 30
0.0
210
0.0
220
0.0
230
1.0
  2
SOLID
 70
     1
 71
     1
 91
        2
 92
        2
 72
     1
 73
     1
 93
       14
 10
-1345.36639202381
 20
-181.0709653957696
 42
0.2809658966461606
 10
-1354.56413602045
 20
-190.5861843163601
 42
0.1091159824470767
 10
-1354.55723850437
 20
-199.0705877531289
 42
0.2766399819923606
 10
-1345.317286259902
 20
-207.7420080650143
 42
0.0392105095801167
 10
-1342.783521019888
 20
-208.1015102821484
 42
0.0
 10
-1333.975771964207
 20
-208.112607029957
 42
0.0
 10
-1332.876458864514
 20
-202.67536546528
 42
0.0
 10
-1342.077481140382
 20
-202.67536546528
 42
-0.1667294674755062
 10
-1346.066404342649
 20
-201.3071898584424
 42
-0.081638462027361
 10
-1348.115264967762
 20
-198.6723173104927
 42
-0.0661503038161424
 10
-1348.391914482565
 20
-196.9029130962341
 42
0.0
 10
-1330.805509963912
 20
-196.9029130962341
 42
0.0
 10
-1330.805509963912
 20
-191.2835885754811
 42
0.3105787245802772
 10
-1339.197434978307
 20
-181.0572275231455
 42
0.1083142208160692
 97
        1
330
79
 92
        2
 72
     1
 73
     1
 93
        5
 10
-1340.864653602027
 20
-185.7541459292171
 42
0.1431069476368757
 10
-1343.837025271062
 20
-185.6486682468448
 42
0.3279495498710064
 10
-1348.389592382415
 20
-191.8535760947539
 42
0.0
 10
-1336.703144885417
 20
-191.8535760947539
 42
0.0
 10
-1336.703144885417
 20
-191.3757889500969
 42
0.3298596086471468
 97
        1
330
7A
 75
     0
 76
     1
 98
        0
  0
LWPOLYLINE
  5
79
102
{ACAD_REACTORS
330
78
102
}
330
1F
100
AcDbEntity
  8
@__WIDOCZNE
  6
Continuous
370
    13
100
AcDbPolyline
 90
       14
 70
   129
 43
0.0
 10
-1345.36639202381
 20
-181.0709653957696
 42
0.2809658966461606
 10
-1354.56413602045
 20
-190.5861843163601
 42
0.1091159824470767
 10
-1354.55723850437
 20
-199.0705877531289
 42
0.2766399819923606
 10
-1345.317286259902
 20
-207.7420080650143
 42
0.0392105095801167
 10
-1342.783521019888
 20
-208.1015102821484
 10
-1333.975771964207
 20
-208.112607029957
 10
-1332.876458864514
 20
-202.67536546528
 10
-1342.077481140382
 20
-202.67536546528
 42
-0.1667294674755062
 10
-1346.066404342649
 20
-201.3071898584424
 42
-0.081638462027361
 10
-1348.115264967762
 20
-198.6723173104927
 42
-0.0661503038161424
 10
-1348.391914482565
 20
-196.9029130962341
 10
-1330.805509963912
 20
-196.9029130962341
 10
-1330.805509963912
 20
-191.2835885754811
 42
0.3105787245802772
 10
-1339.197434978307
 20
-181.0572275231455
 42
0.1083142208160692
  0
LWPOLYLINE
  5
7A
102
{ACAD_REACTORS
330
78
102
}
330
1F
100
AcDbEntity
  8
@__WIDOCZNE
  6
Continuous
370
    13
100
AcDbPolyline
 90
        5
 70
   129
 43
0.0
 10
-1340.864653602027
 20
-185.7541459292171
 42
0.1431069476368757
 10
-1343.837025271062
 20
-185.6486682468448
 42
0.3279495498710064
 10
-1348.389592382415
 20
-191.8535760947539
 10
-1336.703144885417
 20
-191.8535760947539
 10
-1336.703144885417
 20
-191.3757889500969
 42
0.3298596086471468
  0
HATCH
  5
7B
330
1F
100
AcDbEntity
  8
@__WIDOCZNE
  6
Continuous
370
    13
100
AcDbHatch
 10
0.0
 20
0.0
 30
0.0
210
0.0
220
0.0
230
1.0
  2
SOLID
 70
     1
 71
     1
 91
        1
 92
        2
 72
     1
 73
     1
 93
       13
 10
-1312.060856317751
 20
-180.6267486755602
 42
0.0175531184166386
 10
-1314.869018047959
 20
-180.4483901492733
 42
0.0
 10
-1317.139827690774
 20
-180.4483901492733
 42
0.0177750747803509
 10
-1319.983395452898
 20
-180.6302644947249
 42
0.0683229953867364
 10
-1326.303838345601
 20
-181.8770578605529
 42
0.0
 10
-1326.303838345601
 20
-208.112607029957
 42
0.0
 10
-1320.055353053198
 20
-208.112607029957
 42
0.0
 10
-1320.055353053198
 20
-186.29713742749
 42
-0.0958663550348273
 10
-1313.964521929624
 20
-186.019382022184
 42
-0.3633763851128492
 10
-1310.286765625028
 20
-190.4117100275064
 42
0.0
 10
-1310.286765625028
 20
-208.112607029957
 42
0.0
 10
-1304.201695362503
 20
-208.112607029957
 42
0.0
 10
-1304.201695362503
 20
-189.4651187284
 42
0.3803017440747632
 97
        1
330
7C
 75
     0
 76
     1
 98
        0
  0
LWPOLYLINE
  5
7C
102
{ACAD_REACTORS
330
7B
102
}
330
1F
100
AcDbEntity
  8
@__WIDOCZNE
  6
Continuous
370
    13
100
AcDbPolyline
 90
       13
 70
   129
 43
0.0
 10
-1312.060856317751
 20
-180.6267486755602
 42
0.0175531184166386
 10
-1314.869018047959
 20
-180.4483901492733
 10
-1317.139827690774
 20
-180.4483901492733
 42
0.0177750747803509
 10
-1319.983395452898
 20
-180.6302644947249
 42
0.0683229953867364
 10
-1326.303838345601
 20
-181.8770578605529
 10
-1326.303838345601
 20
-208.112607029957
 10
-1320.055353053198
 20
-208.112607029957
 10
-1320.055353053198
 20
-186.29713742749
 42
-0.0958663550348273
 10
-1313.964521929624
 20
-186.019382022184
 42
-0.3633763851128492
 10
-1310.286765625028
 20
-190.4117100275064
 10
-1310.286765625028
 20
-208.112607029957
 10
-1304.201695362503
 20
-208.112607029957
 10
-1304.201695362503
 20
-189.4651187284
 42
0.3803017440747632
  0
HATCH
  5
7D
330
1F
100
AcDbEntity
  8
@__WIDOCZNE
  6
Continuous
370
    13
100
AcDbHatch
 10
0.0
 20
0.0
 30
0.0
210
0.0
220
0.0
230
1.0
  2
SOLID
 70
     1
 71
     1
 91
        1
 92
        2
 72
     1
 73
     1
 93
       12
 10
-1299.460690792835
 20
-199.480480169995
 42
0.3564817226562251
 10
-1290.828615372106
 20
-208.0828067395464
 42
0.0
 10
-1284.605369299276
 20
-208.061322388307
 42
0.0
 10
-1283.279117404372
 20
-202.2589703480928
 42
0.0
 10
-1289.634325089726
 20
-202.2589703480928
 42
-0.3014632934563285
 10
-1293.321058446087
 20
-198.5722369917318
 42
0.0
 10
-1293.321058446087
 20
-186.1814585248271
 42
0.0
 10
-1285.360348708354
 20
-186.1814585248271
 42
0.0
 10
-1285.360348708354
 20
-180.4483901492733
 42
0.0
 10
-1293.321058446087
 20
-180.4483901492733
 42
0.0
 10
-1293.321058446087
 20
-172.7054858315391
 42
0.0
 10
-1299.460690792835
 20
-173.9542246139292
 42
0.0
 97
        1
330
7E
 75
     0
 76
     1
 98
        0
  0
LWPOLYLINE
  5
7E
102
{ACAD_REACTORS
330
7D
102
}
330
1F
100
AcDbEntity
  8
@__WIDOCZNE
  6
Continuous
370
    13
100
AcDbPolyline
 90
       12
 70
   129
 43
0.0
 10
-1299.460690792835
 20
-199.480480169995
 42
0.3564817226562251
 10
-1290.828615372106
 20
-208.0828067395464
 10
-1284.605369299276
 20
-208.061322388307
 10
-1283.279117404372
 20
-202.2589703480928
 10
-1289.634325089726
 20
-202.2589703480928
 42
-0.3014632934563285
 10
-1293.321058446087
 20
-198.5722369917318
 10
-1293.321058446087
 20
-186.1814585248271
 10
-1285.360348708354
 20
-186.1814585248271
 10
-1285.360348708354
 20
-180.4483901492733
 10
-1293.321058446087
 20
-180.4483901492733
 10
-1293.321058446087
 20
-172.7054858315391
 10
-1299.460690792835
 20
-173.9542246139292
  0
HATCH
  5
7F
330
1F
100
AcDbEntity
  8
@__WIDOCZNE
  6
Continuous
370
    13
100
AcDbHatch
 10
0.0
 20
0.0
 30
0.0
210
0.0
220
0.0
230
1.0
  2
SOLID
 70
     1
 71
     1
 91
        2
 92
        2
 72
     1
 73
     1
 93
        9
 10
-1462.460834768352
 20
-180.6858140685812
 42
0.2820479307333718
 10
-1471.88291287913
 20
-190.2120189085579
 42
0.0886832537999132
 10
-1471.865770056689
 20
-198.862089525746
 42
0.2508564250541997
 10
-1463.149762727636
 20
-208.112607029957
 42
0.0
 10
-1455.642402576421
 20
-208.112607029957
 42
0.2670900430231695
 10
-1446.819828102928
 20
-198.0216068094294
 42
0.1207336614180937
 10
-1446.797804242077
 20
-190.6772776418082
 42
0.3094451166888095
 10
-1456.140107020388
 20
-180.703081532662
 42
0.0268897328129527
 10
-1457.812663036563
 20
-180.4483901492733
 42
0.074328415179198
 97
        1
330
80
 92
        2
 72
     1
 73
     1
 93
        8
 10
-1465.679224944995
 20
-191.5177063291826
 42
0.0948073731652809
 10
-1465.727253292521
 20
-197.127085931861
 42
0.0590800675341869
 10
-1465.181506560546
 20
-198.9928214143413
 42
0.6394418664691048
 10
-1453.720973965335
 20
-199.3409585063179
 42
0.0835238969854629
 10
-1453.003595063135
 20
-196.9942058161511
 42
0.0916297819744675
 10
-1453.117364240138
 20
-191.234451199322
 42
0.2559732989582162
 10
-1457.323385536064
 20
-186.0197430600043
 42
0.1954327814670101
 10
-1461.599801011243
 20
-186.1940097727586
 42
0.2505066079508973
 97
        1
330
81
 75
     0
 76
     1
 98
        0
  0
LWPOLYLINE
  5
80
102
{ACAD_REACTORS
330
7F
102
}
330
1F
100
AcDbEntity
  8
@__WIDOCZNE
  6
Continuous
370
    13
100
AcDbPolyline
 90
        9
 70
   129
 43
0.0
 10
-1462.460834768352
 20
-180.6858140685812
 42
0.2820479307333718
 10
-1471.88291287913
 20
-190.2120189085579
 42
0.0886832537999132
 10
-1471.865770056689
 20
-198.862089525746
 42
0.2508564250541997
 10
-1463.149762727636
 20
-208.112607029957
 10
-1455.642402576421
 20
-208.112607029957
 42
0.2670900430231695
 10
-1446.819828102928
 20
-198.0216068094294
 42
0.1207336614180937
 10
-1446.797804242077
 20
-190.6772776418082
 42
0.3094451166888095
 10
-1456.140107020388
 20
-180.703081532662
 42
0.0268897328129527
 10
-1457.812663036563
 20
-180.4483901492733
 42
0.074328415179198
  0
LWPOLYLINE
  5
81
102
{ACAD_REACTORS
330
7F
102
}
330
1F
100
AcDbEntity
  8
@__WIDOCZNE
  6
Continuous
370
    13
100
AcDbPolyline
 90
        8
 70
   129
 43
0.0
 10
-1465.679224944995
 20
-191.5177063291826
 42
0.0948073731652809
 10
-1465.727253292521
 20
-197.127085931861
 42
0.0590800675341869
 10
-1465.181506560546
 20
-198.9928214143413
 42
0.6394418664691048
 10
-1453.720973965335
 20
-199.3409585063179
 42
0.0835238969854629
 10
-1453.003595063135
 20
-196.9942058161511
 42
0.0916297819744675
 10
-1453.117364240138
 20
-191.234451199322
 42
0.2559732989582162
 10
-1457.323385536064
 20
-186.0197430600043
 42
0.1954327814670101
 10
-1461.599801011243
 20
-186.1940097727586
 42
0.2505066079508973
  0
INSERT
  5
FB
330
1F
100
AcDbEntity
  8
0
  6
Continuous
370
    13
100
AcDbBlockReference
  2
InsulFib 65
 10
-1306.284246605277
 20
762.0028915984917
 30
0.0
 50
270.0
  0
INSERT
  5
130
330
1F
100
AcDbEntity
  8
0
  6
Continuous
370
    13
100
AcDbBlockReference
  2
InsulFib 65_2
 10
-1503.284247003941
 20
693.1335009982706
 30
0.0
  0
INSERT
  5
137
330
1F
100
AcDbEntity
  8
@__WIDOCZNE
  6
Continuous
370
    13
100
AcDbBlockReference
 66
     1
  2
Sygnał termostatu 12
 10
-980.266354371083
 20
1110.440241601016
 30
0.0
  0
ATTRIB
  5
138
330
137
100
AcDbEntity
  8
@__WIDOCZNE
  6
Continuous
370
    13
100
AcDbText
 10
-990.9746793710827
 20
1104.191058664508
 30
0.0
 40
14.11111111111111
  1
01
  7
GENERATED_STYLE_1
 11
-990.9746793710827
 21
1100.020563872842
 31
0.0
100
AcDbAttribute
  2
txt
 70
     0
 74
     1
  0
SEQEND
  5
139
330
137
100
AcDbEntity
  8
@__WIDOCZNE
  6
Continuous
370
    13
  0
INSERT
  5
13F
330
1F
100
AcDbEntity
  8
@__WIDOCZNE
  6
Continuous
370
    13
100
AcDbBlockReference
 66
     1
  2
Sygnał termostatu 12_2
 10
-980.266354371083
 20
1075.440241601016
 30
0.0
  0
ATTRIB
  5
140
330
13F
100
AcDbEntity
  8
@__WIDOCZNE
  6
Continuous
370
    13
100
AcDbText
 10
-990.9747049741844
 20
1069.191073848324
 30
0.0
 40
14.11111111111111
  1
02
  7
GENERATED_STYLE_1
 11
-990.9747049741844
 21
1065.020579056658
 31
0.0
100
AcDbAttribute
  2
txt
 70
     0
 74
     1
  0
SEQEND
  5
141
330
13F
100
AcDbEntity
  8
@__WIDOCZNE
  6
Continuous
370
    13
  0
INSERT
  5
147
330
1F
100
AcDbEntity
  8
@__WIDOCZNE
  6
Continuous
370
    13
100
AcDbBlockReference
 66
     1
  2
Sygnał termostatu 12_3
 10
-980.266354371083
 20
1042.057472410387
 30
0.0
  0
ATTRIB
  5
148
330
147
100
AcDbEntity
  8
@__WIDOCZNE
  6
Continuous
370
    13
100
AcDbText
 10
-990.9747049741844
 20
1035.808304657695
 30
0.0
 40
14.11111111111111
  1
03
  7
GENERATED_STYLE_1
 11
-990.9747049741844
 21
1031.637809866028
 31
0.0
100
AcDbAttribute
  2
txt
 70
     0
 74
     1
  0
SEQEND
  5
149
330
147
100
AcDbEntity
  8
@__WIDOCZNE
  6
Continuous
370
    13
  0
INSERT
  5
14F
330
1F
100
AcDbEntity
  8
@__WIDOCZNE
  6
Continuous
370
    13
100
AcDbBlockReference
 66
     1
  2
Sygnał termostatu 12_4
 10
-980.266354371083
 20
1005.440241601016
 30
0.0
  0
ATTRIB
  5
150
330
14F
100
AcDbEntity
  8
@__WIDOCZNE
  6
Continuous
370
    13
100
AcDbText
 10
-990.9747049741844
 20
999.1910738483243
 30
0.0
 40
14.11111111111111
  1
04
  7
GENERATED_STYLE_1
 11
-990.9747049741844
 21
995.0205790566577
 31
0.0
100
AcDbAttribute
  2
txt
 70
     0
 74
     1
  0
SEQEND
  5
151
330
14F
100
AcDbEntity
  8
@__WIDOCZNE
  6
Continuous
370
    13
  0
INSERT
  5
157
330
1F
100
AcDbEntity
  8
@__WIDOCZNE
  6
Continuous
370
    13
100
AcDbBlockReference
 66
     1
  2
Sygnał termostatu 12_5
 10
-985.1946953780031
 20
847.133500200945
 30
0.0
  0
ATTRIB
  5
158
330
157
100
AcDbEntity
  8
@__WIDOCZNE
  6
Continuous
370
    13
100
AcDbText
 10
-995.9030459811042
 20
840.8843324482531
 30
0.0
 40
14.11111111111111
  1
06
  7
GENERATED_STYLE_1
 11
-995.9030459811042
 21
836.7138376565864
 31
0.0
100
AcDbAttribute
  2
txt
 70
     0
 74
     1
  0
SEQEND
  5
159
330
157
100
AcDbEntity
  8
@__WIDOCZNE
  6
Continuous
370
    13
  0
INSERT
  5
15A
330
1F
100
AcDbEntity
  8
@__WIDOCZNE
  6
Continuous
370
    13
100
AcDbBlockReference
 66
     1
  2
Sygnał termostatu 12_5
 10
-980.266354371083
 20
935.4402416010162
 30
0.0
  0
ATTRIB
  5
15B
330
15A
100
AcDbEntity
  8
@__WIDOCZNE
  6
Continuous
370
    13
100
AcDbText
 10
-990.9747049741844
 20
929.1910738483242
 30
0.0
 40
14.11111111111111
  1
06
  7
GENERATED_STYLE_1
 11
-990.9747049741844
 21
925.0205790566575
 31
0.0
100
AcDbAttribute
  2
txt
 70
     0
 74
     1
  0
SEQEND
  5
15C
330
15A
100
AcDbEntity
  8
@__WIDOCZNE
  6
Continuous
370
    13
  0
INSERT
  5
162
330
1F
100
AcDbEntity
  8
@__WIDOCZNE
  6
Continuous
370
    13
100
AcDbBlockReference
 66
     1
  2
Sygnał termostatu 12_6
 10
-980.266354371083
 20
970.440241601016
 30
0.0
  0
ATTRIB
  5
163
330
162
100
AcDbEntity
  8
@__WIDOCZNE
  6
Continuous
370
    13
100
AcDbText
 10
-990.9747049741844
 20
964.1910738483241
 30
0.0
 40
14.11111111111111
  1
05
  7
GENERATED_STYLE_1
 11
-990.9747049741844
 21
960.0205790566574
 31
0.0
100
AcDbAttribute
  2
txt
 70
     0
 74
     1
  0
SEQEND
  5
164
330
162
100
AcDbEntity
  8
@__WIDOCZNE
  6
Continuous
370
    13
  0
INSERT
  5
16A
330
1F
100
AcDbEntity
  8
@__WIDOCZNE
  6
Continuous
370
    13
100
AcDbBlockReference
 66
     1
  2
Sygnał termostatu 12_7
 10
-980.266354371083
 20
900.4402416010162
 30
0.0
  0
ATTRIB
  5
16B
330
16A
100
AcDbEntity
  8
@__WIDOCZNE
  6
Continuous
370
    13
100
AcDbText
 10
-990.9747049741844
 20
894.1910738483243
 30
0.0
 40
14.11111111111111
  1
07
  7
GENERATED_STYLE_1
 11
-990.9747049741844
 21
890.0205790566577
 31
0.0
100
AcDbAttribute
  2
txt
 70
     0
 74
     1
  0
SEQEND
  5
16C
330
16A
100
AcDbEntity
  8
@__WIDOCZNE
  6
Continuous
370
    13
  0
INSERT
  5
16D
330
1F
100
AcDbEntity
  8
@__WIDOCZNE
  6
Continuous
370
    13
100
AcDbBlockReference
 66
     1
  2
Sygnał termostatu 12_7
 10
-936.1224177955086
 20
847.133500200945
 30
0.0
  0
ATTRIB
  5
16E
330
16D
100
AcDbEntity
  8
@__WIDOCZNE
  6
Continuous
370
    13
100
AcDbText
 10
-946.8307683986097
 20
840.8843324482531
 30
0.0
 40
14.11111111111111
  1
07
  7
GENERATED_STYLE_1
 11
-946.8307683986097
 21
836.7138376565864
 31
0.0
100
AcDbAttribute
  2
txt
 70
     0
 74
     1
  0
SEQEND
  5
16F
330
16D
100
AcDbEntity
  8
@__WIDOCZNE
  6
Continuous
370
    13
  0
INSERT
  5
170
330
1F
100
AcDbEntity
  8
@__WIDOCZNE
  6
Continuous
370
    13
100
AcDbBlockReference
 66
     1
  2
Sygnał termostatu 12_7
 10
-1083.446076212371
 20
847.133500200945
 30
0.0
  0
ATTRIB
  5
171
330
170
100
AcDbEntity
  8
@__WIDOCZNE
  6
Continuous
370
    13
100
AcDbText
 10
-1094.154426815472
 20
840.8843324482531
 30
0.0
 40
14.11111111111111
  1
07
  7
GENERATED_STYLE_1
 11
-1094.154426815472
 21
836.7138376565864
 31
0.0
100
AcDbAttribute
  2
txt
 70
     0
 74
     1
  0
SEQEND
  5
172
330
170
100
AcDbEntity
  8
@__WIDOCZNE
  6
Continuous
370
    13
  0
INSERT
  5
173
330
1F
100
AcDbEntity
  8
@__WIDOCZNE
  6
Continuous
370
    13
100
AcDbBlockReference
 66
     1
  2
Sygnał termostatu 12_6
 10
-1119.784247003941
 20
847.133500200945
 30
0.0
  0
ATTRIB
  5
174
330
173
100
AcDbEntity
  8
@__WIDOCZNE
  6
Continuous
370
    13
100
AcDbText
 10
-1130.492597607042
 20
840.8843324482531
 30
0.0
 40
14.11111111111111
  1
05
  7
GENERATED_STYLE_1
 11
-1130.492597607042
 21
836.7138376565864
 31
0.0
100
AcDbAttribute
  2
txt
 70
     0
 74
     1
  0
SEQEND
  5
175
330
173
100
AcDbEntity
  8
@__WIDOCZNE
  6
Continuous
370
    13
  0
INSERT
  5
176
330
1F
100
AcDbEntity
  8
@__WIDOCZNE
  6
Continuous
370
    13
100
AcDbBlockReference
 66
     1
  2
Sygnał termostatu 12_6
 10
-899.7842470039385
 20
847.133500200945
 30
0.0
  0
ATTRIB
  5
177
330
176
100
AcDbEntity
  8
@__WIDOCZNE
  6
Continuous
370
    13
100
AcDbText
 10
-910.4925976070399
 20
840.8843324482531
 30
0.0
 40
14.11111111111111
  1
05
  7
GENERATED_STYLE_1
 11
-910.4925976070399
 21
836.7138376565864
 31
0.0
100
AcDbAttribute
  2
txt
 70
     0
 74
     1
  0
SEQEND
  5
178
330
176
100
AcDbEntity
  8
@__WIDOCZNE
  6
Continuous
370
    13
  0
INSERT
  5
179
330
1F
100
AcDbEntity
  8
@__WIDOCZNE
  6
Continuous
370
    13
100
AcDbBlockReference
 66
     1
  2
Sygnał termostatu 12_4
 10
-1216.642993728788
 20
847.133500200945
 30
0.0
  0
ATTRIB
  5
17A
330
179
100
AcDbEntity
  8
@__WIDOCZNE
  6
Continuous
370
    13
100
AcDbText
 10
-1227.351344331889
 20
840.8843324482531
 30
0.0
 40
14.11111111111111
  1
04
  7
GENERATED_STYLE_1
 11
-1227.351344331889
 21
836.7138376565864
 31
0.0
100
AcDbAttribute
  2
txt
 70
     0
 74
     1
  0
SEQEND
  5
17B
330
179
100
AcDbEntity
  8
@__WIDOCZNE
  6
Continuous
370
    13
  0
INSERT
  5
17C
330
1F
100
AcDbEntity
  8
@__WIDOCZNE
  6
Continuous
370
    13
100
AcDbBlockReference
 66
     1
  2
Sygnał termostatu 12_4
 10
-802.925500279092
 20
847.133500200945
 30
0.0
  0
ATTRIB
  5
17D
330
17C
100
AcDbEntity
  8
@__WIDOCZNE
  6
Continuous
370
    13
100
AcDbText
 10
-813.6338508821934
 20
840.8843324482531
 30
0.0
 40
14.11111111111111
  1
04
  7
GENERATED_STYLE_1
 11
-813.6338508821934
 21
836.7138376565864
 31
0.0
100
AcDbAttribute
  2
txt
 70
     0
 74
     1
  0
SEQEND
  5
17E
330
17C
100
AcDbEntity
  8
@__WIDOCZNE
  6
Continuous
370
    13
  0
INSERT
  5
17F
330
1F
100
AcDbEntity
  8
@__WIDOCZNE
  6
Continuous
370
    13
100
AcDbBlockReference
 66
     1
  2
Sygnał termostatu 12_3
 10
-1297.393529251304
 20
847.133500200945
 30
0.0
  0
ATTRIB
  5
180
330
17F
100
AcDbEntity
  8
@__WIDOCZNE
  6
Continuous
370
    13
100
AcDbText
 10
-1308.101879854406
 20
840.8843324482531
 30
0.0
 40
14.11111111111111
  1
03
  7
GENERATED_STYLE_1
 11
-1308.101879854406
 21
836.7138376565864
 31
0.0
100
AcDbAttribute
  2
txt
 70
     0
 74
     1
  0
SEQEND
  5
181
330
17F
100
AcDbEntity
  8
@__WIDOCZNE
  6
Continuous
370
    13
  0
INSERT
  5
182
330
1F
100
AcDbEntity
  8
@__WIDOCZNE
  6
Continuous
370
    13
100
AcDbBlockReference
 66
     1
  2
Sygnał termostatu 12_2
 10
-1346.106865256856
 20
847.133500200945
 30
0.0
  0
ATTRIB
  5
183
330
182
100
AcDbEntity
  8
@__WIDOCZNE
  6
Continuous
370
    13
100
AcDbText
 10
-1356.815215859957
 20
840.8843324482531
 30
0.0
 40
14.11111111111111
  1
02
  7
GENERATED_STYLE_1
 11
-1356.815215859957
 21
836.7138376565864
 31
0.0
100
AcDbAttribute
  2
txt
 70
     0
 74
     1
  0
SEQEND
  5
184
330
182
100
AcDbEntity
  8
@__WIDOCZNE
  6
Continuous
370
    13
  0
INSERT
  5
185
330
1F
100
AcDbEntity
  8
@__WIDOCZNE
  6
Continuous
370
    13
100
AcDbBlockReference
 66
     1
  2
Sygnał termostatu 12
 10
-1388.106865256854
 20
847.133500200945
 30
0.0
  0
ATTRIB
  5
186
330
185
100
AcDbEntity
  8
@__WIDOCZNE
  6
Continuous
370
    13
100
AcDbText
 10
-1398.815190256854
 20
840.8843172644371
 30
0.0
 40
14.11111111111111
  1
01
  7
GENERATED_STYLE_1
 11
-1398.815190256854
 21
836.7138224727704
 31
0.0
100
AcDbAttribute
  2
txt
 70
     0
 74
     1
  0
SEQEND
  5
187
330
185
100
AcDbEntity
  8
@__WIDOCZNE
  6
Continuous
370
    13
  0
INSERT
  5
188
330
1F
100
AcDbEntity
  8
@__WIDOCZNE
  6
Continuous
370
    13
100
AcDbBlockReference
 66
     1
  2
Sygnał termostatu 12_3
 10
-1162.654240510795
 20
847.133500200945
 30
0.0
  0
ATTRIB
  5
189
330
188
100
AcDbEntity
  8
@__WIDOCZNE
  6
Continuous
370
    13
100
AcDbText
 10
-1173.362591113896
 20
840.8843324482531
 30
0.0
 40
14.11111111111111
  1
03
  7
GENERATED_STYLE_1
 11
-1173.362591113896
 21
836.7138376565864
 31
0.0
100
AcDbAttribute
  2
txt
 70
     0
 74
     1
  0
SEQEND
  5
18A
330
188
100
AcDbEntity
  8
@__WIDOCZNE
  6
Continuous
370
    13
  0
INSERT
  5
18B
330
1F
100
AcDbEntity
  8
@__WIDOCZNE
  6
Continuous
370
    13
100
AcDbBlockReference
 66
     1
  2
Sygnał termostatu 12_3
 10
-1078.570183258036
 20
719.4822701938639
 30
0.0
  0
ATTRIB
  5
18C
330
18B
100
AcDbEntity
  8
@__WIDOCZNE
  6
Continuous
370
    13
100
AcDbText
 10
-1089.278533861138
 20
713.233102441172
 30
0.0
 40
14.11111111111111
  1
03
  7
GENERATED_STYLE_1
 11
-1089.278533861138
 21
709.0626076495054
 31
0.0
100
AcDbAttribute
  2
txt
 70
     0
 74
     1
  0
SEQEND
  5
18D
330
18B
100
AcDbEntity
  8
@__WIDOCZNE
  6
Continuous
370
    13
  0
INSERT
  5
18E
330
1F
100
AcDbEntity
  8
@__WIDOCZNE
  6
Continuous
370
    13
100
AcDbBlockReference
 66
     1
  2
Sygnał termostatu 12_3
 10
-940.9983107498432
 20
719.4822701938639
 30
0.0
  0
ATTRIB
  5
18F
330
18E
100
AcDbEntity
  8
@__WIDOCZNE
  6
Continuous
370
    13
100
AcDbText
 10
-951.7066613529446
 20
713.233102441172
 30
0.0
 40
14.11111111111111
  1
03
  7
GENERATED_STYLE_1
 11
-951.7066613529446
 21
709.0626076495054
 31
0.0
100
AcDbAttribute
  2
txt
 70
     0
 74
     1
  0
SEQEND
  5
190
330
18E
100
AcDbEntity
  8
@__WIDOCZNE
  6
Continuous
370
    13
  0
INSERT
  5
191
330
1F
100
AcDbEntity
  8
@__WIDOCZNE
  6
Continuous
370
    13
100
AcDbBlockReference
 66
     1
  2
Sygnał termostatu 12_3
 10
-683.2842470039386
 20
752.5774807161334
 30
0.0
  0
ATTRIB
  5
192
330
191
100
AcDbEntity
  8
@__WIDOCZNE
  6
Continuous
370
    13
100
AcDbText
 10
-693.9925976070398
 20
746.3283129634415
 30
0.0
 40
14.11111111111111
  1
03
  7
GENERATED_STYLE_1
 11
-693.9925976070398
 21
742.1578181717748
 31
0.0
100
AcDbAttribute
  2
txt
 70
     0
 74
     1
  0
SEQEND
  5
193
330
191
100
AcDbEntity
  8
@__WIDOCZNE
  6
Continuous
370
    13
  0
INSERT
  5
194
330
1F
100
AcDbEntity
  8
@__WIDOCZNE
  6
Continuous
370
    13
100
AcDbBlockReference
 66
     1
  2
Sygnał termostatu 12_3
 10
-856.9142534970853
 20
847.133500200945
 30
0.0
  0
ATTRIB
  5
195
330
194
100
AcDbEntity
  8
@__WIDOCZNE
  6
Continuous
370
    13
100
AcDbText
 10
-867.6226041001864
 20
840.8843324482531
 30
0.0
 40
14.11111111111111
  1
03
  7
GENERATED_STYLE_1
 11
-867.6226041001864
 21
836.7138376565864
 31
0.0
100
AcDbAttribute
  2
txt
 70
     0
 74
     1
  0
SEQEND
  5
196
330
194
100
AcDbEntity
  8
@__WIDOCZNE
  6
Continuous
370
    13
  0
INSERT
  5
197
330
1F
100
AcDbEntity
  8
@__WIDOCZNE
  6
Continuous
370
    13
100
AcDbBlockReference
 66
     1
  2
Sygnał termostatu 12_3
 10
-940.9983107498432
 20
548.784730208026
 30
0.0
  0
ATTRIB
  5
198
330
197
100
AcDbEntity
  8
@__WIDOCZNE
  6
Continuous
370
    13
100
AcDbText
 10
-951.7066613529446
 20
542.5355624553341
 30
0.0
 40
14.11111111111111
  1
03
  7
GENERATED_STYLE_1
 11
-951.7066613529446
 21
538.3650676636674
 31
0.0
100
AcDbAttribute
  2
txt
 70
     0
 74
     1
  0
SEQEND
  5
199
330
197
100
AcDbEntity
  8
@__WIDOCZNE
  6
Continuous
370
    13
  0
INSERT
  5
19A
330
1F
100
AcDbEntity
  8
@__WIDOCZNE
  6
Continuous
370
    13
100
AcDbBlockReference
 66
     1
  2
Sygnał termostatu 12_3
 10
-1078.570183258036
 20
548.784730208026
 30
0.0
  0
ATTRIB
  5
19B
330
19A
100
AcDbEntity
  8
@__WIDOCZNE
  6
Continuous
370
    13
100
AcDbText
 10
-1089.278533861138
 20
542.5355624553341
 30
0.0
 40
14.11111111111111
  1
03
  7
GENERATED_STYLE_1
 11
-1089.278533861138
 21
538.3650676636674
 31
0.0
100
AcDbAttribute
  2
txt
 70
     0
 74
     1
  0
SEQEND
  5
19C
330
19A
100
AcDbEntity
  8
@__WIDOCZNE
  6
Continuous
370
    13
  0
INSERT
  5
19D
330
1F
100
AcDbEntity
  8
@__WIDOCZNE
  6
Continuous
370
    13
100
AcDbBlockReference
 66
     1
  2
Sygnał termostatu 12
 10
-1078.570183258036
 20
516.2904568591629
 30
0.0
  0
ATTRIB
  5
19E
330
19D
100
AcDbEntity
  8
@__WIDOCZNE
  6
Continuous
370
    13
100
AcDbText
 10
-1089.278508258036
 20
510.0412739226549
 30
0.0
 40
14.11111111111111
  1
01
  7
GENERATED_STYLE_1
 11
-1089.278508258036
 21
505.8707791309882
 31
0.0
100
AcDbAttribute
  2
txt
 70
     0
 74
     1
  0
SEQEND
  5
19F
330
19D
100
AcDbEntity
  8
@__WIDOCZNE
  6
Continuous
370
    13
  0
INSERT
  5
1A0
330
1F
100
AcDbEntity
  8
@__WIDOCZNE
  6
Continuous
370
    13
100
AcDbBlockReference
 66
     1
  2
Sygnał termostatu 12
 10
-940.9983107498432
 20
516.2904568591629
 30
0.0
  0
ATTRIB
  5
1A1
330
1A0
100
AcDbEntity
  8
@__WIDOCZNE
  6
Continuous
370
    13
100
AcDbText
 10
-951.7066357498434
 20
510.0412739226549
 30
0.0
 40
14.11111111111111
  1
01
  7
GENERATED_STYLE_1
 11
-951.7066357498434
 21
505.8707791309882
 31
0.0
100
AcDbAttribute
  2
txt
 70
     0
 74
     1
  0
SEQEND
  5
1A2
330
1A0
100
AcDbEntity
  8
@__WIDOCZNE
  6
Continuous
370
    13
  0
INSERT
  5
1A3
330
1F
100
AcDbEntity
  8
@__WIDOCZNE
  6
Continuous
370
    13
100
AcDbBlockReference
 66
     1
  2
Sygnał termostatu 12
 10
-683.2842470039386
 20
693.3235611508688
 30
0.0
  0
ATTRIB
  5
1A4
330
1A3
100
AcDbEntity
  8
@__WIDOCZNE
  6
Continuous
370
    13
100
AcDbText
 10
-693.9925720039386
 20
687.0743782143609
 30
0.0
 40
14.11111111111111
  1
01
  7
GENERATED_STYLE_1
 11
-693.9925720039386
 21
682.9038834226942
 31
0.0
100
AcDbAttribute
  2
txt
 70
     0
 74
     1
  0
SEQEND
  5
1A5
330
1A3
100
AcDbEntity
  8
@__WIDOCZNE
  6
Continuous
370
    13
  0
LINE
  5
1A6
330
1F
100
AcDbEntity
  8
0
  6
Continuous
370
    13
100
AcDbLine
 10
-743.2842470039392
 20
281.1335002009451
 30
0.0
 11
-733.2842470039393
 21
281.1335002009451
 31
0.0
  0
LINE
  5
1A7
330
1F
100
AcDbEntity
  8
0
  6
Continuous
370
    35
100
AcDbLine
 10
-1286.28424700394
 20
507.1335002009449
 30
0.0
 11
-1436.28424700394
 21
507.1335002009449
 31
0.0
  0
LINE
  5
1A8
330
1F
100
AcDbEntity
  8
0
  6
Continuous
370
    35
100
AcDbLine
 10
-1503.284247003941
 20
693.1335002009449
 30
0.0
 11
-1306.28424700394
 21
693.1335002009449
 31
0.0
  0
LINE
  5
1A9
330
1F
100
AcDbEntity
  8
0
  6
Continuous
370
    50
100
AcDbLine
 10
-753.284247003939
 20
820.2262954859474
 30
0.0
 11
-748.2842470039382
 21
820.2262954859474
 31
0.0
  0
LINE
  5
1AA
330
1F
100
AcDbEntity
  8
0
  6
Continuous
370
    13
100
AcDbLine
 10
-853.2842470039403
 20
802.133500200945
 30
0.0
 11
-853.2842470039368
 21
787.1335002009449
 31
0.0
  0
LINE
  5
1AB
330
1F
100
AcDbEntity
  8
0
  6
Continuous
370
    35
100
AcDbLine
 10
-861.2842470039377
 20
802.133500200945
 30
0.0
 11
-861.2842470039377
 21
795.6335002009449
 31
0.0
  0
LINE
  5
1AC
330
1F
100
AcDbEntity
  8
0
  6
Continuous
370
    35
100
AcDbLine
 10
-864.284247003936
 20
795.6335002009449
 30
0.0
 11
-864.284247003936
 21
799.133500200945
 31
0.0
  0
LINE
  5
1AD
330
1F
100
AcDbEntity
  8
0
  6
Continuous
370
    35
100
AcDbLine
 10
-861.2842470039377
 20
795.6335002009449
 30
0.0
 11
-864.284247003936
 21
795.6335002009449
 31
0.0
  0
LINE
  5
1AE
330
1F
100
AcDbEntity
  8
0
  6
Continuous
370
    35
100
AcDbLine
 10
-1158.284247003942
 20
802.133500200945
 30
0.0
 11
-1158.284247003942
 21
795.6335002009449
 31
0.0
  0
LINE
  5
1AF
330
1F
100
AcDbEntity
  8
0
  6
Continuous
370
    35
100
AcDbLine
 10
-1155.284247003943
 20
795.6335002009449
 30
0.0
 11
-1155.284247003943
 21
799.133500200945
 31
0.0
  0
LINE
  5
1B0
330
1F
100
AcDbEntity
  8
0
  6
Continuous
370
    13
100
AcDbLine
 10
-743.2842470039392
 20
787.1335002009449
 30
0.0
 11
-733.2842470039393
 21
787.1335002009449
 31
0.0
  0
LINE
  5
1B1
330
1F
100
AcDbEntity
  8
0
  6
Continuous
370
    13
100
AcDbLine
 10
-743.2842470039392
 20
779.1335002009449
 30
0.0
 11
-733.2842470039393
 21
779.1335002009449
 31
0.0
  0
LINE
  5
1B2
330
1F
100
AcDbEntity
  8
0
  6
Continuous
370
    13
100
AcDbLine
 10
-1120.78424700394
 20
764.1335002009448
 30
0.0
 11
-1110.784247003941
 21
764.1335002009448
 31
0.0
  0
LINE
  5
1B3
330
1F
100
AcDbEntity
  8
0
  6
Continuous
370
    50
100
AcDbLine
 10
-779.1102507456111
 20
805.559443425006
 30
0.0
 11
-761.9313702733903
 21
817.5137225553706
 31
0.0
  0
LINE
  5
1B4
330
1F
100
AcDbEntity
  8
0
  6
Continuous
370
    13
100
AcDbLine
 10
-1120.78424700394
 20
772.1335002009448
 30
0.0
 11
-1120.78424700394
 21
486.133500200945
 31
0.0
  0
LINE
  5
1B5
330
1F
100
AcDbEntity
  8
0
  6
Continuous
370
    35
100
AcDbLine
 10
-1286.28424700394
 20
768.1335002009448
 30
0.0
 11
-1286.28424700394
 21
507.1335002009449
 31
0.0
  0
LINE
  5
1B6
330
1F
100
AcDbEntity
  8
0
  6
Continuous
370
    35
100
AcDbLine
 10
-1306.28424700394
 20
768.1335002009448
 30
0.0
 11
-1306.28424700394
 21
515.1335002009449
 31
0.0
  0
LINE
  5
1B7
330
1F
100
AcDbEntity
  8
0
  6
Continuous
370
    35
100
AcDbLine
 10
-1158.284247003942
 20
795.6335002009449
 30
0.0
 11
-1155.284247003943
 21
795.6335002009449
 31
0.0
  0
LINE
  5
1B8
330
1F
100
AcDbEntity
  8
0
  6
Continuous
370
    13
100
AcDbLine
 10
-861.2842470039377
 20
795.6335002009449
 30
0.0
 11
-853.2842470039368
 21
787.1335002009449
 31
0.0
  0
LINE
  5
1B9
330
1F
100
AcDbEntity
  8
0
  6
Continuous
370
    13
100
AcDbLine
 10
-1158.284247003942
 20
795.6335002009449
 30
0.0
 11
-1166.284247003941
 21
787.1335002009449
 31
0.0
  0
LINE
  5
1BA
330
1F
100
AcDbEntity
  8
0
  6
Continuous
370
    13
100
AcDbLine
 10
-1166.284247003941
 20
802.133500200945
 30
0.0
 11
-1166.284247003941
 21
787.1335002009449
 31
0.0
  0
LINE
  5
1BB
330
1F
100
AcDbEntity
  8
0
  6
Continuous
370
    50
100
AcDbLine
 10
-790.0314514398436
 20
802.133500200945
 30
0.0
 11
-861.2842470039377
 21
802.133500200945
 31
0.0
  0
LINE
  5
1BC
330
1F
100
AcDbEntity
  8
0
  6
Continuous
370
    13
100
AcDbLine
 10
-1286.28424700394
 20
787.1335002009449
 30
0.0
 11
-1166.284247003941
 21
787.1335002009449
 31
0.0
  0
LINE
  5
1BD
330
1F
100
AcDbEntity
  8
0
  6
Continuous
370
    13
100
AcDbLine
 10
-1286.28424700394
 20
768.1335002009448
 30
0.0
 11
-1286.28424700394
 21
797.1335002009449
 31
0.0
  0
LINE
  5
1BE
330
1F
100
AcDbEntity
  8
0
  6
Continuous
370
    13
100
AcDbLine
 10
-1306.28424700394
 20
768.1335002009448
 30
0.0
 11
-1306.28424700394
 21
797.1335002009449
 31
0.0
  0
LINE
  5
1BF
330
1F
100
AcDbEntity
  8
0
  6
Continuous
370
    35
100
AcDbLine
 10
-1306.28424700394
 20
515.1335002009449
 30
0.0
 11
-1286.28424700394
 21
515.1335002009449
 31
0.0
  0
LINE
  5
1C0
330
1F
100
AcDbEntity
  8
0
  6
Continuous
370
    35
100
AcDbLine
 10
-1150.784247003943
 20
787.1335002009449
 30
0.0
 11
-1150.784247003943
 21
785.6335002009449
 31
0.0
  0
LINE
  5
1C1
330
1F
100
AcDbEntity
  8
0
  6
Continuous
370
    35
100
AcDbLine
 10
-1135.784247003941
 20
772.1335002009448
 30
0.0
 11
-1110.784247003941
 21
772.1335002009448
 31
0.0
  0
LINE
  5
1C2
330
1F
100
AcDbEntity
  8
0
  6
Continuous
370
    50
100
AcDbLine
 10
-1062.28424700394
 20
-16.86649979905508
 30
0.0
 11
-1436.28424700394
 21
357.1335002009449
 31
0.0
  0
LINE
  5
1C3
330
1F
100
AcDbEntity
  8
0
  6
Continuous
370
    50
100
AcDbLine
 10
-1436.28424700394
 20
507.1335002009449
 30
0.0
 11
-1436.28424700394
 21
357.1335002009449
 31
0.0
  0
LINE
  5
1C4
330
1F
100
AcDbEntity
  8
0
  6
Continuous
370
    13
100
AcDbLine
 10
-743.2842470039392
 20
534.133500200945
 30
0.0
 11
-733.2842470039393
 21
534.133500200945
 31
0.0
  0
LINE
  5
1C5
330
1F
100
AcDbEntity
  8
0
  6
Continuous
370
    13
100
AcDbLine
 10
-898.7842470039391
 20
486.133500200945
 30
0.0
 11
-1120.78424700394
 21
486.133500200945
 31
0.0
  0
LINE
  5
1C6
330
1F
100
AcDbEntity
  8
0
  6
Continuous
370
    13
100
AcDbLine
 10
-898.7842470039391
 20
504.133500200945
 30
0.0
 11
-908.7842470039388
 21
504.133500200945
 31
0.0
  0
LINE
  5
1C7
330
1F
100
AcDbEntity
  8
0
  6
Continuous
370
    13
100
AcDbLine
 10
-898.7842470039391
 20
496.133500200945
 30
0.0
 11
-908.7842470039388
 21
496.133500200945
 31
0.0
  0
LINE
  5
1C8
330
1F
100
AcDbEntity
  8
0
  6
Continuous
370
    35
100
AcDbLine
 10
-1139.78424700394
 20
728.133500200945
 30
0.0
 11
-1139.78424700394
 21
468.133500200945
 31
0.0
  0
LINE
  5
1C9
330
1F
100
AcDbEntity
  8
0
  6
Continuous
370
    35
100
AcDbLine
 10
-1179.78424700394
 20
768.1335002009448
 30
0.0
 11
-1139.78424700394
 21
728.133500200945
 31
0.0
  0
LINE
  5
1CA
330
1F
100
AcDbEntity
  8
0
  6
Continuous
370
    13
100
AcDbLine
 10
-743.2842470039392
 20
526.133500200945
 30
0.0
 11
-733.2842470039393
 21
526.133500200945
 31
0.0
  0
LINE
  5
1CB
330
1F
100
AcDbEntity
  8
0
  6
Continuous
370
    13
100
AcDbLine
 10
-1110.784247003941
 20
496.133500200945
 30
0.0
 11
-1120.78424700394
 21
496.133500200945
 31
0.0
  0
LINE
  5
1CC
330
1F
100
AcDbEntity
  8
0
  6
Continuous
370
    13
100
AcDbLine
 10
-743.2842470039392
 20
273.1335002009451
 30
0.0
 11
-733.2842470039393
 21
273.1335002009451
 31
0.0
  0
LINE
  5
1CD
330
1F
100
AcDbEntity
  8
0
  6
Continuous
370
    13
100
AcDbLine
 10
-1110.784247003941
 20
504.133500200945
 30
0.0
 11
-1120.78424700394
 21
504.133500200945
 31
0.0
  0
LINE
  5
1CE
330
1F
100
AcDbEntity
  8
0
  6
Continuous
370
    35
100
AcDbLine
 10
-1139.78424700394
 20
468.133500200945
 30
0.0
 11
-879.7842470039408
 21
468.133500200945
 31
0.0
  0
LINE
  5
1CF
330
1F
100
AcDbEntity
  8
0
  6
Continuous
370
    13
100
AcDbLine
 10
-743.2842470039392
 20
787.1335002009449
 30
0.0
 11
-853.2842470039368
 21
787.1335002009449
 31
0.0
  0
LINE
  5
1D0
330
1F
100
AcDbEntity
  8
0
  6
Continuous
370
    35
100
AcDbLine
 10
-879.7842470039408
 20
468.133500200945
 30
0.0
 11
-879.7842470039408
 21
728.1335002009448
 31
0.0
  0
LINE
  5
1D1
330
1F
100
AcDbEntity
  8
0
  6
Continuous
370
    50
100
AcDbLine
 10
-733.2842470039393
 20
802.133500200945
 30
0.0
 11
-733.2842470039393
 21
807.133500200945
 31
0.0
  0
LINE
  5
1D2
330
1F
100
AcDbEntity
  8
0
  6
Continuous
370
    35
100
AcDbLine
 10
-1286.28424700394
 20
768.1335002009448
 30
0.0
 11
-1179.78424700394
 21
768.1335002009448
 31
0.0
  0
LINE
  5
1D3
330
1F
100
AcDbEntity
  8
0
  6
Continuous
370
    13
100
AcDbLine
 10
-898.7842470039391
 20
772.1335002009448
 30
0.0
 11
-898.7842470039391
 21
486.133500200945
 31
0.0
  0
LINE
  5
1D4
330
1F
100
AcDbEntity
  8
0
  6
Continuous
370
    50
100
AcDbLine
 10
-1436.28424700394
 20
515.1335002009449
 30
0.0
 11
-1503.284247003941
 21
515.1335002009449
 31
0.0
  0
LINE
  5
1D5
330
1F
100
AcDbEntity
  8
0
  6
Continuous
370
    35
100
AcDbLine
 10
-868.7842470039362
 20
787.1335002009449
 30
0.0
 11
-868.7842470039362
 21
785.6335002009449
 31
0.0
  0
LINE
  5
1D6
330
1F
100
AcDbEntity
  8
0
  6
Continuous
370
    35
100
AcDbLine
 10
-883.7842470039385
 20
772.1335002009448
 30
0.0
 11
-908.7842470039388
 21
772.1335002009448
 31
0.0
  0
LINE
  5
1D7
330
1F
100
AcDbEntity
  8
0
  6
Continuous
370
    35
100
AcDbLine
 10
-1306.28424700394
 20
515.1335002009449
 30
0.0
 11
-1436.28424700394
 21
515.1335002009449
 31
0.0
  0
LINE
  5
1D8
330
1F
100
AcDbEntity
  8
0
  6
Continuous
370
    50
100
AcDbLine
 10
-1436.28424700394
 20
507.1335002009449
 30
0.0
 11
-1436.28424700394
 21
515.1335002009449
 31
0.0
  0
LINE
  5
1D9
330
1F
100
AcDbEntity
  8
0
  6
Continuous
370
    35
100
AcDbLine
 10
-861.2842470039377
 20
772.1335002009448
 30
0.0
 11
-883.7842470039385
 21
772.1335002009448
 31
0.0
  0
LINE
  5
1DA
330
1F
100
AcDbEntity
  8
0
  6
Continuous
370
    35
100
AcDbLine
 10
-868.7842470039362
 20
785.6335002009449
 30
0.0
 11
-865.7842470039378
 21
785.6335002009449
 31
0.0
  0
LINE
  5
1DB
330
1F
100
AcDbEntity
  8
0
  6
Continuous
370
    35
100
AcDbLine
 10
-861.2842470039377
 20
776.633500200945
 30
0.0
 11
-861.2842470039377
 21
772.1335002009448
 31
0.0
  0
LINE
  5
1DC
330
1F
100
AcDbEntity
  8
0
  6
Continuous
370
    35
100
AcDbLine
 10
-880.7842470039402
 20
799.133500200945
 30
0.0
 11
-880.7842470039402
 21
790.133500200945
 31
0.0
  0
LINE
  5
1DD
330
1F
100
AcDbEntity
  8
0
  6
Continuous
370
    35
100
AcDbLine
 10
-880.7842470039402
 20
775.1335002009449
 30
0.0
 11
-880.7842470039402
 21
787.1335002009449
 31
0.0
  0
LINE
  5
1DE
330
1F
100
AcDbEntity
  8
0
  6
Continuous
370
    35
100
AcDbLine
 10
-865.7842470039378
 20
790.133500200945
 30
0.0
 11
-865.7842470039378
 21
785.6335002009449
 31
0.0
  0
LINE
  5
1DF
330
1F
100
AcDbEntity
  8
0
  6
Continuous
370
    35
100
AcDbLine
 10
-865.7842470039378
 20
787.1335002009449
 30
0.0
 11
-865.7842470039378
 21
791.6335002009449
 31
0.0
  0
LINE
  5
1E0
330
1F
100
AcDbEntity
  8
0
  6
Continuous
370
    35
100
AcDbLine
 10
-864.284247003936
 20
776.633500200945
 30
0.0
 11
-864.284247003936
 21
775.1335002009449
 31
0.0
  0
LINE
  5
1E1
330
1F
100
AcDbEntity
  8
0
  6
Continuous
370
    35
100
AcDbLine
 10
-861.2842470039377
 20
776.633500200945
 30
0.0
 11
-864.284247003936
 21
776.633500200945
 31
0.0
  0
LINE
  5
1E2
330
1F
100
AcDbEntity
  8
0
  6
Continuous
370
    35
100
AcDbLine
 10
-864.284247003936
 20
799.133500200945
 30
0.0
 11
-880.7842470039402
 21
799.133500200945
 31
0.0
  0
LINE
  5
1E3
330
1F
100
AcDbEntity
  8
0
  6
Continuous
370
    35
100
AcDbLine
 10
-864.284247003936
 20
775.1335002009449
 30
0.0
 11
-880.7842470039402
 21
775.1335002009449
 31
0.0
  0
LINE
  5
1E4
330
1F
100
AcDbEntity
  8
0
  6
Continuous
370
    35
100
AcDbLine
 10
-868.7842470039362
 20
790.133500200945
 30
0.0
 11
-868.7842470039362
 21
791.6335002009449
 31
0.0
  0
LINE
  5
1E5
330
1F
100
AcDbEntity
  8
0
  6
Continuous
370
    35
100
AcDbLine
 10
-868.7842470039362
 20
791.6335002009449
 30
0.0
 11
-865.7842470039378
 21
791.6335002009449
 31
0.0
  0
LINE
  5
1E6
330
1F
100
AcDbEntity
  8
0
  6
Continuous
370
    35
100
AcDbLine
 10
-880.7842470039402
 20
787.1335002009449
 30
0.0
 11
-868.7842470039362
 21
787.1335002009449
 31
0.0
  0
LINE
  5
1E7
330
1F
100
AcDbEntity
  8
0
  6
Continuous
370
    35
100
AcDbLine
 10
-868.7842470039362
 20
790.133500200945
 30
0.0
 11
-880.7842470039402
 21
790.133500200945
 31
0.0
  0
LINE
  5
1E8
330
1F
100
AcDbEntity
  8
0
  6
Continuous
370
    35
100
AcDbLine
 10
-1158.284247003942
 20
772.1335002009448
 30
0.0
 11
-1135.784247003941
 21
772.1335002009448
 31
0.0
  0
LINE
  5
1E9
330
1F
100
AcDbEntity
  8
0
  6
Continuous
370
    35
100
AcDbLine
 10
-1150.784247003943
 20
785.6335002009449
 30
0.0
 11
-1153.784247003942
 21
785.6335002009449
 31
0.0
  0
LINE
  5
1EA
330
1F
100
AcDbEntity
  8
0
  6
Continuous
370
    35
100
AcDbLine
 10
-1158.284247003942
 20
776.633500200945
 30
0.0
 11
-1158.284247003942
 21
772.1335002009448
 31
0.0
  0
LINE
  5
1EB
330
1F
100
AcDbEntity
  8
0
  6
Continuous
370
    35
100
AcDbLine
 10
-1138.784247003939
 20
799.133500200945
 30
0.0
 11
-1138.784247003939
 21
790.133500200945
 31
0.0
  0
LINE
  5
1EC
330
1F
100
AcDbEntity
  8
0
  6
Continuous
370
    35
100
AcDbLine
 10
-1138.784247003939
 20
775.1335002009449
 30
0.0
 11
-1138.784247003939
 21
787.1335002009449
 31
0.0
  0
LINE
  5
1ED
330
1F
100
AcDbEntity
  8
0
  6
Continuous
370
    35
100
AcDbLine
 10
-1153.784247003942
 20
790.133500200945
 30
0.0
 11
-1153.784247003942
 21
785.6335002009449
 31
0.0
  0
LINE
  5
1EE
330
1F
100
AcDbEntity
  8
0
  6
Continuous
370
    35
100
AcDbLine
 10
-1153.784247003942
 20
787.1335002009449
 30
0.0
 11
-1153.784247003942
 21
791.6335002009449
 31
0.0
  0
LINE
  5
1EF
330
1F
100
AcDbEntity
  8
0
  6
Continuous
370
    35
100
AcDbLine
 10
-1155.284247003943
 20
776.633500200945
 30
0.0
 11
-1155.284247003943
 21
775.1335002009449
 31
0.0
  0
LINE
  5
1F0
330
1F
100
AcDbEntity
  8
0
  6
Continuous
370
    35
100
AcDbLine
 10
-1158.284247003942
 20
776.633500200945
 30
0.0
 11
-1155.284247003943
 21
776.633500200945
 31
0.0
  0
LINE
  5
1F1
330
1F
100
AcDbEntity
  8
0
  6
Continuous
370
    35
100
AcDbLine
 10
-1155.284247003943
 20
799.133500200945
 30
0.0
 11
-1138.784247003939
 21
799.133500200945
 31
0.0
  0
LINE
  5
1F2
330
1F
100
AcDbEntity
  8
0
  6
Continuous
370
    35
100
AcDbLine
 10
-1155.284247003943
 20
775.1335002009449
 30
0.0
 11
-1138.784247003939
 21
775.1335002009449
 31
0.0
  0
LINE
  5
1F3
330
1F
100
AcDbEntity
  8
0
  6
Continuous
370
    35
100
AcDbLine
 10
-1150.784247003943
 20
790.133500200945
 30
0.0
 11
-1150.784247003943
 21
791.6335002009449
 31
0.0
  0
LINE
  5
1F4
330
1F
100
AcDbEntity
  8
0
  6
Continuous
370
    35
100
AcDbLine
 10
-1150.784247003943
 20
791.6335002009449
 30
0.0
 11
-1153.784247003942
 21
791.6335002009449
 31
0.0
  0
LINE
  5
1F5
330
1F
100
AcDbEntity
  8
0
  6
Continuous
370
    35
100
AcDbLine
 10
-1138.784247003939
 20
787.1335002009449
 30
0.0
 11
-1150.784247003943
 21
787.1335002009449
 31
0.0
  0
LINE
  5
1F6
330
1F
100
AcDbEntity
  8
0
  6
Continuous
370
    35
100
AcDbLine
 10
-1150.784247003943
 20
790.133500200945
 30
0.0
 11
-1138.784247003939
 21
790.133500200945
 31
0.0
  0
LINE
  5
1F7
330
1F
100
AcDbEntity
  8
0
  6
Continuous
370
    13
100
AcDbLine
 10
-1503.284247003941
 20
787.1335002009449
 30
0.0
 11
-1306.28424700394
 21
787.1335002009449
 31
0.0
  0
LINE
  5
1F8
330
1F
100
AcDbEntity
  8
0
  6
Continuous
370
    35
100
AcDbLine
 10
-1503.284247003941
 20
738.1335002009448
 30
0.0
 11
-1306.28424700394
 21
738.1335002009448
 31
0.0
  0
LINE
  5
1F9
330
1F
100
AcDbEntity
  8
0
  6
Continuous
370
    35
100
AcDbLine
 10
-1503.284247003941
 20
685.1335002009449
 30
0.0
 11
-1306.28424700394
 21
685.1335002009449
 31
0.0
  0
LINE
  5
1FA
330
1F
100
AcDbEntity
  8
0
  6
Continuous
370
    35
100
AcDbLine
 10
-1503.284247003941
 20
768.1335002009448
 30
0.0
 11
-1306.28424700394
 21
768.1335002009448
 31
0.0
  0
LINE
  5
1FB
330
1F
100
AcDbEntity
  8
0
  6
Continuous
370
    35
100
AcDbLine
 10
-841.220415370338
 20
766.6973318345484
 30
0.0
 11
-879.7842470039408
 21
728.1335002009448
 31
0.0
  0
LINE
  5
1FC
330
1F
100
AcDbEntity
  8
0
  6
Continuous
370
    13
100
AcDbLine
 10
-743.2842470039392
 20
28.13350020094507
 30
0.0
 11
-733.2842470039393
 21
28.13350020094507
 31
0.0
  0
LINE
  5
1FD
330
1F
100
AcDbEntity
  8
0
  6
Continuous
370
    13
100
AcDbLine
 10
-743.2842470039392
 20
20.13350020094506
 30
0.0
 11
-733.2842470039393
 21
20.13350020094506
 31
0.0
  0
LINE
  5
1FE
330
1F
100
AcDbEntity
  8
0
  6
Continuous
370
    13
100
AcDbLine
 10
-640.5384442922228
 20
820.2262954859474
 30
0.0
 11
-648.3034686698277
 21
832.7453624362126
 31
0.0
  0
LINE
  5
1FF
330
1F
100
AcDbEntity
  8
0
  6
Continuous
370
    13
100
AcDbLine
 10
-640.5384442922228
 20
820.2262954859474
 30
0.0
 11
-632.7734199146162
 21
832.7453624362126
 31
0.0
  0
LINE
  5
200
330
1F
100
AcDbEntity
  8
0
  6
Continuous
370
    13
100
AcDbLine
 10
-648.3034686698277
 20
832.7453624362126
 30
0.0
 11
-632.7734199146162
 21
832.7453624362126
 31
0.0
  0
LINE
  5
201
330
1F
100
AcDbEntity
  8
0
  6
Continuous
370
    13
100
AcDbLine
 10
-648.1725327097303
 20
820.2262954859474
 30
0.0
 11
-632.9043558747171
 21
820.2262954859474
 31
0.0
  0
LINE
  5
202
330
1F
100
AcDbEntity
  8
0
  6
Continuous
370
    13
100
AcDbLine
 10
-724.4320742804655
 20
810.0116983405368
 30
0.0
 11
-708.0698583026086
 21
810.0116983405368
 31
0.0
  0
LINE
  5
203
330
1F
100
AcDbEntity
  8
0
  6
Continuous
370
    13
100
AcDbLine
 10
-692.3369583238986
 20
810.0116983405368
 30
0.0
 11
-675.9747423460416
 21
810.0116983405368
 31
0.0
  0
LINE
  5
204
330
1F
100
AcDbEntity
  8
0
  6
Continuous
370
    13
100
AcDbLine
 10
-662.1297903647774
 20
810.0116983405368
 30
0.0
 11
-645.7675743869205
 21
810.0116983405368
 31
0.0
  0
LINE
  5
205
330
1F
100
AcDbEntity
  8
0
  6
Continuous
370
    13
100
AcDbLine
 10
-631.2933064065076
 20
810.0116983405368
 30
0.0
 11
-623.2842470039399
 21
810.0116983405368
 31
0.0
  0
LINE
  5
206
330
1F
100
AcDbEntity
  8
0
  6
Continuous
370
    13
100
AcDbLine
 10
-704.9232783068672
 20
797.6169068824033
 30
0.0
 11
-693.5955903221958
 21
797.6169068824033
 31
0.0
  0
LINE
  5
207
330
1F
100
AcDbEntity
  8
0
  6
Continuous
370
    13
100
AcDbLine
 10
-677.8626903434874
 20
797.6169068824033
 30
0.0
 11
-661.5004743656306
 21
797.6169068824033
 31
0.0
  0
LINE
  5
208
330
1F
100
AcDbEntity
  8
0
  6
Continuous
370
    13
100
AcDbLine
 10
-643.2503103903277
 20
797.6169068824033
 30
0.0
 11
-631.9226224056562
 21
797.6169068824033
 31
0.0
  0
LINE
  5
209
330
1F
100
AcDbEntity
  8
0
  6
Continuous
370
    13
100
AcDbLine
 10
-727.5786542762069
 20
797.6169068824033
 30
0.0
 11
-716.2509662915388
 21
797.6169068824033
 31
0.0
  0
LINE
  5
20A
330
1F
100
AcDbEntity
  8
0
  6
Continuous
370
    13
100
AcDbLine
 10
-699.9750374577429
 20
788.5854061882322
 30
0.0
 11
-697.4584605766685
 21
788.5854061882322
 31
0.0
  0
LINE
  5
20B
330
1F
100
AcDbEntity
  8
0
  6
Continuous
370
    13
100
AcDbLine
 10
-668.9372559244911
 20
788.1659767080531
 30
0.0
 11
-666.6303937835058
 21
788.1659767080531
 31
0.0
  0
LINE
  5
20C
330
1F
100
AcDbEntity
  8
0
  6
Continuous
370
    13
100
AcDbLine
 10
-639.9966217921351
 20
788.1659767080531
 30
0.0
 11
-635.802326990345
 21
788.1659767080531
 31
0.0
  0
LINE
  5
20D
330
1F
100
AcDbEntity
  8
0
  6
Continuous
370
    13
100
AcDbLine
 10
-713.5538977237585
 20
788.1882595034584
 30
0.0
 11
-708.0892966346281
 21
788.1882595034584
 31
0.0
  0
LINE
  5
20E
330
1F
100
AcDbEntity
  8
0
  6
Continuous
370
    13
100
AcDbLine
 10
-687.0716001379753
 20
788.1882595034584
 30
0.0
 11
-681.606999048845
 21
788.1882595034584
 31
0.0
  0
LINE
  5
20F
330
1F
100
AcDbEntity
  8
0
  6
Continuous
370
    13
100
AcDbLine
 10
-655.1247014630617
 20
788.1882595034584
 30
0.0
 11
-649.6601003739313
 21
788.1882595034584
 31
0.0
  0
LINE
  5
210
330
1F
100
AcDbEntity
  8
0
  6
Continuous
370
    13
100
AcDbLine
 10
-626.1202802976795
 20
788.1882595034584
 30
0.0
 11
-623.2842470039399
 21
788.1882595034584
 31
0.0
  0
LINE
  5
211
330
1F
100
AcDbEntity
  8
0
  6
Continuous
370
    13
100
AcDbLine
 10
-731.4688879564093
 20
788.1882595034584
 30
0.0
 11
-726.0042868672789
 21
788.1882595034584
 31
0.0
  0
LINE
  5
212
330
1F
100
AcDbEntity
  8
0
  6
Continuous
370
    13
100
AcDbLine
 10
-728.5678423293556
 20
809.9865186719458
 30
0.0
 11
-733.959964063625
 21
809.9865186719458
 31
0.0
  0
LINE
  5
213
330
1F
100
AcDbEntity
  8
0
  6
Continuous
370
    13
100
AcDbLine
 10
-1503.284247003941
 20
776.1335002009448
 30
0.0
 11
-1306.28424700394
 21
776.1335002009448
 31
0.0
  0
LINE
  5
214
330
1F
100
AcDbEntity
  8
0
  6
Continuous
370
    35
100
AcDbLine
 10
-1436.28424700394
 20
511.1335002009449
 30
0.0
 11
-1286.28424700394
 21
511.1335002009449
 31
0.0
  0
LINE
  5
215
330
1F
100
AcDbEntity
  8
0
  6
Continuous
370
    13
100
AcDbLine
 10
-898.7842470039391
 20
764.1335002009448
 30
0.0
 11
-908.7842470039388
 21
764.1335002009448
 31
0.0
  0
LINE
  5
216
330
1F
100
AcDbEntity
  8
0
  6
Continuous
370
    35
100
AcDbLine
 10
-1503.284247003941
 20
733.1335002009452
 30
0.0
 11
-1306.28424700394
 21
733.1335002009452
 31
0.0
  0
LINE
  5
217
330
1F
100
AcDbEntity
  8
0
  6
Continuous
370
    50
100
AcDbLine
 10
-1284.28424700394
 20
629.8821813913258
 30
0.0
 11
-1284.28424700394
 21
579.8821813913257
 31
0.0
  0
LINE
  5
218
330
1F
100
AcDbEntity
  8
0
  6
Continuous
370
    50
100
AcDbLine
 10
-1284.28424700394
 20
589.8821813913257
 30
0.0
 11
-1274.28424700394
 21
589.8821813913257
 31
0.0
  0
LINE
  5
219
330
1F
100
AcDbEntity
  8
0
  6
Continuous
370
    50
100
AcDbLine
 10
-1284.28424700394
 20
619.8821813913257
 30
0.0
 11
-1274.28424700394
 21
619.8821813913257
 31
0.0
  0
LINE
  5
21A
330
1F
100
AcDbEntity
  8
0
  6
Continuous
370
    50
100
AcDbLine
 10
-1274.28424700394
 20
624.8821813913257
 30
0.0
 11
-1274.28424700394
 21
614.8821813913256
 31
0.0
  0
LINE
  5
21B
330
1F
100
AcDbEntity
  8
0
  6
Continuous
370
    50
100
AcDbLine
 10
-1274.28424700394
 20
594.8821813913256
 30
0.0
 11
-1274.28424700394
 21
584.8821813913256
 31
0.0
  0
LINE
  5
21C
330
1F
100
AcDbEntity
  8
0
  6
Continuous
370
    50
100
AcDbLine
 10
-1307.284247003941
 20
629.8821813913258
 30
0.0
 11
-1307.284247003941
 21
579.8821813913257
 31
0.0
  0
LINE
  5
21D
330
1F
100
AcDbEntity
  8
0
  6
Continuous
370
    50
100
AcDbLine
 10
-1307.284247003941
 20
589.8821813913257
 30
0.0
 11
-1317.284247003941
 21
589.8821813913257
 31
0.0
  0
LINE
  5
21E
330
1F
100
AcDbEntity
  8
0
  6
Continuous
370
    50
100
AcDbLine
 10
-1307.284247003941
 20
619.8821813913257
 30
0.0
 11
-1317.284247003941
 21
619.8821813913257
 31
0.0
  0
LINE
  5
21F
330
1F
100
AcDbEntity
  8
0
  6
Continuous
370
    50
100
AcDbLine
 10
-1317.284247003941
 20
624.8821813913257
 30
0.0
 11
-1317.284247003941
 21
614.8821813913256
 31
0.0
  0
LINE
  5
220
330
1F
100
AcDbEntity
  8
0
  6
Continuous
370
    50
100
AcDbLine
 10
-1317.284247003941
 20
594.8821813913256
 30
0.0
 11
-1317.284247003941
 21
584.8821813913256
 31
0.0
  0
LINE
  5
221
330
1F
100
AcDbEntity
  8
0
  6
Continuous
370
    50
100
AcDbLine
 10
-1284.28424700394
 20
629.8821813913258
 30
0.0
 11
-1307.284247003941
 21
629.8821813913258
 31
0.0
  0
LINE
  5
222
330
1F
100
AcDbEntity
  8
0
  6
Continuous
370
    50
100
AcDbLine
 10
-1503.284247003941
 20
797.1335002009449
 30
0.0
 11
-1306.28424700394
 21
797.1335002009449
 31
0.0
  0
LINE
  5
223
330
1F
100
AcDbEntity
  8
0
  6
Continuous
370
    50
100
AcDbLine
 10
-1306.28424700394
 20
797.1335002009449
 30
0.0
 11
-1286.28424700394
 21
797.1335002009449
 31
0.0
  0
LINE
  5
224
330
1F
100
AcDbEntity
  8
0
  6
Continuous
370
    50
100
AcDbLine
 10
-1286.28424700394
 20
797.1335002009449
 30
0.0
 11
-1286.28424700394
 21
807.133500200945
 31
0.0
  0
LINE
  5
225
330
1F
100
AcDbEntity
  8
0
  6
Continuous
370
    50
100
AcDbLine
 10
-1240.458243262268
 20
805.559443425006
 30
0.0
 11
-1257.637123734489
 21
817.5137225553706
 31
0.0
  0
LINE
  5
226
330
1F
100
AcDbEntity
  8
0
  6
Continuous
370
    50
100
AcDbLine
 10
-1229.537042568036
 20
802.133500200945
 30
0.0
 11
-1158.284247003942
 21
802.133500200945
 31
0.0
  0
LINE
  5
227
330
1F
100
AcDbEntity
  8
0
  6
Continuous
370
    50
100
AcDbLine
 10
-1266.284247003941
 20
820.2262954859474
 30
0.0
 11
-1271.284247003941
 21
820.2262954859474
 31
0.0
  0
LINE
  5
228
330
1F
100
AcDbEntity
  8
0
  6
Continuous
370
    35
100
AcDbLine
 10
-1130.78424700394
 20
802.133500200945
 30
0.0
 11
-888.7842470039393
 21
802.133500200945
 31
0.0
  0
LINE
  5
229
330
1F
100
AcDbEntity
  8
0
  6
Continuous
370
    35
100
AcDbLine
 10
-1130.78424700394
 20
802.133500200945
 30
0.0
 11
-1130.78424700394
 21
775.1335002009449
 31
0.0
  0
LINE
  5
22A
330
1F
100
AcDbEntity
  8
0
  6
Continuous
370
    35
100
AcDbLine
 10
-888.7842470039393
 20
775.1335002009449
 30
0.0
 11
-1130.78424700394
 21
775.1335002009449
 31
0.0
  0
LINE
  5
22B
330
1F
100
AcDbEntity
  8
0
  6
Continuous
370
    35
100
AcDbLine
 10
-888.7842470039393
 20
802.133500200945
 30
0.0
 11
-888.7842470039393
 21
775.1335002009449
 31
0.0
  0
LINE
  5
22C
330
1F
100
AcDbEntity
  8
0
  6
Continuous
370
    50
100
AcDbLine
 10
-1110.784247003941
 20
775.1335002009449
 30
0.0
 11
-1110.784247003941
 21
772.1335002009448
 31
0.0
  0
LINE
  5
22D
330
1F
100
AcDbEntity
  8
0
  6
Continuous
370
    50
100
AcDbLine
 10
-1135.784247003941
 20
775.1335002009449
 30
0.0
 11
-1110.784247003941
 21
775.1335002009449
 31
0.0
  0
LINE
  5
22E
330
1F
100
AcDbEntity
  8
0
  6
Continuous
370
    50
100
AcDbLine
 10
-1135.784247003941
 20
775.1335002009449
 30
0.0
 11
-1135.784247003941
 21
802.133500200945
 31
0.0
  0
LINE
  5
22F
330
1F
100
AcDbEntity
  8
0
  6
Continuous
370
    50
100
AcDbLine
 10
-1158.284247003942
 20
802.133500200945
 30
0.0
 11
-1135.784247003941
 21
802.133500200945
 31
0.0
  0
LINE
  5
230
330
1F
100
AcDbEntity
  8
0
  6
Continuous
370
    50
100
AcDbLine
 10
-908.7842470039388
 20
772.1335002009448
 30
0.0
 11
-908.7842470039388
 21
496.133500200945
 31
0.0
  0
LINE
  5
231
330
1F
100
AcDbEntity
  8
0
  6
Continuous
370
    50
100
AcDbLine
 10
-908.7842470039388
 20
775.1335002009449
 30
0.0
 11
-908.7842470039388
 21
772.1335002009448
 31
0.0
  0
LINE
  5
232
330
1F
100
AcDbEntity
  8
0
  6
Continuous
370
    50
100
AcDbLine
 10
-883.7842470039385
 20
775.1335002009449
 30
0.0
 11
-908.7842470039388
 21
775.1335002009449
 31
0.0
  0
LINE
  5
233
330
1F
100
AcDbEntity
  8
0
  6
Continuous
370
    50
100
AcDbLine
 10
-883.7842470039385
 20
775.1335002009449
 30
0.0
 11
-883.7842470039385
 21
802.133500200945
 31
0.0
  0
LINE
  5
234
330
1F
100
AcDbEntity
  8
0
  6
Continuous
370
    50
100
AcDbLine
 10
-861.2842470039377
 20
802.133500200945
 30
0.0
 11
-883.7842470039385
 21
802.133500200945
 31
0.0
  0
LINE
  5
235
330
1F
100
AcDbEntity
  8
0
  6
Continuous
370
    50
100
AcDbLine
 10
-908.7842470039388
 20
496.133500200945
 30
0.0
 11
-1110.784247003941
 21
496.133500200945
 31
0.0
  0
LINE
  5
236
330
1F
100
AcDbEntity
  8
0
  6
Continuous
370
    50
100
AcDbLine
 10
-1110.784247003941
 20
772.1335002009448
 30
0.0
 11
-1110.784247003941
 21
496.133500200945
 31
0.0
  0
LINE
  5
237
330
1F
100
AcDbEntity
  8
0
  6
Continuous
370
    13
100
AcDbLine
 10
-1337.243780568282
 20
835.0320238528654
 30
0.0
 11
-1300.233860043651
 21
784.4994278538143
 31
0.0
  0
CIRCLE
  5
238
330
1F
100
AcDbEntity
  8
0
  6
Continuous
370
    13
100
AcDbCircle
 10
-1298.756679262221
 20
782.4825151291342
 30
0.0
 40
2.5
  0
HATCH
  5
239
330
1F
100
AcDbEntity
  8
0
  6
Continuous
370
    13
100
AcDbHatch
 10
0.0
 20
0.0
 30
0.0
210
0.0
220
0.0
230
1.0
  2
SOLID
 70
     1
 71
     0
 91
        1
 92
        2
 72
     0
 73
     1
 93
       16
 10
-1296.256679262222
 20
782.4825151291342
 10
-1296.446980430943
 20
783.4392237100468
 10
-1296.988912309255
 20
784.2502820821005
 10
-1297.799970681309
 20
784.7922139604124
 10
-1298.756679262221
 20
784.9825151291341
 10
-1299.713387843134
 20
784.7922139604124
 10
-1300.524446215188
 20
784.2502820821005
 10
-1301.0663780935
 20
783.4392237100468
 10
-1301.256679262221
 20
782.4825151291342
 10
-1301.0663780935
 20
781.5258065482215
 10
-1300.524446215188
 20
780.7147481761679
 10
-1299.713387843134
 20
780.172816297856
 10
-1298.756679262221
 20
779.9825151291342
 10
-1297.799970681309
 20
780.172816297856
 10
-1296.988912309255
 20
780.7147481761679
 10
-1296.446980430943
 20
781.5258065482215
 97
        0
 75
     0
 76
     1
 98
        0
  0
LINE
  5
23A
330
1F
100
AcDbEntity
  8
0
  6
Continuous
370
    13
100
AcDbLine
 10
-1297.393529251304
 20
832.1335002009454
 30
0.0
 11
-1297.393529251304
 21
794.8633887329945
 31
0.0
  0
CIRCLE
  5
23B
330
1F
100
AcDbEntity
  8
0
  6
Continuous
370
    13
100
AcDbCircle
 10
-1297.393529251304
 20
792.3633887329946
 30
0.0
 40
2.5
  0
HATCH
  5
23C
330
1F
100
AcDbEntity
  8
0
  6
Continuous
370
    13
100
AcDbHatch
 10
0.0
 20
0.0
 30
0.0
210
0.0
220
0.0
230
1.0
  2
SOLID
 70
     1
 71
     0
 91
        1
 92
        2
 72
     0
 73
     1
 93
       16
 10
-1294.893529251305
 20
792.3633887329946
 10
-1295.083830420026
 20
793.3200973139072
 10
-1295.625762298338
 20
794.131155685961
 10
-1296.436820670392
 20
794.6730875642728
 10
-1297.393529251304
 20
794.8633887329945
 10
-1298.350237832217
 20
794.6730875642728
 10
-1299.161296204271
 20
794.131155685961
 10
-1299.703228082583
 20
793.3200973139072
 10
-1299.893529251304
 20
792.3633887329946
 10
-1299.703228082583
 20
791.4066801520819
 10
-1299.161296204271
 20
790.5956217800283
 10
-1298.350237832217
 20
790.0536899017164
 10
-1297.393529251304
 20
789.8633887329946
 10
-1296.436820670392
 20
790.0536899017164
 10
-1295.625762298338
 20
790.5956217800283
 10
-1295.083830420026
 20
791.4066801520819
 97
        0
 75
     0
 76
     1
 98
        0
  0
LINE
  5
23D
330
1F
100
AcDbEntity
  8
0
  6
Continuous
370
    13
100
AcDbLine
 10
-1216.642993728788
 20
832.1335002009454
 30
0.0
 11
-1216.642993728788
 21
797.1388946303359
 31
0.0
  0
CIRCLE
  5
23E
330
1F
100
AcDbEntity
  8
0
  6
Continuous
370
    13
100
AcDbCircle
 10
-1216.642993728788
 20
794.638894630336
 30
0.0
 40
2.5
  0
HATCH
  5
23F
330
1F
100
AcDbEntity
  8
0
  6
Continuous
370
    13
100
AcDbHatch
 10
0.0
 20
0.0
 30
0.0
210
0.0
220
0.0
230
1.0
  2
SOLID
 70
     1
 71
     0
 91
        1
 92
        2
 72
     0
 73
     1
 93
       16
 10
-1214.142993728788
 20
794.638894630336
 10
-1214.333294897509
 20
795.5956032112487
 10
-1214.875226775821
 20
796.4066615833024
 10
-1215.686285147875
 20
796.9485934616142
 10
-1216.642993728788
 20
797.1388946303359
 10
-1217.5997023097
 20
796.9485934616142
 10
-1218.410760681754
 20
796.4066615833024
 10
-1218.952692560066
 20
795.5956032112487
 10
-1219.142993728787
 20
794.638894630336
 10
-1218.952692560066
 20
793.6821860494233
 10
-1218.410760681754
 20
792.8711276773697
 10
-1217.5997023097
 20
792.3291957990579
 10
-1216.642993728788
 20
792.138894630336
 10
-1215.686285147875
 20
792.3291957990579
 10
-1214.875226775821
 20
792.8711276773697
 10
-1214.333294897509
 20
793.6821860494233
 97
        0
 75
     0
 76
     1
 98
        0
  0
LINE
  5
240
330
1F
100
AcDbEntity
  8
0
  6
Continuous
370
    13
100
AcDbLine
 10
-1162.654240510794
 20
832.1335002009454
 30
0.0
 11
-1162.654240510794
 21
799.2572271130591
 31
0.0
  0
CIRCLE
  5
241
330
1F
100
AcDbEntity
  8
0
  6
Continuous
370
    13
100
AcDbCircle
 10
-1162.654240510794
 20
796.7572271130592
 30
0.0
 40
2.5
  0
HATCH
  5
242
330
1F
100
AcDbEntity
  8
0
  6
Continuous
370
    13
100
AcDbHatch
 10
0.0
 20
0.0
 30
0.0
210
0.0
220
0.0
230
1.0
  2
SOLID
 70
     1
 71
     0
 91
        1
 92
        2
 72
     0
 73
     1
 93
       16
 10
-1160.154240510794
 20
796.7572271130592
 10
-1160.344541679516
 20
797.7139356939718
 10
-1160.886473557828
 20
798.5249940660256
 10
-1161.697531929882
 20
799.0669259443374
 10
-1162.654240510794
 20
799.2572271130591
 10
-1163.610949091707
 20
799.0669259443374
 10
-1164.422007463761
 20
798.5249940660256
 10
-1164.963939342073
 20
797.7139356939718
 10
-1165.154240510794
 20
796.7572271130592
 10
-1164.963939342073
 20
795.8005185321465
 10
-1164.422007463761
 20
794.9894601600929
 10
-1163.610949091707
 20
794.447528281781
 10
-1162.654240510794
 20
794.2572271130592
 10
-1161.697531929882
 20
794.447528281781
 10
-1160.886473557828
 20
794.9894601600929
 10
-1160.344541679516
 20
795.8005185321465
 97
        0
 75
     0
 76
     1
 98
        0
  0
LINE
  5
243
330
1F
100
AcDbEntity
  8
0
  6
Continuous
370
    13
100
AcDbLine
 10
-1127.06889097162
 20
834.0211410591223
 30
0.0
 11
-1143.570139675995
 21
804.3188933912489
 31
0.0
  0
CIRCLE
  5
244
330
1F
100
AcDbEntity
  8
0
  6
Continuous
370
    13
100
AcDbCircle
 10
-1144.784247003941
 20
802.133500200945
 30
0.0
 40
2.5
  0
HATCH
  5
245
330
1F
100
AcDbEntity
  8
0
  6
Continuous
370
    13
100
AcDbHatch
 10
0.0
 20
0.0
 30
0.0
210
0.0
220
0.0
230
1.0
  2
SOLID
 70
     1
 71
     0
 91
        1
 92
        2
 72
     0
 73
     1
 93
       16
 10
-1142.284247003941
 20
802.133500200945
 10
-1142.474548172663
 20
803.0902087818578
 10
-1143.016480050975
 20
803.9012671539114
 10
-1143.827538423028
 20
804.4431990322233
 10
-1144.784247003941
 20
804.633500200945
 10
-1145.740955584854
 20
804.4431990322233
 10
-1146.552013956908
 20
803.9012671539114
 10
-1147.09394583522
 20
803.0902087818578
 10
-1147.284247003941
 20
802.133500200945
 10
-1147.09394583522
 20
801.1767916200324
 10
-1146.552013956908
 20
800.3657332479788
 10
-1145.740955584854
 20
799.8238013696669
 10
-1144.784247003941
 20
799.6335002009452
 10
-1143.827538423028
 20
799.8238013696669
 10
-1143.016480050975
 20
800.3657332479788
 10
-1142.474548172663
 20
801.1767916200324
 97
        0
 75
     0
 76
     1
 98
        0
  0
LINE
  5
246
330
1F
100
AcDbEntity
  8
0
  6
Continuous
370
    13
100
AcDbLine
 10
-1087.667993924188
 20
731.4082855000265
 30
0.0
 11
-1113.730894741307
 21
765.5732693047972
 31
0.0
  0
CIRCLE
  5
247
330
1F
100
AcDbEntity
  8
0
  6
Continuous
370
    13
100
AcDbCircle
 10
-1115.247196518999
 20
767.560938522491
 30
0.0
 40
2.5
  0
HATCH
  5
248
330
1F
100
AcDbEntity
  8
0
  6
Continuous
370
    13
100
AcDbHatch
 10
0.0
 20
0.0
 30
0.0
210
0.0
220
0.0
230
1.0
  2
SOLID
 70
     1
 71
     0
 91
        1
 92
        2
 72
     0
 73
     1
 93
       16
 10
-1112.747196519
 20
767.560938522491
 10
-1112.937497687721
 20
768.5176471034038
 10
-1113.479429566033
 20
769.3287054754574
 10
-1114.290487938087
 20
769.8706373537692
 10
-1115.247196518999
 20
770.060938522491
 10
-1116.203905099912
 20
769.8706373537692
 10
-1117.014963471966
 20
769.3287054754574
 10
-1117.556895350278
 20
768.5176471034038
 10
-1117.747196518999
 20
767.560938522491
 10
-1117.556895350278
 20
766.6042299415784
 10
-1117.014963471966
 20
765.7931715695247
 10
-1116.203905099912
 20
765.2512396912128
 10
-1115.247196518999
 20
765.0609385224911
 10
-1114.290487938087
 20
765.2512396912128
 10
-1113.479429566033
 20
765.7931715695247
 10
-1112.937497687721
 20
766.6042299415784
 97
        0
 75
     0
 76
     1
 98
        0
  0
LINE
  5
249
330
1F
100
AcDbEntity
  8
0
  6
Continuous
370
    13
100
AcDbLine
 10
-985.1946953780031
 20
832.1335002009454
 30
0.0
 11
-985.1946953780031
 21
791.9585075782413
 31
0.0
  0
CIRCLE
  5
24A
330
1F
100
AcDbEntity
  8
0
  6
Continuous
370
    13
100
AcDbCircle
 10
-985.1946953780031
 20
789.4585075782414
 30
0.0
 40
2.5
  0
HATCH
  5
24B
330
1F
100
AcDbEntity
  8
0
  6
Continuous
370
    13
100
AcDbHatch
 10
0.0
 20
0.0
 30
0.0
210
0.0
220
0.0
230
1.0
  2
SOLID
 70
     1
 71
     0
 91
        1
 92
        2
 72
     0
 73
     1
 93
       16
 10
-982.6946953780032
 20
789.4585075782414
 10
-982.8849965467249
 20
790.415216159154
 10
-983.4269284250367
 20
791.2262745312078
 10
-984.2379867970905
 20
791.7682064095196
 10
-985.1946953780031
 20
791.9585075782413
 10
-986.1514039589158
 20
791.7682064095196
 10
-986.9624623309694
 20
791.2262745312078
 10
-987.5043942092813
 20
790.415216159154
 10
-987.6946953780031
 20
789.4585075782414
 10
-987.5043942092813
 20
788.5017989973287
 10
-986.9624623309694
 20
787.6907406252751
 10
-986.1514039589158
 20
787.1488087469633
 10
-985.1946953780031
 20
786.9585075782414
 10
-984.2379867970905
 20
787.1488087469633
 10
-983.4269284250367
 20
787.6907406252751
 10
-982.8849965467249
 20
788.5017989973287
 97
        0
 75
     0
 76
     1
 98
        0
  0
LINE
  5
24C
330
1F
100
AcDbEntity
  8
0
  6
Continuous
370
    13
100
AcDbLine
 10
-892.499603036259
 20
834.0211410591223
 30
0.0
 11
-875.9983543318848
 21
804.3188933912489
 31
0.0
  0
CIRCLE
  5
24D
330
1F
100
AcDbEntity
  8
0
  6
Continuous
370
    13
100
AcDbCircle
 10
-874.7842470039382
 20
802.133500200945
 30
0.0
 40
2.5
  0
HATCH
  5
24E
330
1F
100
AcDbEntity
  8
0
  6
Continuous
370
    13
100
AcDbHatch
 10
0.0
 20
0.0
 30
0.0
210
0.0
220
0.0
230
1.0
  2
SOLID
 70
     1
 71
     0
 91
        1
 92
        2
 72
     0
 73
     1
 93
       16
 10
-872.2842470039383
 20
802.133500200945
 10
-872.47454817266
 20
803.0902087818578
 10
-873.0164800509718
 20
803.9012671539114
 10
-873.8275384230255
 20
804.4431990322233
 10
-874.7842470039382
 20
804.633500200945
 10
-875.7409555848509
 20
804.4431990322233
 10
-876.5520139569045
 20
803.9012671539114
 10
-877.0939458352163
 20
803.0902087818578
 10
-877.2842470039382
 20
802.133500200945
 10
-877.0939458352163
 20
801.1767916200324
 10
-876.5520139569045
 20
800.3657332479788
 10
-875.7409555848509
 20
799.8238013696669
 10
-874.7842470039382
 20
799.6335002009452
 10
-873.8275384230255
 20
799.8238013696669
 10
-873.0164800509718
 20
800.3657332479788
 10
-872.47454817266
 20
801.1767916200324
 97
        0
 75
     0
 76
     1
 98
        0
  0
LINE
  5
24F
330
1F
100
AcDbEntity
  8
0
  6
Continuous
370
    13
100
AcDbLine
 10
-856.9142534970853
 20
832.1335002009454
 30
0.0
 11
-856.9142534970853
 21
799.2572271130591
 31
0.0
  0
CIRCLE
  5
250
330
1F
100
AcDbEntity
  8
0
  6
Continuous
370
    13
100
AcDbCircle
 10
-856.9142534970853
 20
796.7572271130592
 30
0.0
 40
2.5
  0
HATCH
  5
251
330
1F
100
AcDbEntity
  8
0
  6
Continuous
370
    13
100
AcDbHatch
 10
0.0
 20
0.0
 30
0.0
210
0.0
220
0.0
230
1.0
  2
SOLID
 70
     1
 71
     0
 91
        1
 92
        2
 72
     0
 73
     1
 93
       16
 10
-854.4142534970854
 20
796.7572271130592
 10
-854.6045546658071
 20
797.7139356939718
 10
-855.1464865441189
 20
798.5249940660256
 10
-855.9575449161727
 20
799.0669259443374
 10
-856.9142534970853
 20
799.2572271130591
 10
-857.870962077998
 20
799.0669259443374
 10
-858.6820204500516
 20
798.5249940660256
 10
-859.2239523283635
 20
797.7139356939718
 10
-859.4142534970853
 20
796.7572271130592
 10
-859.2239523283635
 20
795.8005185321465
 10
-858.6820204500516
 20
794.9894601600929
 10
-857.870962077998
 20
794.447528281781
 10
-856.9142534970853
 20
794.2572271130592
 10
-855.9575449161727
 20
794.447528281781
 10
-855.1464865441189
 20
794.9894601600929
 10
-854.6045546658071
 20
795.8005185321465
 97
        0
 75
     0
 76
     1
 98
        0
  0
LINE
  5
252
330
1F
100
AcDbEntity
  8
0
  6
Continuous
370
    13
100
AcDbLine
 10
-802.925500279092
 20
832.1335002009454
 30
0.0
 11
-802.925500279092
 21
797.251826409892
 31
0.0
  0
CIRCLE
  5
253
330
1F
100
AcDbEntity
  8
0
  6
Continuous
370
    13
100
AcDbCircle
 10
-802.925500279092
 20
794.751826409892
 30
0.0
 40
2.5
  0
HATCH
  5
254
330
1F
100
AcDbEntity
  8
0
  6
Continuous
370
    13
100
AcDbHatch
 10
0.0
 20
0.0
 30
0.0
210
0.0
220
0.0
230
1.0
  2
SOLID
 70
     1
 71
     0
 91
        1
 92
        2
 72
     0
 73
     1
 93
       16
 10
-800.4255002790921
 20
794.751826409892
 10
-800.6158014478139
 20
795.7085349908048
 10
-801.1577333261257
 20
796.5195933628584
 10
-801.9687916981794
 20
797.0615252411702
 10
-802.925500279092
 20
797.251826409892
 10
-803.8822088600048
 20
797.0615252411702
 10
-804.6932672320584
 20
796.5195933628584
 10
-805.2351991103702
 20
795.7085349908048
 10
-805.425500279092
 20
794.751826409892
 10
-805.2351991103702
 20
793.7951178289794
 10
-804.6932672320584
 20
792.9840594569257
 10
-803.8822088600048
 20
792.4421275786138
 10
-802.925500279092
 20
792.2518264098921
 10
-801.9687916981794
 20
792.4421275786138
 10
-801.1577333261257
 20
792.9840594569257
 10
-800.6158014478139
 20
793.7951178289794
 97
        0
 75
     0
 76
     1
 98
        0
  0
LINE
  5
255
330
1F
100
AcDbEntity
  8
0
  6
Continuous
370
    13
100
AcDbLine
 10
-931.9005000836916
 20
731.4082855000265
 30
0.0
 11
-905.8375992665723
 21
765.5732693047972
 31
0.0
  0
CIRCLE
  5
256
330
1F
100
AcDbEntity
  8
0
  6
Continuous
370
    13
100
AcDbCircle
 10
-904.3212974888801
 20
767.560938522491
 30
0.0
 40
2.5
  0
HATCH
  5
257
330
1F
100
AcDbEntity
  8
0
  6
Continuous
370
    13
100
AcDbHatch
 10
0.0
 20
0.0
 30
0.0
210
0.0
220
0.0
230
1.0
  2
SOLID
 70
     1
 71
     0
 91
        1
 92
        2
 72
     0
 73
     1
 93
       16
 10
-901.8212974888802
 20
767.560938522491
 10
-902.0115986576019
 20
768.5176471034038
 10
-902.5535305359138
 20
769.3287054754574
 10
-903.3645889079675
 20
769.8706373537692
 10
-904.3212974888801
 20
770.060938522491
 10
-905.2780060697928
 20
769.8706373537692
 10
-906.0890644418464
 20
769.3287054754574
 10
-906.6309963201583
 20
768.5176471034038
 10
-906.8212974888801
 20
767.560938522491
 10
-906.6309963201583
 20
766.6042299415784
 10
-906.0890644418464
 20
765.7931715695247
 10
-905.2780060697928
 20
765.2512396912128
 10
-904.3212974888801
 20
765.0609385224911
 10
-903.3645889079675
 20
765.2512396912128
 10
-902.5535305359138
 20
765.7931715695247
 10
-902.0115986576019
 20
766.6042299415784
 97
        0
 75
     0
 76
     1
 98
        0
  0
LINE
  5
258
330
1F
100
AcDbEntity
  8
0
  6
Continuous
370
    13
100
AcDbLine
 10
-696.4570995002175
 20
759.7521554203446
 30
0.0
 11
-736.6628767160507
 21
781.6504779617283
 31
0.0
  0
CIRCLE
  5
259
330
1F
100
AcDbEntity
  8
0
  6
Continuous
370
    13
100
AcDbCircle
 10
-738.8583521320973
 20
782.8462570790969
 30
0.0
 40
2.5
  0
HATCH
  5
25A
330
1F
100
AcDbEntity
  8
0
  6
Continuous
370
    13
100
AcDbHatch
 10
0.0
 20
0.0
 30
0.0
210
0.0
220
0.0
230
1.0
  2
SOLID
 70
     1
 71
     0
 91
        1
 92
        2
 72
     0
 73
     1
 93
       16
 10
-736.3583521320974
 20
782.8462570790969
 10
-736.5486533008191
 20
783.8029656600095
 10
-737.0905851791309
 20
784.6140240320632
 10
-737.9016435511846
 20
785.155955910375
 10
-738.8583521320973
 20
785.3462570790967
 10
-739.81506071301
 20
785.155955910375
 10
-740.6261190850636
 20
784.6140240320632
 10
-741.1680509633754
 20
783.8029656600095
 10
-741.3583521320973
 20
782.8462570790969
 10
-741.1680509633754
 20
781.8895484981841
 10
-740.6261190850636
 20
781.0784901261305
 10
-739.81506071301
 20
780.5365582478187
 10
-738.8583521320973
 20
780.3462570790969
 10
-737.9016435511846
 20
780.5365582478187
 10
-737.0905851791309
 20
781.0784901261305
 10
-736.5486533008191
 20
781.8895484981841
 97
        0
 75
     0
 76
     1
 98
        0
  0
LINE
  5
25B
330
1F
100
AcDbEntity
  8
0
  6
Continuous
370
    50
100
AcDbLine
 10
-1483.284247003941
 20
-62.0211063972137
 30
0.0
 11
-708.1132672101082
 21
-62.02110639721381
 31
0.0
  0
LINE
  5
25C
330
1F
100
AcDbEntity
  8
0
  6
Continuous
370
    50
100
AcDbLine
 10
-1483.284247003941
 20
-62.0211063972137
 30
0.0
 11
-1483.284247003941
 21
157.9791679760689
 31
0.0
  0
LINE
  5
25D
330
1F
100
AcDbEntity
  8
0
  6
Continuous
370
    50
100
AcDbLine
 10
-733.2842470039393
 20
802.133500200945
 30
0.0
 11
-733.2842470039393
 21
-87.36200678968231
 31
0.0
  0
LINE
  5
25E
330
1F
100
AcDbEntity
  8
0
  6
Continuous
370
    50
100
AcDbLine
 10
-1062.28424700394
 20
-87.36200678968231
 30
0.0
 11
-1062.28424700394
 21
-16.86649979905508
 31
0.0
  0
LINE
  5
25F
330
1F
100
AcDbEntity
  8
0
  6
Continuous
370
    13
100
AcDbLine
 10
-743.2842470039392
 20
787.1335002009449
 30
0.0
 11
-743.2842470039392
 21
-87.36200678968231
 31
0.0
  0
LINE
  5
260
330
1F
100
AcDbEntity
  8
0
  6
Continuous
370
    35
100
AcDbLine
 10
-762.2842470039393
 20
768.1335002009448
 30
0.0
 11
-762.2842470039393
 21
-87.36200678968231
 31
0.0
  0
LINE
  5
261
330
1F
100
AcDbEntity
  8
0
  6
Continuous
370
    50
100
AcDbLine
 10
-1483.284247003941
 20
488.0067324158452
 30
0.0
 11
-1483.284247003941
 21
1156.913080283965
 31
0.0
  0
LINE
  5
262
330
1F
100
AcDbEntity
  8
0
  6
Continuous
370
    13
100
AcDbLine
 10
-1090.73072018005
 20
834.0211410591223
 30
0.0
 11
-1132.177989170265
 21
759.4160568767373
 31
0.0
  0
CIRCLE
  5
263
330
1F
100
AcDbEntity
  8
0
  6
Continuous
370
    13
100
AcDbCircle
 10
-1133.392096498212
 20
757.2306636864334
 30
0.0
 40
2.5
  0
HATCH
  5
264
330
1F
100
AcDbEntity
  8
0
  6
Continuous
370
    13
100
AcDbHatch
 10
0.0
 20
0.0
 30
0.0
210
0.0
220
0.0
230
1.0
  2
SOLID
 70
     1
 71
     0
 91
        1
 92
        2
 72
     0
 73
     1
 93
       16
 10
-1130.892096498212
 20
757.2306636864334
 10
-1131.082397666934
 20
758.1873722673461
 10
-1131.624329545245
 20
758.9984306393998
 10
-1132.435387917299
 20
759.5403625177116
 10
-1133.392096498212
 20
759.7306636864333
 10
-1134.348805079125
 20
759.5403625177116
 10
-1135.159863451178
 20
758.9984306393998
 10
-1135.70179532949
 20
758.1873722673461
 10
-1135.892096498212
 20
757.2306636864334
 10
-1135.70179532949
 20
756.2739551055207
 10
-1135.159863451178
 20
755.4628967334671
 10
-1134.348805079125
 20
754.9209648551553
 10
-1133.392096498212
 20
754.7306636864334
 10
-1132.435387917299
 20
754.9209648551553
 10
-1131.624329545245
 20
755.4628967334671
 10
-1131.082397666934
 20
756.2739551055207
 97
        0
 75
     0
 76
     1
 98
        0
  0
LINE
  5
265
330
1F
100
AcDbEntity
  8
0
  6
Continuous
370
    13
100
AcDbLine
 10
-928.8377738278291
 20
834.0211410591223
 30
0.0
 11
-887.3905048376142
 21
759.4160568767373
 31
0.0
  0
CIRCLE
  5
266
330
1F
100
AcDbEntity
  8
0
  6
Continuous
370
    13
100
AcDbCircle
 10
-886.1763975096677
 20
757.2306636864334
 30
0.0
 40
2.5
  0
HATCH
  5
267
330
1F
100
AcDbEntity
  8
0
  6
Continuous
370
    13
100
AcDbHatch
 10
0.0
 20
0.0
 30
0.0
210
0.0
220
0.0
230
1.0
  2
SOLID
 70
     1
 71
     0
 91
        1
 92
        2
 72
     0
 73
     1
 93
       16
 10
-883.6763975096677
 20
757.2306636864334
 10
-883.8666986783895
 20
758.1873722673461
 10
-884.4086305567014
 20
758.9984306393998
 10
-885.219688928755
 20
759.5403625177116
 10
-886.1763975096677
 20
759.7306636864333
 10
-887.1331060905803
 20
759.5403625177116
 10
-887.944164462634
 20
758.9984306393998
 10
-888.4860963409459
 20
758.1873722673461
 10
-888.6763975096676
 20
757.2306636864334
 10
-888.4860963409459
 20
756.2739551055207
 10
-887.944164462634
 20
755.4628967334671
 10
-887.1331060905803
 20
754.9209648551553
 10
-886.1763975096677
 20
754.7306636864334
 10
-885.219688928755
 20
754.9209648551553
 10
-884.4086305567014
 20
755.4628967334671
 10
-883.8666986783895
 20
756.2739551055207
 97
        0
 75
     0
 76
     1
 98
        0
  0
LINE
  5
268
330
1F
100
AcDbEntity
  8
0
  6
Continuous
370
    13
100
AcDbLine
 10
-613.2842470039401
 20
-136.679102920702
 30
0.0
 11
-613.2842470039401
 21
-246.6791029207021
 31
0.0
  0
LINE
  5
269
330
1F
100
AcDbEntity
  8
0
  6
Continuous
370
    13
100
AcDbLine
 10
-1513.28424700394
 20
-246.6791029207027
 30
0.0
 11
-613.2842470039401
 21
-246.6791029207027
 31
0.0
  0
LWPOLYLINE
  5
26C
330
1F
100
AcDbEntity
  8
Linia Izolacji - ARCHICAD
  6
IZOLACJA GRUBA
370
    35
100
AcDbPolyline
 90
        6
 70
   128
 43
0.0
 10
-767.2842470039383
 20
772.133500200945
 10
-833.6152516848534
 20
772.1335002009448
 42
0.1922225989166129
 10
-846.4411012534301
 20
767.1335002009449
 10
-878.3512461083776
 20
735.2233553459968
 42
0.2535209843195035
 10
-883.7842470039403
 20
724.9920813338869
 10
-883.7842470039403
 20
472.133500200945
  0
LWPOLYLINE
  5
26E
330
1F
100
AcDbEntity
  8
Linia Izolacji - ARCHICAD
  6
IZOLACJA GRUBA
370
    35
100
AcDbPolyline
 90
        2
 70
   128
 43
0.0
 10
-879.7842470039408
 20
472.133500200945
 10
-1135.784247003941
 20
472.133500200945
  0
LWPOLYLINE
  5
26F
330
1F
100
AcDbEntity
  8
Linia Izolacji - ARCHICAD
  6
IZOLACJA GRUBA
370
    35
100
AcDbPolyline
 90
        6
 70
   128
 43
0.0
 10
-1135.784247003941
 20
472.133500200945
 10
-1135.784247003941
 20
724.7903544504362
 42
0.2535209843195035
 10
-1141.217247899502
 20
735.2233553459968
 10
-1173.127392754449
 20
767.1335002009449
 42
0.1922225989164641
 10
-1185.953242323016
 20
772.1335002009448
 10
-1286.28424700394
 20
772.1335002009448
  0
LWPOLYLINE
  5
270
330
1F
100
AcDbEntity
  8
Linia Izolacji - ARCHICAD
  6
IZOLACJA GRUBA
370
    35
100
AcDbPolyline
 90
        2
 70
   128
 43
0.0
 10
-758.2842470039398
 20
-87.36200678968231
 10
-758.2842470039398
 20
763.1335002009449
  0
LWPOLYLINE
  5
271
330
1F
100
AcDbEntity
  8
Linia Izolacji - ARCHICAD
  6
IZOLACJA GRUBA
370
    35
100
AcDbPolyline
 90
        2
 70
   128
 43
0.0
 10
-1306.28424700394
 20
772.1335002009448
 10
-1503.284247003941
 20
772.1335002009448
  0
LWPOLYLINE
  5
272
330
1F
100
AcDbEntity
  8
Linia Izolacji - ARCHICAD
  6
IZOLACJA GRUBA
370
    35
100
AcDbPolyline
 90
        2
 70
   128
 43
0.0
 10
-1306.28424700394
 20
689.1335002009449
 10
-1503.284247003941
 20
689.1335002009449
  0
LWPOLYLINE
  5
273
330
1F
100
AcDbEntity
  8
0
  6
Continuous
370
    13
100
AcDbPolyline
 90
        4
 70
   129
 43
0.0
 10
-1513.422893686323
 20
-246.6791029207021
 10
-1513.422893686323
 20
1188.32089707931
 10
-613.2842470039401
 20
1188.32089707931
 10
-613.2842470039401
 20
-246.6791029207021
  0
LWPOLYLINE
  5
274
330
1F
100
AcDbEntity
  8
@__WIDOCZNE
  6
Continuous
370
    13
100
AcDbPolyline
 90
        2
 70
   129
 43
0.0
 10
-613.2842470039401
 20
-216.6791029207054
 10
-1245.419107904513
 20
-216.6791029207054
  0
LWPOLYLINE
  5
275
330
1F
100
AcDbEntity
  8
@__WIDOCZNE
  6
Continuous
370
    13
100
AcDbPolyline
 90
        4
 70
   129
 43
0.0
 10
-1513.28424700394
 20
-136.6791029207139
 10
-1513.28424700394
 20
-246.6791029207027
 10
-613.2842470039401
 20
-246.6791029207021
 10
-613.2842470039401
 20
-136.6791029207135
  0
LWPOLYLINE
  5
276
330
1F
100
AcDbEntity
  8
@__WIDOCZNE
  6
Continuous
370
    13
100
AcDbPolyline
 90
        2
 70
   128
 43
0.0
 10
-683.2842470038694
 20
-161.6791029207108
 10
-683.2842470038694
 20
-136.6791029207135
  0
LWPOLYLINE
  5
277
330
1F
100
AcDbEntity
  8
@__WIDOCZNE
  6
Continuous
370
    13
100
AcDbPolyline
 90
        2
 70
   128
 43
0.0
 10
-613.2842470039401
 20
-161.6791029207108
 10
-768.2842470038969
 20
-161.6791029207108
  0
LWPOLYLINE
  5
278
330
1F
100
AcDbEntity
  8
@__WIDOCZNE
  6
Continuous
370
    13
100
AcDbPolyline
 90
        2
 70
   128
 43
0.0
 10
-768.2842470038969
 20
-216.6791029207054
 10
-768.2842470038969
 20
-136.6791029207135
  0
LWPOLYLINE
  5
279
330
1F
100
AcDbEntity
  8
@__WIDOCZNE
  6
Continuous
370
    13
100
AcDbPolyline
 90
        2
 70
   128
 43
0.0
 10
-1245.419107904513
 20
-136.6791029207139
 10
-1245.419107904513
 20
-246.6791029207032
  0
LWPOLYLINE
  5
27A
330
1F
100
AcDbEntity
  8
@__WIDOCZNE
  6
Continuous
370
    13
100
AcDbPolyline
 90
        4
 70
   129
 43
0.0
 10
-588.2803957072076
 20
-271.9040186498884
 10
-1638.442150170169
 20
-271.9040186498884
 10
-1638.442150170168
 20
1213.324748376043
 10
-588.2803957072067
 20
1213.324748376043
  0
ARC
  5
27B
330
1F
100
AcDbEntity
  8
0
  6
Continuous
370
    50
100
AcDbCircle
 10
-753.284247003939
 20
805.0873858892667
 30
0.0
 40
15.13890959668078
100
AcDbArc
 50
90.0
 51
124.8329247476263
  0
ARC
  5
27C
330
1F
100
AcDbEntity
  8
0
  6
Continuous
370
    50
100
AcDbCircle
 10
-790.0314514398436
 20
821.2537399437155
 30
0.0
 40
19.12023974277036
100
AcDbArc
 50
270.0
 51
304.8329247476229
  0
ARC
  5
27D
330
1F
100
AcDbEntity
  8
Linia Izolacji - ARCHICAD
  6
IZOLACJA GRUBA
370
    13
100
AcDbCircle
 10
-767.2842470039401
 20
763.1335002009449
 30
0.0
 40
9.000000000000341
100
AcDbArc
 50
0.0
 51
90.0
  0
ARC
  5
27E
330
1F
100
AcDbEntity
  8
0
  6
Continuous
370
    50
100
AcDbCircle
 10
-1271.284247003941
 20
805.0873858892667
 30
0.0
 40
15.13890959668078
100
AcDbArc
 50
90.0
 51
172.232359881076
  0
ARC
  5
27F
330
1F
100
AcDbEntity
  8
0
  6
Continuous
370
    50
100
AcDbCircle
 10
-1266.284247003941
 20
805.0873858892667
 30
0.0
 40
15.13890959668078
100
AcDbArc
 50
55.16707525237375
 51
90.0
  0
ARC
  5
280
330
1F
100
AcDbEntity
  8
0
  6
Continuous
370
    50
100
AcDbCircle
 10
-1229.537042568036
 20
821.2537399437155
 30
0.0
 40
19.12023974277036
100
AcDbArc
 50
235.167075252377
 51
270.0
  0
ARC
  5
281
330
1F
100
AcDbEntity
  8
0
  6
Continuous
370
    50
100
AcDbCircle
 10
-748.2842470039382
 20
805.0873858892667
 30
0.0
 40
15.13890959668078
100
AcDbArc
 50
7.767640118924051
 51
90.0
  0
CIRCLE
  5
282
330
1F
100
AcDbEntity
  8
0
  6
Continuous
370
    35
100
AcDbCircle
 10
-1296.398808336364
 20
780.1457487356282
 30
0.0
 40
7.999999999999119
  0
CIRCLE
  5
283
330
1F
100
AcDbEntity
  8
0
  6
Continuous
370
    35
100
AcDbCircle
 10
-1434.400081324104
 20
753.1335002009449
 30
0.0
 40
4.906903872802337
  0
CIRCLE
  5
284
330
1F
100
AcDbEntity
  8
0
  6
Continuous
370
    35
100
AcDbCircle
 10
-1484.400081324105
 20
753.1335002009449
 30
0.0
 40
4.906903872802337
  0
CIRCLE
  5
285
330
1F
100
AcDbEntity
  8
0
  6
Continuous
370
    35
100
AcDbCircle
 10
-1384.400081324103
 20
753.1335002009449
 30
0.0
 40
4.906903872802337
  0
CIRCLE
  5
286
330
1F
100
AcDbEntity
  8
0
  6
Continuous
370
    35
100
AcDbCircle
 10
-1334.400081324103
 20
753.1335002009449
 30
0.0
 40
4.906903872802337
  0
CIRCLE
  5
287
330
1F
100
AcDbEntity
  8
0
  6
Continuous
370
    50
100
AcDbCircle
 10
-938.78424700394
 20
788.633500200945
 30
0.0
 40
8.000000000000007
  0
CIRCLE
  5
288
330
1F
100
AcDbEntity
  8
0
  6
Continuous
370
    50
100
AcDbCircle
 10
-1080.78424700394
 20
788.633500200945
 30
0.0
 40
8.000000000000007
  0
SPLINE
  5
289
330
1F
100
AcDbEntity
  8
0
  6
Continuous
370
    13
100
AcDbSpline
210
0.0
220
0.0
230
1.0
 70
     8
 71
     3
 72
    38
 73
    34
 74
     0
 42
0.00001
 43
0.00001
 40
0.0
 40
0.0
 40
0.0
 40
0.0
 40
1.0
 40
1.0
 40
1.0
 40
2.0
 40
2.0
 40
2.0
 40
3.0
 40
3.0
 40
3.0
 40
4.0
 40
4.0
 40
4.0
 40
5.0
 40
5.0
 40
5.0
 40
6.0
 40
6.0
 40
6.0
 40
7.0
 40
7.0
 40
7.0
 40
8.0
 40
8.0
 40
8.0
 40
9.0
 40
9.0
 40
9.0
 40
10.0
 40
10.0
 40
10.0
 40
11.0
 40
11.0
 40
11.0
 40
11.0
 10
-748.2842470039382
 20
820.2262954859474
 30
0.0
 10
-746.1979031533401
 20
820.3972028090876
 30
0.0
 10
-744.1109023524559
 20
820.5599502574023
 30
0.0
 10
-744.1109023524524
 20
820.5599502574023
 30
0.0
 10
-744.1109023524524
 20
820.5599502574023
 30
0.0
 10
-741.61943425631
 20
820.2986576644678
 30
0.0
 10
-739.1440096170205
 20
819.9216322046296
 30
0.0
 10
-731.0017534106353
 20
818.6815064332336
 30
0.0
 10
-722.8911391201462
 20
816.3016793431427
 30
0.0
 10
-714.9152283365021
 20
818.0825195849379
 30
0.0
 10
-713.2958308392139
 20
818.4440943704217
 30
0.0
 10
-711.7208694030319
 20
819.0070955803053
 30
0.0
 10
-710.0798570888171
 20
819.2480926197389
 30
0.0
 10
-704.4181953546617
 20
820.0795572616479
 30
0.0
 10
-698.891980678849
 20
817.3339685972312
 30
0.0
 10
-693.1560577219225
 20
817.636302203844
 30
0.0
 10
-687.2934961074461
 20
817.9453107819237
 30
0.0
 10
-681.7356917808963
 20
821.553089737106
 30
0.0
 10
-676.232258355026
 20
819.7853560917039
 30
0.0
 10
-672.6891633973926
 20
818.6472941436805
 30
0.0
 10
-669.9692948471468
 20
815.5387009506551
 30
0.0
 10
-666.2928841236751
 20
815.2186165800019
 30
0.0
 10
-661.6199284708993
 20
814.8117686563847
 30
0.0
 10
-658.0708088960768
 20
819.1448336266246
 30
0.0
 10
-653.3985607965169
 20
820.0539878276865
 30
0.0
 10
-649.1156069474303
 20
820.8873908066973
 30
0.0
 10
-644.8925322602283
 20
818.6146767171547
 30
0.0
 10
-640.5042374693588
 20
818.710829147774
 30
0.0
 10
-636.4687846144727
 20
818.7992504182536
 30
0.0
 10
-632.6050970268211
 20
820.871948423316
 30
0.0
 10
-628.68444108613
 20
820.0539878276865
 30
0.0
 10
-626.6985725707785
 20
819.6396790440974
 30
0.0
 10
-624.9638642911438
 20
818.5355642515564
 30
0.0
 10
-623.2842470039399
 20
817.3676704678617
 30
0.0
  0
MTEXT
  5
28B
330
1F
100
AcDbEntity
  8
0
  6
Continuous
370
    13
100
AcDbMText
 10
-1475.294644316159
 20
1154.627365998251
 30
0.0
 40
10.00000000000001
 41
0.0
 71
     1
 72
     1
  3
\A1;{\fArial|b1|i0|c238|p38;PODŁOGA PRZY BASENIE\P\fArial|b0|i0|c238|p38;• PŁYTKI CERAMICZNE BASENOWE ANTYPOŚLIZGOWE\P•  WYPEŁNIENIE SPOIN - ZAPRAWA CHEMOODPORNA\P  - \fArial|b1|i0|c238|p38;BOTAMENT CF200\fArial|b0|i0|c238|p38; lub\P  - \fArial|b1|i
  3
0|c238|p38;MULTIFUGE Diamond MAX\P\fArial|b0|i0|c238|p38;• ZAPRAWA KLEJOWA  \P  - \fArial|b1|i0|c238|p38;BOTAMENT M29/M29HP\fArial|b0|i0|c238|p38; lub\P  - \fArial|b1|i0|c238|p38;MULTISTONE\fArial|b0|i0|c238|p38; (do mozaiki szklanej)\P• IZOLACJA PR
  3
ZECIW WODNA - \fArial|b1|i0|c238|p38;BOTAMENT MD28\P\fArial|b0|i0|c238|p38;• JASTRYCH CEMENTOWY Z OGRZEWANIEM PODŁOGOWYM\P• WARSTWA ROZDZIELAJĄCA - FOLIA\P• IZOLACJA TERMICZNA - XPS (polistyren ekstrudowany)\P• IZOLACJA REAKTYWNA \fArial|b1|i0|c238|
  1
p38;BOTAMENT RD1/RD Flow/RD2\P\fArial|b0|i0|c238|p38;• STROPOWA PŁYTA ŻELBETOWA}
  7
GENERATED_STYLE_2
 73
     1
 44
0.914758183993907
  0
MTEXT
  5
28C
330
1F
100
AcDbEntity
  8
0
  6
Continuous
370
    13
100
AcDbMText
 10
-959.5375857872979
 20
1048.370966121379
 30
0.0
 40
9.999999999999998
 41
0.0
 71
     1
 72
     1
  1
\A1;{\fArial|b0|i0|c238|p38;- SILIKON BASENOWY- \fArial|b1|i0|c238|p38;BOTAMENT S3}
  7
GENERATED_STYLE_1
 73
     1
 44
1.0
  0
MTEXT
  5
28D
330
1F
100
AcDbEntity
  8
0
  6
Continuous
370
    13
100
AcDbMText
 10
-959.5375857872979
 20
941.6308396138575
 30
0.0
 40
10.0
 41
0.0
 71
     1
 72
     1
  1
{- KRATKA PRZELEWU}
  7
GENERATED_STYLE_1
 73
     1
 44
1.0
  0
MTEXT
  5
28E
330
1F
100
AcDbEntity
  8
0
  6
Continuous
370
    13
100
AcDbMText
 10
-959.5375857872979
 20
1012.509486726951
 30
0.0
 40
10.0
 41
0.0
 71
     1
 72
     1
  1
{- KSZTAŁTOWA PŁYTKA BASENOWA}
  7
GENERATED_STYLE_1
 73
     1
 44
1.0
  0
MTEXT
  5
28F
330
1F
100
AcDbEntity
  8
0
  6
Continuous
370
    13
100
AcDbMText
 10
-959.5375857872979
 20
976.6308396138576
 30
0.0
 40
10.0
 41
0.0
 71
     1
 72
     1
  1
{- PROFIL KRAWĘDZIOWY PRZELEWU\P  ZATOPIONY W ZAPRAWIE KLEJOWEJ}
  7
GENERATED_STYLE_1
 73
     1
 44
0.9237125406573469
  0
MTEXT
  5
290
330
1F
100
AcDbEntity
  8
0
  6
Continuous
370
    13
100
AcDbMText
 10
-991.837782942512
 20
1153.484508855394
 30
0.0
 40
15.0
 41
0.0
 71
     1
 72
     1
  1
{\LLEGENDA:}
  7
GENERATED_STYLE_1
 73
     1
 44
1.0
  0
MTEXT
  5
291
330
1F
100
AcDbEntity
  8
0
  6
Continuous
370
    13
100
AcDbMText
 10
-959.5375857872979
 20
1104.424146804453
 30
0.0
 40
9.999999999999998
 41
0.0
 71
     4
 72
     1
  1
\A1;{\fArial|b0|i0|c238|p38;- TAŚMA DYLATACYJNO - USZCZELNIAJĄCA - \P   \fArial|b1|i0|c238|p38;BOTAMENT SB78 \fArial|b0|i0|c238|p38;(zatopiona w warstwie izolacyjnej)}
  7
GENERATED_STYLE_1
 73
     1
 44
0.9186980100444313
  0
MTEXT
  5
292
330
1F
100
AcDbEntity
  8
0
  6
Continuous
370
    13
100
AcDbMText
 10
-959.5375857872979
 20
1081.630839613858
 30
0.0
 40
10.0
 41
0.0
 71
     1
 72
     1
  1
{- SZNUR POLIETYLENOWY}
  7
GENERATED_STYLE_1
 73
     1
 44
1.0
  0
MTEXT
  5
293
330
1F
100
AcDbEntity
  8
0
  6
Continuous
370
    13
100
AcDbMText
 10
-959.5375857872979
 20
906.6308396138575
 30
0.0
 40
9.999999999999996
 41
0.0
 71
     1
 72
     1
  1
\A1;{\fArial|b0|i0|c238|p38;- BLOKADA KAPILARNA - \fArial|b1|i0|c238|p38;BOTAMENT EKF 500}
  7
GENERATED_STYLE_1
 73
     1
 44
1.0
  0
MTEXT
  5
294
330
1F
100
AcDbEntity
  8
@__WIDOCZNE
  6
Continuous
370
    13
100
AcDbMText
 10
-988.0247322062158
 20
-176.7824385036265
 30
0.0
 40
14.0
 41
0.0
 71
     5
 72
     1
  1
{IZOLACJA BASENU\P- SZCZEGÓŁ GŁOWICY}
  7
GENERATED_STYLE_2
 73
     1
 44
0.7938417127736349
  0
MTEXT
  5
295
330
1F
100
AcDbEntity
  8
@__WIDOCZNE
  6
Continuous
370
    13
100
AcDbMText
 10
-764.0969056520336
 20
-208.6576483033378
 30
0.0
 40
25.0
 41
0.0
 71
     7
 72
     1
  1
{08.01.01.}
  7
GENERATED_STYLE_2
 73
     1
 44
1.0
  0
MTEXT
  5
296
330
1F
100
AcDbEntity
  8
@__WIDOCZNE
  6
Continuous
370
    13
100
AcDbMText
 10
-1235.410143155642
 20
-232.1439874291472
 30
0.0
 40
7.5
 41
0.0
 71
     4
 72
     1
  1
{Rysunek nie wyczerpuje wszystkich aspektów technicznych zagadnienia, a jego integralną częścią są karty techniczne \Pposzczególnych produktów. Szczegółowych informacji udzielają technicy zastosowań i doradcy handlowo-techniczni Botament. }
  7
GENERATED_STYLE_1
 73
     1
 44
0.9278263558916978
  0
MTEXT
  5
297
330
1F
100
AcDbEntity
  8
@__WIDOCZNE
  6
Continuous
370
    13
100
AcDbMText
 10
-1378.553209559218
 20
-231.216455519892
 30
0.0
 40
7.5
 41
0.0
 71
     5
 72
     1
  1
{ ul. Prądzyńskiego 20, 63-000 Środa Wlkp., botament.pl\P +48 606-318-643, 61-286-45-17, technik@botament.pl  }
  7
GENERATED_STYLE_1
 73
     1
 44
0.9181612291118325
  0
MTEXT
  5
298
330
1F
100
AcDbEntity
  8
@__WIDOCZNE
  6
Continuous
370
    13
100
AcDbMText
 10
-768.2842470038969
 20
-163.3933886349965
 30
0.0
 40
7.5
 41
0.0
 71
     1
 72
     1
  1
{ nr rys:}
  7
GENERATED_STYLE_1
 73
     1
 44
1.0
  0
MTEXT
  5
299
330
1F
100
AcDbEntity
  8
@__WIDOCZNE
  6
Continuous
370
    13
100
AcDbMText
 10
-755.4263789483414
 20
-138.3933886349992
 30
0.0
 40
7.5
 41
0.0
 71
     2
 72
     1
  1
{ data:}
  7
GENERATED_STYLE_1
 73
     1
 44
1.0
  0
MTEXT
  5
29A
330
1F
100
AcDbEntity
  8
@__WIDOCZNE
  6
Continuous
370
    13
100
AcDbMText
 10
-668.4384761705361
 20
-138.3933886349992
 30
0.0
 40
7.5
 41
0.0
 71
     2
 72
     1
  1
{ skala:}
  7
GENERATED_STYLE_1
 73
     1
 44
1.0
  0
MTEXT
  5
29B
330
1F
100
AcDbEntity
  8
@__WIDOCZNE
  6
Continuous
370
    13
100
AcDbMText
 10
-636.1414215395436
 20
-158.4605257270986
 30
0.0
 40
10.0
 41
0.0
 71
     7
 72
     1
  1
{1:5 }
  7
GENERATED_STYLE_1
 73
     1
 44
1.0
  0
MTEXT
  5
29C
330
1F
100
AcDbEntity
  8
@__WIDOCZNE
  6
Continuous
370
    13
100
AcDbMText
 10
-736.4958171758785
 20
-158.1767347635059
 30
0.0
 40
10.0
 41
0.0
 71
     7
 72
     1
  1
{2022.10.}
  7
GENERATED_STYLE_1
 73
     1
 44
1.0
  0
MTEXT
  5
29D
330
1F
100
AcDbEntity
  8
0
  6
Continuous
370
    13
100
AcDbMText
 10
-1477.524716310963
 20
158.4134536903547
 30
0.0
 40
9.999999999999995
 41
0.0
 71
     1
 72
     1
  3
\A1;{\fArial|b1|i0|c238|p38;ŚCIANA NIECKI BASENU\P\fArial|b0|i0|c238|p38;• PŁYTKI CERAMICZNE BASENOWE\P• WYPEŁNIENIE SPOIN\P  - ZAPRAWA CHEMOODPORNA\P  - \fArial|b1|i0|c238|p38;BOTAMENT CF200\fArial|b0|i0|c238|p38; lub\P  - \fArial|b1|i0|c238|p38;MU
  3
LTIFUGE Diamond MAX\P\fArial|b0|i0|c238|p38;• ZAPRAWA KLEJOWA\P  - \fArial|b1|i0|c238|p38;MULTILIGHT \fArial|b0|i0|c238|p38;lub\P  - \fArial|b1|i0|c238|p38;BOTAMENT M21HP\fArial|b0|i0|c238|p38; \P  - \fArial|b1|i0|c238|p38;MULTISTONE\fArial|b0|i0|c2
  1
38|p38; (do mozaiki szklanej)\P• IZOLACJA PRZECIW WODNA - \fArial|b1|i0|c238|p38;BOTAMENT MD28\P\fArial|b0|i0|c238|p38;• PROFILACJA, KOREKTA WYMIARÓW ORAZ\P  UZUPEŁNIENIE UBYTKÓW - SYSTEM BOTAMENT \P• ŻELBETOWA NIECKA BASENU}
  7
GENERATED_STYLE_2
 73
     1
 44
0.9049918846065732
  0
MTEXT
  5
29E
330
1F
100
AcDbEntity
  8
@__WIDOCZNE
  6
Continuous
370
    50
100
AcDbMText
 10
-1516.502830363131
 20
1187.314912038287
 30
0.0
 40
10.0
 41
0.0
 71
     9
 72
     1
  1
{druk: 221108}
  7
GENERATED_STYLE_1
 11
6.123233995736766E-17
 21
1.0
 31
0.0
 73
     1
 44
1.0
  0
WIPEOUT
  5
29F
330
1F
100
AcDbEntity
  8
@__WIDOCZNE
  6
Wipeout_Contour
 62
   254
 48
6590.540068352887
370
     0
 92
      140
310
8C00000001000000840000000600000005000000A587A511237197C0310C628D91EA7E400000000000000000A587A511237197C057F292AB7EA489400000000000000000A687A511238997C057F292AB7EA489400000000000000000A687A511238997C0310C628D91EA7E400000000000000000A587A511237197C0310C62
310
8D91EA7E400000000000000000
100
AcDbWipeout
 90
        0
 10
-1506.284247003941
 20
494.6605352239595
 30
0.0
 11
6.000000000000227
 21
0.0
 31
0.0
 12
0.0
 22
325.9013154649945
 32
0.0
 13
1.0
 23
1.0
340
0
 70
    15
280
     1
281
    50
282
    50
283
     0
360
0
 71
     2
 91
        5
 14
0.500000000000019
 24
0.5000000000000001
 14
0.500000000000019
 24
-0.4999999999999999
 14
-0.4999999999999811
 24
-0.4999999999999999
 14
-0.4999999999999811
 24
0.5000000000000001
 14
0.500000000000019
 24
0.5000000000000001
  0
WIPEOUT
  5
2A1
330
1F
100
AcDbEntity
  8
@__WIDOCZNE
  6
Wipeout_Contour
 62
   254
 48
4054.26400631363
370
     0
 92
      140
310
8C00000001000000840000000600000005000000420F4B23466283C0F3029CBF8E9287400000000000000000420F4B23466283C07C9C6CDDF9598A400000000000000000440F4B23469283C07C9C6CDDF9598A400000000000000000440F4B23469283C0F3029CBF8E9287400000000000000000420F4B23466283C0F3029C
310
BF8E9287400000000000000000
100
AcDbWipeout
 90
        0
 10
-626.28424700394
 20
754.3197014034653
 30
0.0
 11
6.000000000000227
 21
0.0
 31
0.0
 12
0.0
 22
88.92730296104958
 32
0.0
 13
1.0
 23
1.0
340
0
 70
    15
280
     1
281
    50
282
    50
283
     0
360
0
 71
     2
 91
        5
 14
0.5
 24
0.5000000000000007
 14
0.5
 24
-0.4999999999999993
 14
-0.5
 24
-0.4999999999999993
 14
-0.5
 24
0.5000000000000007
 14
0.5
 24
0.5000000000000007
  0
WIPEOUT
  5
2A2
330
1F
100
AcDbEntity
  8
@__WIDOCZNE
  6
Wipeout_Contour
 62
   254
 48
3607.99218955631
370
     0
 92
      140
310
8C000000010000008400000006000000050000002735589E14FC90C06CA7861E2B9756C00000000000000000FE98A3F8E72086C06CA7861E2B9756C00000000000000000FE98A3F8E72086C05CA7861E2B1755C000000000000000002735589E14FC90C05CA7861E2B1755C000000000000000002735589E14FC90C06CA786
310
1E2B9756C00000000000000000
100
AcDbWipeout
 90
        0
 10
-1087.020135286564
 20
-90.36200678968243
 30
0.0
 11
378.9068680764558
 21
0.0
 31
0.0
 12
0.0
 22
6.000000000000227
 32
0.0
 13
1.0
 23
1.0
340
0
 70
    15
280
     1
281
    50
282
    50
283
     0
360
0
 71
     2
 91
        5
 14
-0.5
 24
0.5
 14
0.5
 24
0.5
 14
0.5
 24
-0.5
 14
-0.5
 24
-0.5
 14
-0.5
 24
0.5
  0
LINE
  5
2A3
330
1F
100
AcDbEntity
  8
0
  6
Continuous
 62
    22
370
    50
100
AcDbLine
 10
-1135.784247003941
 20
472.133500200945
 30
0.0
 11
-1108.239358835335
 21
472.133500200945
 31
0.0
  0
LINE
  5
2A4
330
1F
100
AcDbEntity
  8
0
  6
Continuous
 62
    22
370
    50
100
AcDbLine
 10
-883.7842470039385
 20
472.133500200945
 30
0.0
 11
-911.3291351725445
 21
472.133500200945
 31
0.0
  0
LINE
  5
2A5
330
1F
100
AcDbEntity
  8
0
  6
Continuous
 62
    22
370
    50
100
AcDbLine
 10
-1135.784247003941
 20
503.6128518389243
 30
0.0
 11
-1135.784247003941
 21
472.133500200945
 31
0.0
  0
LINE
  5
2A6
330
1F
100
AcDbEntity
  8
0
  6
Continuous
 62
    22
370
    50
100
AcDbLine
 10
-1252.120387616006
 20
772.1335002009448
 30
0.0
 11
-1288.284247003941
 21
772.1335002009448
 31
0.0
  0
LINE
  5
2A7
330
1F
100
AcDbEntity
  8
0
  6
Continuous
 62
    22
370
    50
100
AcDbLine
 10
-1338.320621176428
 20
772.1335002009448
 30
0.0
 11
-1304.284247003939
 21
772.1335002009448
 31
0.0
  0
LINE
  5
2A8
330
1F
100
AcDbEntity
  8
0
  6
Continuous
 62
    22
370
    50
100
AcDbLine
 10
-883.7842470039385
 20
501.5150485762207
 30
0.0
 11
-883.7842470039385
 21
472.133500200945
 31
0.0
  0
LINE
  5
2A9
330
1F
100
AcDbEntity
  8
0
  6
Continuous
 62
    22
370
    50
100
AcDbLine
 10
-797.6812656845498
 20
772.1335002009448
 30
0.0
 11
-762.4736512785182
 21
772.1335002009448
 31
0.0
  0
LINE
  5
2AA
330
1F
100
AcDbEntity
  8
0
  6
Continuous
 62
    22
370
    50
100
AcDbLine
 10
-758.2842470039398
 20
767.220027155332
 30
0.0
 11
-758.2842470039398
 21
732.1259856989968
 31
0.0
  0
LINE
  5
2AB
330
1F
100
AcDbEntity
  8
0
  6
Continuous
370
    13
100
AcDbLine
 10
-1379.009054590703
 20
835.2074848947826
 30
0.0
 11
-1332.409103288642
 21
774.1211694186387
 31
0.0
  0
CIRCLE
  5
2AC
330
1F
100
AcDbEntity
  8
0
  6
Continuous
370
    13
100
AcDbCircle
 10
-1330.89280151095
 20
772.1335002009448
 30
0.0
 40
2.5
  0
HATCH
  5
2AD
330
1F
100
AcDbEntity
  8
0
  6
Continuous
370
    13
100
AcDbHatch
 10
0.0
 20
0.0
 30
0.0
210
0.0
220
0.0
230
1.0
  2
SOLID
 70
     1
 71
     0
 91
        1
 92
        2
 72
     0
 73
     1
 93
       16
 10
-1328.39280151095
 20
772.1335002009448
 10
-1328.583102679671
 20
773.0902087818575
 10
-1329.125034557983
 20
773.9012671539111
 10
-1329.936092930037
 20
774.443199032223
 10
-1330.89280151095
 20
774.6335002009448
 10
-1331.849510091862
 20
774.443199032223
 10
-1332.660568463916
 20
773.9012671539111
 10
-1333.202500342228
 20
773.0902087818575
 10
-1333.39280151095
 20
772.1335002009448
 10
-1333.202500342228
 20
771.1767916200322
 10
-1332.660568463916
 20
770.3657332479785
 10
-1331.849510091862
 20
769.8238013696666
 10
-1330.89280151095
 20
769.6335002009449
 10
-1329.936092930037
 20
769.8238013696666
 10
-1329.125034557983
 20
770.3657332479785
 10
-1328.583102679671
 20
771.1767916200322
 97
        0
 75
     0
 76
     1
 98
        0
  0
LINE
  5
2AE
330
1F
100
AcDbEntity
  8
0
  6
Continuous
370
    13
100
AcDbLine
 10
-696.4570995002175
 20
700.49823585508
 30
0.0
 11
-756.0887715878913
 21
732.9769908869241
 31
0.0
  0
CIRCLE
  5
2AF
330
1F
100
AcDbEntity
  8
0
  6
Continuous
370
    13
100
AcDbCircle
 10
-758.2842470039379
 20
734.1727700042928
 30
0.0
 40
2.5
  0
HATCH
  5
2B0
330
1F
100
AcDbEntity
  8
0
  6
Continuous
370
    13
100
AcDbHatch
 10
0.0
 20
0.0
 30
0.0
210
0.0
220
0.0
230
1.0
  2
SOLID
 70
     1
 71
     0
 91
        1
 92
        2
 72
     0
 73
     1
 93
       16
 10
-755.7842470039379
 20
734.1727700042928
 10
-755.9745481726598
 20
735.1294785852054
 10
-756.5164800509716
 20
735.9405369572592
 10
-757.3275384230252
 20
736.482468835571
 10
-758.2842470039379
 20
736.6727700042927
 10
-759.2409555848506
 20
736.482468835571
 10
-760.0520139569043
 20
735.9405369572592
 10
-760.5939458352161
 20
735.1294785852054
 10
-760.7842470039378
 20
734.1727700042928
 10
-760.5939458352161
 20
733.2160614233801
 10
-760.0520139569043
 20
732.4050030513265
 10
-759.2409555848506
 20
731.8630711730146
 10
-758.2842470039379
 20
731.6727700042928
 10
-757.3275384230252
 20
731.8630711730146
 10
-756.5164800509716
 20
732.4050030513265
 10
-755.9745481726598
 20
733.2160614233801
 97
        0
 75
     0
 76
     1
 98
        0
  0
LINE
  5
2B1
330
1F
100
AcDbEntity
  8
0
  6
Continuous
370
    13
100
AcDbLine
 10
-931.9005000836916
 20
536.8587149018636
 30
0.0
 11
-905.8375992665723
 21
502.693731097093
 31
0.0
  0
CIRCLE
  5
2B2
330
1F
100
AcDbEntity
  8
0
  6
Continuous
370
    13
100
AcDbCircle
 10
-904.3212974888801
 20
500.706061879399
 30
0.0
 40
2.5
  0
HATCH
  5
2B3
330
1F
100
AcDbEntity
  8
0
  6
Continuous
370
    13
100
AcDbHatch
 10
0.0
 20
0.0
 30
0.0
210
0.0
220
0.0
230
1.0
  2
SOLID
 70
     1
 71
     0
 91
        1
 92
        2
 72
     0
 73
     1
 93
       16
 10
-901.8212974888802
 20
500.706061879399
 10
-902.0115986576019
 20
501.6627704603117
 10
-902.5535305359138
 20
502.4738288323654
 10
-903.3645889079675
 20
503.0157607106772
 10
-904.3212974888801
 20
503.206061879399
 10
-905.2780060697928
 20
503.0157607106772
 10
-906.0890644418464
 20
502.4738288323654
 10
-906.6309963201583
 20
501.6627704603117
 10
-906.8212974888801
 20
500.706061879399
 10
-906.6309963201583
 20
499.7493532984863
 10
-906.0890644418464
 20
498.9382949264327
 10
-905.2780060697928
 20
498.3963630481208
 10
-904.3212974888801
 20
498.206061879399
 10
-903.3645889079675
 20
498.3963630481208
 10
-902.5535305359138
 20
498.9382949264327
 10
-902.0115986576019
 20
499.7493532984863
 97
        0
 75
     0
 76
     1
 98
        0
  0
LINE
  5
2B4
330
1F
100
AcDbEntity
  8
0
  6
Continuous
370
    13
100
AcDbLine
 10
-931.9005000836916
 20
504.3644415530004
 30
0.0
 11
-908.8292934199575
 21
474.1211694186389
 31
0.0
  0
CIRCLE
  5
2B5
330
1F
100
AcDbEntity
  8
0
  6
Continuous
370
    13
100
AcDbCircle
 10
-907.3129916422653
 20
472.133500200945
 30
0.0
 40
2.5
  0
HATCH
  5
2B6
330
1F
100
AcDbEntity
  8
0
  6
Continuous
370
    13
100
AcDbHatch
 10
0.0
 20
0.0
 30
0.0
210
0.0
220
0.0
230
1.0
  2
SOLID
 70
     1
 71
     0
 91
        1
 92
        2
 72
     0
 73
     1
 93
       16
 10
-904.8129916422654
 20
472.133500200945
 10
-905.0032928109871
 20
473.0902087818578
 10
-905.545224689299
 20
473.9012671539114
 10
-906.3562830613527
 20
474.4431990322233
 10
-907.3129916422653
 20
474.633500200945
 10
-908.269700223178
 20
474.4431990322233
 10
-909.0807585952316
 20
473.9012671539114
 10
-909.6226904735435
 20
473.0902087818578
 10
-909.8129916422653
 20
472.133500200945
 10
-909.6226904735435
 20
471.1767916200323
 10
-909.0807585952316
 20
470.3657332479787
 10
-908.269700223178
 20
469.8238013696668
 10
-907.3129916422653
 20
469.633500200945
 10
-906.3562830613527
 20
469.8238013696668
 10
-905.545224689299
 20
470.3657332479787
 10
-905.0032928109871
 20
471.1767916200323
 97
        0
 75
     0
 76
     1
 98
        0
  0
LINE
  5
2B7
330
1F
100
AcDbEntity
  8
0
  6
Continuous
370
    13
100
AcDbLine
 10
-1087.667993924188
 20
536.8587149018636
 30
0.0
 11
-1113.730894741307
 21
502.693731097093
 31
0.0
  0
CIRCLE
  5
2B8
330
1F
100
AcDbEntity
  8
0
  6
Continuous
370
    13
100
AcDbCircle
 10
-1115.247196518999
 20
500.706061879399
 30
0.0
 40
2.5
  0
HATCH
  5
2B9
330
1F
100
AcDbEntity
  8
0
  6
Continuous
370
    13
100
AcDbHatch
 10
0.0
 20
0.0
 30
0.0
210
0.0
220
0.0
230
1.0
  2
SOLID
 70
     1
 71
     0
 91
        1
 92
        2
 72
     0
 73
     1
 93
       16
 10
-1112.747196519
 20
500.706061879399
 10
-1112.937497687721
 20
501.6627704603117
 10
-1113.479429566033
 20
502.4738288323654
 10
-1114.290487938087
 20
503.0157607106772
 10
-1115.247196518999
 20
503.206061879399
 10
-1116.203905099912
 20
503.0157607106772
 10
-1117.014963471966
 20
502.4738288323654
 10
-1117.556895350278
 20
501.6627704603117
 10
-1117.747196518999
 20
500.706061879399
 10
-1117.556895350278
 20
499.7493532984863
 10
-1117.014963471966
 20
498.9382949264327
 10
-1116.203905099912
 20
498.3963630481208
 10
-1115.247196518999
 20
498.206061879399
 10
-1114.290487938087
 20
498.3963630481208
 10
-1113.479429566033
 20
498.9382949264327
 10
-1112.937497687721
 20
499.7493532984863
 97
        0
 75
     0
 76
     1
 98
        0
  0
LINE
  5
2BA
330
1F
100
AcDbEntity
  8
0
  6
Continuous
370
    13
100
AcDbLine
 10
-1087.667993924188
 20
504.3644415530004
 30
0.0
 11
-1110.739200587922
 21
474.1211694186389
 31
0.0
  0
CIRCLE
  5
2BB
330
1F
100
AcDbEntity
  8
0
  6
Continuous
370
    13
100
AcDbCircle
 10
-1112.255502365614
 20
472.133500200945
 30
0.0
 40
2.5
  0
HATCH
  5
2BC
330
1F
100
AcDbEntity
  8
0
  6
Continuous
370
    13
100
AcDbHatch
 10
0.0
 20
0.0
 30
0.0
210
0.0
220
0.0
230
1.0
  2
SOLID
 70
     1
 71
     0
 91
        1
 92
        2
 72
     0
 73
     1
 93
       16
 10
-1109.755502365614
 20
472.133500200945
 10
-1109.945803534336
 20
473.0902087818578
 10
-1110.487735412648
 20
473.9012671539114
 10
-1111.298793784702
 20
474.4431990322233
 10
-1112.255502365614
 20
474.633500200945
 10
-1113.212210946527
 20
474.4431990322233
 10
-1114.023269318581
 20
473.9012671539114
 10
-1114.565201196893
 20
473.0902087818578
 10
-1114.755502365614
 20
472.133500200945
 10
-1114.565201196893
 20
471.1767916200323
 10
-1114.023269318581
 20
470.3657332479787
 10
-1113.212210946527
 20
469.8238013696668
 10
-1112.255502365614
 20
469.633500200945
 10
-1111.298793784702
 20
469.8238013696668
 10
-1110.487735412648
 20
470.3657332479787
 10
-1109.945803534336
 20
471.1767916200323
 97
        0
 75
     0
 76
     1
 98
        0
  0
LINE
  5
2BD
330
1F
100
AcDbEntity
  8
@__WIDOCZNE
  6
Przerywana gęsta
370
    13
100
AcDbLine
 10
-1503.284247003941
 20
820.561850688954
 30
0.0
 11
-1503.284247003941
 21
494.6605352239595
 31
0.0
  0
LINE
  5
2BE
330
1F
100
AcDbEntity
  8
@__WIDOCZNE
  6
Przerywana gęsta
370
    13
100
AcDbLine
 10
-623.2842470039399
 20
843.2470043645149
 30
0.0
 11
-623.2842470039399
 21
741.6660953319807
 31
0.0
  0
LINE
  5
2BF
330
1F
100
AcDbEntity
  8
@__WIDOCZNE
  6
Przerywana gęsta
370
    13
100
AcDbLine
 10
-708.1132672101082
 20
-87.36200678968231
 30
0.0
 11
-1087.020135286564
 21
-87.36200678968231
 31
0.0
  0
ARC
  5
2C0
330
1F
100
AcDbEntity
  8
0
  6
Continuous
 62
    22
370
    50
100
AcDbCircle
 10
-1296.28424700394
 20
773.5512472985082
 30
0.0
 40
8.124654259267567
100
AcDbArc
 50
190.0495262030456
 51
349.9504737969544
  0
VIEWPORT
  5
5D
330
1B
100
AcDbEntity
 67
     1
  8
0
  6
Continuous
370
     0
100
AcDbViewport
 10
104.9886084261576
 20
148.4819277337857
 30
0.0
 40
252.0623489039709
 41
356.483366324758
 68
     1
 69
     1
 12
104.9886084261576
 22
148.4819277337857
 13
0.0
 23
0.0
 14
0.5
 24
0.5
 15
0.0
 25
0.0
 16
0.0
 26
0.0
 36
1.0
 17
0.0
 27
0.0
 37
0.0
 42
50.0
 43
0.0
 44
0.0
 45
356.483366324758
 50
0.0
 51
0.0
 72
   100
 90
   557152
  1

281
     0
 71
     1
 74
     0
110
0.0
120
0.0
130
0.0
111
1.0
121
0.0
131
0.0
112
0.0
122
1.0
132
0.0
 79
     0
146
0.0
170
     0
  0
INSERT
  5
2C7
102
{ACAD_XDICTIONARY
360
2C8
102
}
330
1B
100
AcDbEntity
 67
     1
  8
0
370
    13
100
AcDbBlockReference
  2
Rysunek_1
 10
0.0
 20
0.0
 30
0.0
  0
VIEWPORT
  5
2CB
330
1B
100
AcDbEntity
 67
     1
  8
NonPlottable_0
  6
Continuous
 62
    65
370
    20
100
AcDbViewport
 10
104.9886084261576
 20
148.4819277337857
 30
0.0
 40
210.0519574199757
 41
297.0694719372983
 68
     2
 69
     2
 12
0.0
 22
0.0
 13
0.0
 23
0.0
 14
0.5
 24
0.5
 15
0.0
 25
0.0
 16
0.0
 26
0.0
 36
1.0
 17
-1113.410289257146
 27
470.6510685327967
 37
0.0
 42
50.0
 43
0.0
 44
0.0
 45
1485.347359686492
 50
0.0
 51
0.0
 72
   100
 90
   622688
340
2CD
  1

281
     0
 71
     1
 74
     0
110
0.0
120
0.0
130
0.0
111
1.0
121
0.0
131
0.0
112
0.0
122
1.0
132
0.0
 79
     0
146
0.0
170
     0
  0
LWPOLYLINE
  5
2CD
102
{ACAD_REACTORS
330
2CB
102
}
330
1B
100
AcDbEntity
 67
     1
  8
NonPlottable_0
  6
Continuous
 62
    65
370
    20
100
AcDbPolyline
 90
        4
 70
   129
 43
0.0
 10
-0.0373702838302938
 20
-0.0528082348634758
 10
210.0145871361454
 20
-0.0528082348634758
 10
210.0145871361454
 20
297.0166637024349
 10
-0.0373702838302938
 20
297.0166637024349
  0
ENDSEC
  0
SECTION
  2
OBJECTS
  0
DICTIONARY
  5
C
330
0
100
AcDbDictionary
281
     1
  3
ACAD_GROUP
350
D
  3
ACAD_LAYOUT
350
1A
  3
ACAD_MLEADERSTYLE
350
2D4
  3
ACAD_MLINESTYLE
350
17
  3
ACAD_PLOTSETTINGS
350
19
  3
ACAD_PLOTSTYLENAME
350
E
  3
ACAD_SCALELIST
350
3B
  3
ACAD_TABLESTYLE
350
2D3
  3
ACAD_VISUALSTYLE
350
2A
  3
WATERMARKS
350
2D1
  0
DICTIONARY
  5
2C8
330
2C7
100
AcDbDictionary
280
     1
281
     1
  3
ACAD_FILTER
360
2C9
  0
DICTIONARY
  5
D
102
{ACAD_REACTORS
330
C
102
}
330
C
100
AcDbDictionary
281
     1
  0
DICTIONARY
  5
1A
102
{ACAD_REACTORS
330
C
102
}
330
C
100
AcDbDictionary
281
     1
  3
02.04.2-20 ŚCIANA+PIWICA 08.01.
350
1E
  3
Layout2
350
26
  3
Model
350
22
  0
DICTIONARY
  5
2D4
102
{ACAD_REACTORS
330
C
102
}
330
C
100
AcDbDictionary
281
     1
  0
DICTIONARY
  5
17
102
{ACAD_REACTORS
330
C
102
}
330
C
100
AcDbDictionary
281
     1
  3
Standard
350
18
  0
DICTIONARY
  5
19
102
{ACAD_REACTORS
330
C
102
}
330
C
100
AcDbDictionary
281
     1
  0
ACDBDICTIONARYWDFLT
  5
E
102
{ACAD_REACTORS
330
C
102
}
330
C
100
AcDbDictionary
281
     1
  3
Normal
350
F
100
AcDbDictionaryWithDefault
340
F
  0
DICTIONARY
  5
3B
102
{ACAD_REACTORS
330
C
102
}
330
C
100
AcDbDictionary
281
     1
  3
A0
350
3C
  3
A1
350
3D
  3
A2
350
3E
  3
A3
350
3F
  3
A4
350
40
  3
A5
350
41
  3
A6
350
42
  3
A7
350
43
  3
A8
350
44
  3
A9
350
45
  3
B0
350
46
  3
B1
350
47
  3
B2
350
48
  3
B3
350
49
  3
B4
350
4A
  3
B5
350
4B
  3
B6
350
4C
  3
B7
350
4D
  3
B8
350
4E
  3
B9
350
4F
  3
C0
350
50
  3
C1
350
51
  3
C2
350
52
  3
C3
350
53
  3
C4
350
54
  3
C5
350
55
  3
C6
350
56
  3
C7
350
57
  3
C8
350
58
  3
C9
350
59
  3
D0
350
5A
  3
D1
350
5B
  3
D2
350
5C
  0
DICTIONARY
  5
2D3
102
{ACAD_REACTORS
330
C
102
}
330
C
100
AcDbDictionary
281
     1
  0
DICTIONARY
  5
2A
102
{ACAD_REACTORS
330
C
102
}
330
C
100
AcDbDictionary
281
     1
  3
2dWireframe
350
2F
  3
3D Hidden
350
31
  3
3dWireframe
350
30
  3
Basic
350
32
  3
Brighten
350
36
  3
ColorChange
350
3A
  3
Conceptual
350
34
  3
Dim
350
35
  3
Facepattern
350
39
  3
Flat
350
2B
  3
FlatWithEdges
350
2C
  3
Gouraud
350
2D
  3
GouraudWithEdges
350
2E
  3
Linepattern
350
38
  3
Realistic
350
33
  3
Thicken
350
37
  0
DICTIONARY
  5
2D1
102
{ACAD_REACTORS
330
C
102
}
330
C
100
AcDbDictionary
281
     1
  3
AC_WATERMARK
350
2D2
  0
DICTIONARY
  5
2C9
102
{ACAD_REACTORS
330
2C8
102
}
330
2C8
100
AcDbDictionary
280
     1
281
     1
  3
SPATIAL
360
2CA
  0
LAYOUT
  5
1E
102
{ACAD_REACTORS
330
1A
102
}
330
1A
100
AcDbPlotSettings
  1

  2
none_device
  4

  6

 40
0.0
 41
0.0
 42
0.0
 43
0.0
 44
210.0
 45
297.0
 46
0.0
 47
0.0
 48
0.0
 49
0.0
140
0.0
141
0.0
142
1.0
143
1.0
 70
   688
 72
     1
 73
     0
 74
     5
  7

 75
    16
 76
     0
 77
     2
 78
   300
147
1.0
148
0.0
149
0.0
100
AcDbLayout
  1
02.04.2-20 ŚCIANA+PIWICA 08.01.
 70
     0
 71
     1
 10
-0.0373702838302938
 20
-0.0528082348634758
 11
210.0145871361454
 21
297.0166637024349
 12
0.0
 22
0.0
 32
0.0
 14
-0.0373702838302938
 24
-0.0528082348634758
 34
0.0
 15
210.0145871361454
 25
297.0166637024349
 35
0.0
146
0.0
 13
0.0
 23
0.0
 33
0.0
 16
1.0
 26
0.0
 36
0.0
 17
0.0
 27
1.0
 37
0.0
 76
     0
330
1B
331
5D
  0
LAYOUT
  5
26
102
{ACAD_REACTORS
330
1A
102
}
330
1A
100
AcDbPlotSettings
  1

  2
none_device
  4

  6

 40
0.0
 41
0.0
 42
0.0
 43
0.0
 44
0.0
 45
0.0
 46
0.0
 47
0.0
 48
0.0
 49
0.0
140
0.0
141
0.0
142
1.0
143
1.0
 70
   688
 72
     0
 73
     0
 74
     5
  7

 75
    16
 76
     0
 77
     2
 78
   300
147
1.0
148
0.0
149
0.0
100
AcDbLayout
  1
Layout2
 70
     1
 71
     2
 10
0.0
 20
0.0
 11
0.0
 21
0.0
 12
0.0
 22
0.0
 32
0.0
 14
0.0
 24
0.0
 34
0.0
 15
0.0
 25
0.0
 35
0.0
146
0.0
 13
0.0
 23
0.0
 33
0.0
 16
1.0
 26
0.0
 36
0.0
 17
0.0
 27
1.0
 37
0.0
 76
     0
330
23
  0
LAYOUT
  5
22
102
{ACAD_REACTORS
330
1A
102
}
330
1A
100
AcDbPlotSettings
  1

  2
none_device
  4

  6

 40
0.0
 41
0.0
 42
0.0
 43
0.0
 44
0.0
 45
0.0
 46
0.0
 47
0.0
 48
0.0
 49
0.0
140
0.0
141
0.0
142
1.0
143
1.0
 70
  1712
 72
     0
 73
     0
 74
     0
  7

 75
     0
 76
     0
 77
     2
 78
   300
147
1.0
148
0.0
149
0.0
100
AcDbLayout
  1
Model
 70
     1
 71
     0
 10
0.0
 20
0.0
 11
12.0
 21
9.0
 12
0.0
 22
0.0
 32
0.0
 14
1.000000000000000E+20
 24
1.000000000000000E+20
 34
1.000000000000000E+20
 15
-1.000000000000000E+20
 25
-1.000000000000000E+20
 35
-1.000000000000000E+20
146
0.0
 13
0.0
 23
0.0
 33
0.0
 16
1.0
 26
0.0
 36
0.0
 17
0.0
 27
1.0
 37
0.0
 76
     0
330
1F
331
29
  0
MLINESTYLE
  5
18
102
{ACAD_REACTORS
330
17
102
}
330
17
100
AcDbMlineStyle
  2
Standard
 70
     0
  3

 62
   256
 51
90.0
 52
90.0
 71
     2
 49
0.5
 62
   256
  6
BYLAYER
 49
-0.5
 62
   256
  6
BYLAYER
  0
ACDBPLACEHOLDER
  5
F
102
{ACAD_REACTORS
330
E
102
}
330
E
  0
SCALE
  5
3C
102
{ACAD_REACTORS
330
3B
102
}
330
3B
100
AcDbScale
 70
     0
300
1:1
140
1.0
141
1.0
290
     1
  0
SCALE
  5
3D
102
{ACAD_REACTORS
330
3B
102
}
330
3B
100
AcDbScale
 70
     0
300
1:2
140
1.0
141
2.0
290
     0
  0
SCALE
  5
3E
102
{ACAD_REACTORS
330
3B
102
}
330
3B
100
AcDbScale
 70
     0
300
1:4
140
1.0
141
4.0
290
     0
  0
SCALE
  5
3F
102
{ACAD_REACTORS
330
3B
102
}
330
3B
100
AcDbScale
 70
     0
300
1:5
140
1.0
141
5.0
290
     0
  0
SCALE
  5
40
102
{ACAD_REACTORS
330
3B
102
}
330
3B
100
AcDbScale
 70
     0
300
1:8
140
1.0
141
8.0
290
     0
  0
SCALE
  5
41
102
{ACAD_REACTORS
330
3B
102
}
330
3B
100
AcDbScale
 70
     0
300
1:10
140
1.0
141
10.0
290
     0
  0
SCALE
  5
42
102
{ACAD_REACTORS
330
3B
102
}
330
3B
100
AcDbScale
 70
     0
300
1:16
140
1.0
141
16.0
290
     0
  0
SCALE
  5
43
102
{ACAD_REACTORS
330
3B
102
}
330
3B
100
AcDbScale
 70
     0
300
1:20
140
1.0
141
20.0
290
     0
  0
SCALE
  5
44
102
{ACAD_REACTORS
330
3B
102
}
330
3B
100
AcDbScale
 70
     0
300
1:30
140
1.0
141
30.0
290
     0
  0
SCALE
  5
45
102
{ACAD_REACTORS
330
3B
102
}
330
3B
100
AcDbScale
 70
     0
300
1:40
140
1.0
141
40.0
290
     0
  0
SCALE
  5
46
102
{ACAD_REACTORS
330
3B
102
}
330
3B
100
AcDbScale
 70
     0
300
1:50
140
1.0
141
50.0
290
     0
  0
SCALE
  5
47
102
{ACAD_REACTORS
330
3B
102
}
330
3B
100
AcDbScale
 70
     0
300
1:100
140
1.0
141
100.0
290
     0
  0
SCALE
  5
48
102
{ACAD_REACTORS
330
3B
102
}
330
3B
100
AcDbScale
 70
     0
300
2:1
140
2.0
141
1.0
290
     0
  0
SCALE
  5
49
102
{ACAD_REACTORS
330
3B
102
}
330
3B
100
AcDbScale
 70
     0
300
4:1
140
4.0
141
1.0
290
     0
  0
SCALE
  5
4A
102
{ACAD_REACTORS
330
3B
102
}
330
3B
100
AcDbScale
 70
     0
300
8:1
140
8.0
141
1.0
290
     0
  0
SCALE
  5
4B
102
{ACAD_REACTORS
330
3B
102
}
330
3B
100
AcDbScale
 70
     0
300
10:1
140
10.0
141
1.0
290
     0
  0
SCALE
  5
4C
102
{ACAD_REACTORS
330
3B
102
}
330
3B
100
AcDbScale
 70
     0
300
100:1
140
100.0
141
1.0
290
     0
  0
SCALE
  5
4D
102
{ACAD_REACTORS
330
3B
102
}
330
3B
100
AcDbScale
 70
     0
300
1/128" = 1'-0"
140
0.0078125
141
12.0
290
     0
  0
SCALE
  5
4E
102
{ACAD_REACTORS
330
3B
102
}
330
3B
100
AcDbScale
 70
     0
300
1/64" = 1'-0"
140
0.015625
141
12.0
290
     0
  0
SCALE
  5
4F
102
{ACAD_REACTORS
330
3B
102
}
330
3B
100
AcDbScale
 70
     0
300
1/32" = 1'-0"
140
0.03125
141
12.0
290
     0
  0
SCALE
  5
50
102
{ACAD_REACTORS
330
3B
102
}
330
3B
100
AcDbScale
 70
     0
300
1/16" = 1'-0"
140
0.0625
141
12.0
290
     0
  0
SCALE
  5
51
102
{ACAD_REACTORS
330
3B
102
}
330
3B
100
AcDbScale
 70
     0
300
3/32" = 1'-0"
140
0.09375
141
12.0
290
     0
  0
SCALE
  5
52
102
{ACAD_REACTORS
330
3B
102
}
330
3B
100
AcDbScale
 70
     0
300
1/8" = 1'-0"
140
0.125
141
12.0
290
     0
  0
SCALE
  5
53
102
{ACAD_REACTORS
330
3B
102
}
330
3B
100
AcDbScale
 70
     0
300
3/16" = 1'-0"
140
0.1875
141
12.0
290
     0
  0
SCALE
  5
54
102
{ACAD_REACTORS
330
3B
102
}
330
3B
100
AcDbScale
 70
     0
300
1/4" = 1'-0"
140
0.25
141
12.0
290
     0
  0
SCALE
  5
55
102
{ACAD_REACTORS
330
3B
102
}
330
3B
100
AcDbScale
 70
     0
300
3/8" = 1'-0"
140
0.375
141
12.0
290
     0
  0
SCALE
  5
56
102
{ACAD_REACTORS
330
3B
102
}
330
3B
100
AcDbScale
 70
     0
300
1/2" = 1'-0"
140
0.5
141
12.0
290
     0
  0
SCALE
  5
57
102
{ACAD_REACTORS
330
3B
102
}
330
3B
100
AcDbScale
 70
     0
300
3/4" = 1'-0"
140
0.75
141
12.0
290
     0
  0
SCALE
  5
58
102
{ACAD_REACTORS
330
3B
102
}
330
3B
100
AcDbScale
 70
     0
300
1" = 1'-0"
140
1.0
141
12.0
290
     0
  0
SCALE
  5
59
102
{ACAD_REACTORS
330
3B
102
}
330
3B
100
AcDbScale
 70
     0
300
1-1/2" = 1'-0"
140
1.5
141
12.0
290
     0
  0
SCALE
  5
5A
102
{ACAD_REACTORS
330
3B
102
}
330
3B
100
AcDbScale
 70
     0
300
3" = 1'-0"
140
3.0
141
12.0
290
     0
  0
SCALE
  5
5B
102
{ACAD_REACTORS
330
3B
102
}
330
3B
100
AcDbScale
 70
     0
300
6" = 1'-0"
140
6.0
141
12.0
290
     0
  0
SCALE
  5
5C
102
{ACAD_REACTORS
330
3B
102
}
330
3B
100
AcDbScale
 70
     0
300
1'-0" = 1'-0"
140
12.0
141
12.0
290
     0
  0
VISUALSTYLE
  5
2F
102
{ACAD_REACTORS
330
2A
102
}
330
2A
100
AcDbVisualStyle
  2
2dWireframe
 70
     4
 71
     0
 72
     2
 73
     0
 90
        0
 40
-0.6
 41
-30.0
 62
     5
 63
     7
421
 16777215
 74
     1
 91
        4
 64
     7
 65
   257
 75
     1
175
     1
 42
1.0
 92
        0
 66
   257
 43
1.0
 76
     1
 77
     6
 78
     2
 67
     7
 79
     5
170
     0
171
     0
290
     0
174
     0
 93
        1
 44
0.0
173
     0
291
     0
 45
0.0
1001
ACAD
1000
AcDbSavedByObjectVersion
1070
     0
  0
VISUALSTYLE
  5
31
102
{ACAD_REACTORS
330
2A
102
}
330
2A
100
AcDbVisualStyle
  2
3D Hidden
 70
     6
 71
     1
 72
     2
 73
     2
 90
        0
 40
-0.6
 41
-30.0
 62
     5
 63
     7
421
 16777215
 74
     2
 91
        2
 64
     7
 65
   257
 75
     2
175
     1
 42
40.0
 92
        0
 66
   257
 43
1.0
 76
     1
 77
     6
 78
     2
 67
     7
 79
     3
170
     0
171
     0
290
     0
174
     0
 93
        1
 44
0.0
173
     0
291
     0
 45
0.0
1001
ACAD
1000
AcDbSavedByObjectVersion
1070
     0
  0
VISUALSTYLE
  5
30
102
{ACAD_REACTORS
330
2A
102
}
330
2A
100
AcDbVisualStyle
  2
3dWireframe
 70
     5
 71
     0
 72
     2
 73
     0
 90
        0
 40
-0.6
 41
-30.0
 62
     5
 63
     7
421
 16777215
 74
     1
 91
        4
 64
     7
 65
   257
 75
     1
175
     1
 42
1.0
 92
        0
 66
   257
 43
1.0
 76
     1
 77
     6
 78
     2
 67
     7
 79
     5
170
     0
171
     0
290
     0
174
     0
 93
        1
 44
0.0
173
     0
291
     0
 45
0.0
1001
ACAD
1000
AcDbSavedByObjectVersion
1070
     0
  0
VISUALSTYLE
  5
32
102
{ACAD_REACTORS
330
2A
102
}
330
2A
100
AcDbVisualStyle
  2
Basic
 70
     7
 71
     1
 72
     0
 73
     1
 90
        0
 40
-0.6
 41
-30.0
 62
     5
 63
     7
421
 16777215
 74
     0
 91
        4
 64
     7
 65
   257
 75
     1
175
     1
 42
1.0
 92
        8
 66
     7
 43
1.0
 76
     1
 77
     6
 78
     2
 67
     7
 79
     5
170
     0
171
     0
290
     0
174
     0
 93
        1
 44
0.0
173
     0
291
     1
 45
0.0
1001
ACAD
1000
AcDbSavedByObjectVersion
1070
     0
  0
VISUALSTYLE
  5
36
102
{ACAD_REACTORS
330
2A
102
}
330
2A
100
AcDbVisualStyle
  2
Brighten
 70
    12
 71
     2
 72
     2
 73
     0
 90
        0
 40
-0.6
 41
-30.0
 62
     5
 63
     7
421
 16777215
 74
     1
 91
        4
 64
     7
 65
   257
 75
     1
175
     1
 42
1.0
 92
        8
 66
     7
 43
1.0
 76
     1
 77
     6
 78
     2
 67
     7
 79
     5
170
     0
171
     0
290
     0
174
     0
 93
        1
 44
50.0
173
     0
291
     1
 45
0.0
1001
ACAD
1000
AcDbSavedByObjectVersion
1070
     0
  0
VISUALSTYLE
  5
3A
102
{ACAD_REACTORS
330
2A
102
}
330
2A
100
AcDbVisualStyle
  2
ColorChange
 70
    16
 71
     2
 72
     2
 73
     3
 90
        0
 40
-0.6
 41
-30.0
 62
     5
 63
     8
421
  8421504
 74
     1
 91
        4
 64
     7
 65
   257
 75
     1
175
     1
 42
1.0
 92
        8
 66
     8
424
  8421504
 43
1.0
 76
     1
 77
     6
 78
     2
 67
     7
 79
     5
170
     0
171
     0
290
     0
174
     0
 93
        1
 44
0.0
173
     0
291
     1
 45
0.0
1001
ACAD
1000
AcDbSavedByObjectVersion
1070
     0
  0
VISUALSTYLE
  5
34
102
{ACAD_REACTORS
330
2A
102
}
330
2A
100
AcDbVisualStyle
  2
Conceptual
 70
     9
 71
     3
 72
     2
 73
     0
 90
        0
 40
-0.6
 41
-30.0
 62
     5
 63
     7
421
 16777215
 74
     2
 91
        2
 64
     7
 65
   257
 75
     1
175
     1
 42
40.0
 92
        8
 66
     7
 43
1.0
 76
     1
 77
     6
 78
     2
 67
     7
 79
     3
170
     0
171
     0
290
     0
174
     0
 93
        1
 44
0.0
173
     0
291
     0
 45
0.0
1001
ACAD
1000
AcDbSavedByObjectVersion
1070
     0
  0
VISUALSTYLE
  5
35
102
{ACAD_REACTORS
330
2A
102
}
330
2A
100
AcDbVisualStyle
  2
Dim
 70
    11
 71
     2
 72
     2
 73
     0
 90
        0
 40
-0.6
 41
-30.0
 62
     5
 63
     7
421
 16777215
 74
     1
 91
        4
 64
     7
 65
   257
 75
     1
175
     1
 42
1.0
 92
        8
 66
     7
 43
1.0
 76
     1
 77
     6
 78
     2
 67
     7
 79
     5
170
     0
171
     0
290
     0
174
     0
 93
        1
 44
-50.0
173
     0
291
     1
 45
0.0
1001
ACAD
1000
AcDbSavedByObjectVersion
1070
     0
  0
VISUALSTYLE
  5
39
102
{ACAD_REACTORS
330
2A
102
}
330
2A
100
AcDbVisualStyle
  2
Facepattern
 70
    15
 71
     2
 72
     2
 73
     0
 90
        0
 40
-0.6
 41
-30.0
 62
     5
 63
     7
421
 16777215
 74
     1
 91
        4
 64
     7
 65
   257
 75
     1
175
     1
 42
1.0
 92
        8
 66
     7
 43
1.0
 76
     1
 77
     6
 78
     2
 67
     7
 79
     5
170
     0
171
     0
290
     0
174
     0
 93
        1
 44
0.0
173
     0
291
     1
 45
0.0
1001
ACAD
1000
AcDbSavedByObjectVersion
1070
     0
  0
VISUALSTYLE
  5
2B
102
{ACAD_REACTORS
330
2A
102
}
330
2A
100
AcDbVisualStyle
  2
Flat
 70
     0
 71
     2
 72
     1
 73
     1
 90
        2
 40
-0.6
 41
30.0
 62
     5
 63
     7
421
 16777215
 74
     0
 91
        4
 64
     7
 65
   257
 75
     1
175
     1
 42
1.0
 92
        8
 66
     7
 43
1.0
 76
     1
 77
     6
 78
     2
 67
     7
 79
     5
170
     0
171
     0
290
     0
174
     0
 93
       13
 44
0.0
173
     0
291
     1
 45
0.0
1001
ACAD
1000
AcDbSavedByObjectVersion
1070
     0
  0
VISUALSTYLE
  5
2C
102
{ACAD_REACTORS
330
2A
102
}
330
2A
100
AcDbVisualStyle
  2
FlatWithEdges
 70
     1
 71
     2
 72
     1
 73
     1
 90
        2
 40
-0.6
 41
30.0
 62
     5
 63
     7
421
 16777215
 74
     1
 91
        4
 64
     7
 65
   257
 75
     1
175
     1
 42
1.0
 92
        0
 66
   257
 43
1.0
 76
     1
 77
     6
 78
     2
 67
     7
 79
     5
170
     0
171
     0
290
     0
174
     0
 93
       13
 44
0.0
173
     0
291
     1
 45
0.0
1001
ACAD
1000
AcDbSavedByObjectVersion
1070
     0
  0
VISUALSTYLE
  5
2D
102
{ACAD_REACTORS
330
2A
102
}
330
2A
100
AcDbVisualStyle
  2
Gouraud
 70
     2
 71
     2
 72
     2
 73
     1
 90
        2
 40
-0.6
 41
30.0
 62
     5
 63
     7
421
 16777215
 74
     0
 91
        4
 64
     7
 65
   257
 75
     1
175
     1
 42
1.0
 92
        0
 66
     7
 43
1.0
 76
     1
 77
     6
 78
     2
 67
     7
 79
     5
170
     0
171
     0
290
     0
174
     0
 93
       13
 44
0.0
173
     0
291
     1
 45
0.0
1001
ACAD
1000
AcDbSavedByObjectVersion
1070
     0
  0
VISUALSTYLE
  5
2E
102
{ACAD_REACTORS
330
2A
102
}
330
2A
100
AcDbVisualStyle
  2
GouraudWithEdges
 70
     3
 71
     2
 72
     2
 73
     1
 90
        2
 40
-0.6
 41
30.0
 62
     5
 63
     7
421
 16777215
 74
     1
 91
        4
 64
     7
 65
   257
 75
     1
175
     1
 42
1.0
 92
        0
 66
   257
 43
1.0
 76
     1
 77
     6
 78
     2
 67
     7
 79
     5
170
     0
171
     0
290
     0
174
     0
 93
       13
 44
0.0
173
     0
291
     1
 45
0.0
1001
ACAD
1000
AcDbSavedByObjectVersion
1070
     0
  0
VISUALSTYLE
  5
38
102
{ACAD_REACTORS
330
2A
102
}
330
2A
100
AcDbVisualStyle
  2
Linepattern
 70
    14
 71
     2
 72
     2
 73
     0
 90
        0
 40
-0.6
 41
-30.0
 62
     5
 63
     7
421
 16777215
 74
     1
 91
        4
 64
     7
 65
   257
 75
     7
175
     7
 42
1.0
 92
        8
 66
     7
 43
1.0
 76
     1
 77
     6
 78
     2
 67
     7
 79
     5
170
     0
171
     0
290
     0
174
     0
 93
        1
 44
0.0
173
     0
291
     1
 45
0.0
1001
ACAD
1000
AcDbSavedByObjectVersion
1070
     0
  0
VISUALSTYLE
  5
33
102
{ACAD_REACTORS
330
2A
102
}
330
2A
100
AcDbVisualStyle
  2
Realistic
 70
     8
 71
     2
 72
     2
 73
     0
 90
        0
 40
-0.6
 41
-30.0
 62
     5
 63
     7
421
 16777215
 74
     1
 91
        0
 64
     7
 65
   257
 75
     1
175
     1
 42
1.0
 92
        8
 66
     8
424
  7895160
 43
1.0
 76
     1
 77
     6
 78
     2
 67
     7
 79
     5
170
     0
171
     0
290
     0
174
     0
 93
       13
 44
0.0
173
     0
291
     0
 45
0.0
1001
ACAD
1000
AcDbSavedByObjectVersion
1070
     0
  0
VISUALSTYLE
  5
37
102
{ACAD_REACTORS
330
2A
102
}
330
2A
100
AcDbVisualStyle
  2
Thicken
 70
    13
 71
     2
 72
     2
 73
     0
 90
        0
 40
-0.6
 41
-30.0
 62
     5
 63
     7
421
 16777215
 74
     1
 91
        4
 64
     7
 65
   257
 75
     1
175
     1
 42
1.0
 92
       12
 66
     7
 43
1.0
 76
     1
 77
     6
 78
     2
 67
     7
 79
     5
170
     0
171
     0
290
     0
174
     0
 93
        1
 44
0.0
173
     0
291
     1
 45
0.0
1001
ACAD
1000
AcDbSavedByObjectVersion
1070
     0
  0
XRECORD
  5
2D2
102
{ACAD_REACTORS
330
2D1
102
}
330
2D1
100
AcDbXrecord
280
     1
1000
Ten plik DWG został utworzony w programie ArchiCAD(TM)®
  0
SPATIAL_FILTER
  5
2CA
102
{ACAD_REACTORS
330
2C9
102
}
330
2C9
100
AcDbFilter
100
AcDbSpatialFilter
 70
     4
 10
0.0
 20
0.0
 10
210.0
 20
0.0
 10
210.0
 20
297.0
 10
0.0
 20
297.0
210
0.0
220
0.0
230
1.0
 11
0.0
 21
0.0
 31
0.0
 71
     1
 72
     0
 73
     0
 40
1.0
 40
0.0
 40
0.0
 40
0.0
 40
0.0
 40
1.0
 40
0.0
 40
0.0
 40
0.0
 40
0.0
 40
1.0
 40
0.0
 40
1.0
 40
0.0
 40
0.0
 40
0.0
 40
0.0
 40
1.0
 40
0.0
 40
0.0
 40
0.0
 40
0.0
 40
1.0
 40
0.0
  0
ENDSEC
  0
EOF
