  0
SECTION
  2
HEADER
  9
$ACADVER
  1
AC1018
  9
$ACADMAINTVER
 70
     0
  9
$DWGCODEPAGE
  3
ANSI_1250
  9
$INSBASE
 10
0.0
 20
0.0
 30
0.0
  9
$EXTMIN
 10
1.000000000000000E+20
 20
1.000000000000000E+20
 30
1.000000000000000E+20
  9
$EXTMAX
 10
-1.000000000000000E+20
 20
-1.000000000000000E+20
 30
-1.000000000000000E+20
  9
$LIMMIN
 10
0.0
 20
0.0
  9
$LIMMAX
 10
12.0
 20
9.0
  9
$ORTHOMODE
 70
     0
  9
$REGENMODE
 70
     1
  9
$FILLMODE
 70
     1
  9
$QTEXTMODE
 70
     0
  9
$MIRRTEXT
 70
     1
  9
$LTSCALE
 40
1.0
  9
$ATTMODE
 70
     1
  9
$TEXTSIZE
 40
0.2
  9
$TRACEWID
 40
0.05
  9
$TEXTSTYLE
  7
Standard
  9
$CLAYER
  8
0
  9
$CELTYPE
  6
ByLayer
  9
$CECOLOR
 62
   256
  9
$CELTSCALE
 40
1.0
  9
$DISPSILH
 70
     0
  9
$DIMSCALE
 40
1.0
  9
$DIMASZ
 40
0.18
  9
$DIMEXO
 40
0.0625
  9
$DIMDLI
 40
0.38
  9
$DIMRND
 40
0.0
  9
$DIMDLE
 40
0.0
  9
$DIMEXE
 40
0.18
  9
$DIMTP
 40
0.0
  9
$DIMTM
 40
0.0
  9
$DIMTXT
 40
0.18
  9
$DIMCEN
 40
0.09
  9
$DIMTSZ
 40
0.0
  9
$DIMTOL
 70
     0
  9
$DIMLIM
 70
     0
  9
$DIMTIH
 70
     1
  9
$DIMTOH
 70
     1
  9
$DIMSE1
 70
     0
  9
$DIMSE2
 70
     0
  9
$DIMTAD
 70
     0
  9
$DIMZIN
 70
     0
  9
$DIMBLK
  1

  9
$DIMASO
 70
     1
  9
$DIMSHO
 70
     1
  9
$DIMPOST
  1

  9
$DIMAPOST
  1

  9
$DIMALT
 70
     0
  9
$DIMALTD
 70
     2
  9
$DIMALTF
 40
25.4
  9
$DIMLFAC
 40
1.0
  9
$DIMTOFL
 70
     0
  9
$DIMTVP
 40
0.0
  9
$DIMTIX
 70
     0
  9
$DIMSOXD
 70
     0
  9
$DIMSAH
 70
     0
  9
$DIMBLK1
  1

  9
$DIMBLK2
  1

  9
$DIMSTYLE
  2
Standard
  9
$DIMCLRD
 70
     0
  9
$DIMCLRE
 70
     0
  9
$DIMCLRT
 70
     0
  9
$DIMTFAC
 40
1.0
  9
$DIMGAP
 40
0.09
  9
$DIMJUST
 70
     0
  9
$DIMSD1
 70
     0
  9
$DIMSD2
 70
     0
  9
$DIMTOLJ
 70
     1
  9
$DIMTZIN
 70
     0
  9
$DIMALTZ
 70
     0
  9
$DIMALTTZ
 70
     0
  9
$DIMUPT
 70
     0
  9
$DIMDEC
 70
     4
  9
$DIMTDEC
 70
     4
  9
$DIMALTU
 70
     2
  9
$DIMALTTD
 70
     2
  9
$DIMTXSTY
  7
Standard
  9
$DIMAUNIT
 70
     0
  9
$DIMADEC
 70
     0
  9
$DIMALTRND
 40
0.0
  9
$DIMAZIN
 70
     0
  9
$DIMDSEP
 70
    46
  9
$DIMATFIT
 70
     3
  9
$DIMFRAC
 70
     0
  9
$DIMLDRBLK
  1

  9
$DIMLUNIT
 70
     2
  9
$DIMLWD
 70
    -2
  9
$DIMLWE
 70
    -2
  9
$DIMTMOVE
 70
     0
  9
$LUNITS
 70
     2
  9
$LUPREC
 70
     4
  9
$SKETCHINC
 40
0.1
  9
$FILLETRAD
 40
0.5
  9
$AUNITS
 70
     0
  9
$AUPREC
 70
     0
  9
$MENU
  1
.
  9
$ELEVATION
 40
0.0
  9
$PELEVATION
 40
0.0
  9
$THICKNESS
 40
0.0
  9
$LIMCHECK
 70
     0
  9
$CHAMFERA
 40
0.5
  9
$CHAMFERB
 40
0.5
  9
$CHAMFERC
 40
1.0
  9
$CHAMFERD
 40
0.0
  9
$SKPOLY
 70
     0
  9
$TDCREATE
 40
2460060.444557963
  9
$TDUCREATE
 40
2460060.361224629
  9
$TDUPDATE
 40
2460060.444557975
  9
$TDUUPDATE
 40
2460060.361224641
  9
$TDINDWG
 40
0.0000000116
  9
$TDUSRTIMER
 40
0.0000000116
  9
$USRTIMER
 70
     1
  9
$ANGBASE
 50
0.0
  9
$ANGDIR
 70
     0
  9
$PDMODE
 70
     0
  9
$PDSIZE
 40
0.0
  9
$PLINEWID
 40
0.0
  9
$SPLFRAME
 70
     0
  9
$SPLINETYPE
 70
     6
  9
$SPLINESEGS
 70
     8
  9
$HANDSEED
  5
2AC
  9
$SURFTAB1
 70
     6
  9
$SURFTAB2
 70
     6
  9
$SURFTYPE
 70
     6
  9
$SURFU
 70
     6
  9
$SURFV
 70
     6
  9
$UCSBASE
  2

  9
$UCSNAME
  2

  9
$UCSORG
 10
0.0
 20
0.0
 30
0.0
  9
$UCSXDIR
 10
1.0
 20
0.0
 30
0.0
  9
$UCSYDIR
 10
0.0
 20
1.0
 30
0.0
  9
$UCSORTHOREF
  2

  9
$UCSORTHOVIEW
 70
     0
  9
$UCSORGTOP
 10
0.0
 20
0.0
 30
0.0
  9
$UCSORGBOTTOM
 10
0.0
 20
0.0
 30
0.0
  9
$UCSORGLEFT
 10
0.0
 20
0.0
 30
0.0
  9
$UCSORGRIGHT
 10
0.0
 20
0.0
 30
0.0
  9
$UCSORGFRONT
 10
0.0
 20
0.0
 30
0.0
  9
$UCSORGBACK
 10
0.0
 20
0.0
 30
0.0
  9
$PUCSBASE
  2

  9
$PUCSNAME
  2

  9
$PUCSORG
 10
0.0
 20
0.0
 30
0.0
  9
$PUCSXDIR
 10
1.0
 20
0.0
 30
0.0
  9
$PUCSYDIR
 10
0.0
 20
1.0
 30
0.0
  9
$PUCSORTHOREF
  2

  9
$PUCSORTHOVIEW
 70
     0
  9
$PUCSORGTOP
 10
0.0
 20
0.0
 30
0.0
  9
$PUCSORGBOTTOM
 10
0.0
 20
0.0
 30
0.0
  9
$PUCSORGLEFT
 10
0.0
 20
0.0
 30
0.0
  9
$PUCSORGRIGHT
 10
0.0
 20
0.0
 30
0.0
  9
$PUCSORGFRONT
 10
0.0
 20
0.0
 30
0.0
  9
$PUCSORGBACK
 10
0.0
 20
0.0
 30
0.0
  9
$USERI1
 70
     0
  9
$USERI2
 70
     0
  9
$USERI3
 70
     0
  9
$USERI4
 70
     0
  9
$USERI5
 70
     0
  9
$USERR1
 40
0.0
  9
$USERR2
 40
0.0
  9
$USERR3
 40
0.0
  9
$USERR4
 40
0.0
  9
$USERR5
 40
0.0
  9
$WORLDVIEW
 70
     1
  9
$SHADEDGE
 70
     3
  9
$SHADEDIF
 70
    70
  9
$TILEMODE
 70
     0
  9
$MAXACTVP
 70
    64
  9
$PINSBASE
 10
0.0
 20
0.0
 30
0.0
  9
$PLIMCHECK
 70
     0
  9
$PEXTMIN
 10
0.0
 20
0.0
 30
0.0
  9
$PEXTMAX
 10
210.0
 20
297.0
 30
0.0
  9
$PLIMMIN
 10
0.0
 20
0.0
  9
$PLIMMAX
 10
210.0
 20
297.0
  9
$UNITMODE
 70
     0
  9
$VISRETAIN
 70
     1
  9
$PLINEGEN
 70
     0
  9
$PSLTSCALE
 70
     0
  9
$TREEDEPTH
 70
  3020
  9
$CMLSTYLE
  2
Standard
  9
$CMLJUST
 70
     0
  9
$CMLSCALE
 40
1.0
  9
$PROXYGRAPHICS
 70
     1
  9
$MEASUREMENT
 70
     0
  9
$CELWEIGHT
370
    -1
  9
$ENDCAPS
280
     0
  9
$JOINSTYLE
280
     0
  9
$LWDISPLAY
290
     1
  9
$INSUNITS
 70
     0
  9
$HYPERLINKBASE
  1

  9
$STYLESHEET
  1

  9
$XEDIT
290
     1
  9
$CEPSNTYPE
380
     0
  9
$PSTYLEMODE
290
     1
  9
$FINGERPRINTGUID
  2
{D6AFEFBD-34DA-4B94-94A4-63CAD06B41EA}
  9
$VERSIONGUID
  2
{FAEB1C32-E019-11D5-929B-00C0DF256EC4}
  9
$EXTNAMES
290
     1
  9
$PSVPSCALE
 40
0.0
  9
$OLESTARTUP
290
     0
  9
$SORTENTS
280
   127
  9
$INDEXCTL
280
     0
  9
$HIDETEXT
280
     1
  9
$XCLIPFRAME
290
     0
  9
$HALOGAP
280
     0
  9
$OBSCOLOR
 70
   257
  9
$OBSLTYPE
280
     0
  9
$INTERSECTIONDISPLAY
280
     0
  9
$INTERSECTIONCOLOR
 70
   257
  9
$DIMASSOC
280
     2
  9
$PROJECTNAME
  1

  0
ENDSEC
  0
SECTION
  2
CLASSES
  0
CLASS
  1
ACDBDICTIONARYWDFLT
  2
AcDbDictionaryWithDefault
  3
ObjectDBX Classes
 90
        0
 91
        3
280
     0
281
     0
  0
CLASS
  1
VISUALSTYLE
  2
AcDbVisualStyle
  3
ObjectDBX Classes
 90
     4095
 91
        3
280
     0
281
     0
  0
CLASS
  1
SCALE
  2
AcDbScale
  3
ObjectDBX Classes
 90
     1153
 91
        3
280
     0
281
     0
  0
CLASS
  1
WIPEOUT
  2
AcDbWipeout
  3
WipeOut|AutoCAD Express Tool|expresstools@autodesk.com
 90
      127
 91
        3
280
     0
281
     1
  0
CLASS
  1
SPATIAL_FILTER
  2
AcDbSpatialFilter
  3
ObjectDBX Classes
 90
        0
 91
        3
280
     0
281
     0
  0
ENDSEC
  0
SECTION
  2
TABLES
  0
TABLE
  2
VPORT
  5
8
330
0
100
AcDbSymbolTable
 70
     1
  0
VPORT
  5
29
330
8
100
AcDbSymbolTableRecord
100
AcDbViewportTableRecord
  2
*Active
 70
     0
 10
0.0
 20
0.0
 11
1.0
 21
1.0
 12
10.42990654205607
 22
4.5
 13
0.0
 23
0.0
 14
0.5
 24
0.5
 15
0.5
 25
0.5
 16
0.0
 26
0.0
 36
1.0
 17
0.0
 27
0.0
 37
0.0
 40
9.0
 41
1.972972972850329
 42
50.0
 43
0.0
 44
0.0
 50
0.0
 51
0.0
 71
     0
 72
   100
 73
     1
 74
     3
 75
     0
 76
     0
 77
     0
 78
     0
281
     0
 65
     1
110
0.0
120
0.0
130
0.0
111
1.0
121
0.0
131
0.0
112
0.0
122
1.0
132
0.0
 79
     0
146
0.0
  0
ENDTAB
  0
TABLE
  2
LTYPE
  5
5
330
0
100
AcDbSymbolTable
 70
     3
  0
LTYPE
  5
14
330
5
100
AcDbSymbolTableRecord
100
AcDbLinetypeTableRecord
  2
ByBlock
 70
     0
  3

 72
    65
 73
     0
 40
0.0
  0
LTYPE
  5
15
330
5
100
AcDbSymbolTableRecord
100
AcDbLinetypeTableRecord
  2
ByLayer
 70
     0
  3

 72
    65
 73
     0
 40
0.0
  0
LTYPE
  5
16
330
5
100
AcDbSymbolTableRecord
100
AcDbLinetypeTableRecord
  2
Continuous
 70
     0
  3
Solid line
 72
    65
 73
     0
 40
0.0
  0
LTYPE
  5
5E
330
5
100
AcDbSymbolTableRecord
100
AcDbLinetypeTableRecord
  2
Przerywana gęsta
 70
     0
  3
- - - - - 
 72
    65
 73
     2
 40
15.0
 49
10.0
 74
     0
 49
-5.0
 74
     0
  0
LTYPE
  5
60
330
5
100
AcDbSymbolTableRecord
100
AcDbLinetypeTableRecord
  2
Wipeout_Contour
 70
     0
  3
- - - - - 
 72
    65
 73
     2
 40
1000.0
 49
0.0
 74
     0
 49
-1000.0
 74
     0
  0
ENDTAB
  0
TABLE
  2
LAYER
  5
2
330
0
100
AcDbSymbolTable
 70
     4
  0
LAYER
  5
10
330
2
100
AcDbSymbolTableRecord
100
AcDbLayerTableRecord
  2
0
 70
     0
 62
     7
  6
Continuous
370
    -3
390
F
  0
LAYER
  5
61
330
2
100
AcDbSymbolTableRecord
100
AcDbLayerTableRecord
  2
@__WIDOCZNE
 70
     0
 62
     7
  6
Continuous
370
    -3
390
F
  0
LAYER
  5
1CF
330
2
100
AcDbSymbolTableRecord
100
AcDbLayerTableRecord
  2
2D - Ogólne
 70
     0
 62
     7
  6
Continuous
370
    -3
390
F
  0
LAYER
  5
2A3
330
2
100
AcDbSymbolTableRecord
100
AcDbLayerTableRecord
  2
NonPlottable_0
 70
     0
 62
     7
  6
Continuous
290
     0
370
    -3
390
F
  0
ENDTAB
  0
TABLE
  2
STYLE
  5
3
330
0
100
AcDbSymbolTable
 70
     4
  0
STYLE
  5
11
330
3
100
AcDbSymbolTableRecord
100
AcDbTextStyleTableRecord
  2
Standard
 70
     0
 40
0.0
 41
1.0
 50
0.0
 71
     0
 42
0.2
  3
txt
  4
BIGFONT.SHX
  0
STYLE
  5
14A
330
3
100
AcDbSymbolTableRecord
100
AcDbTextStyleTableRecord
  2
GENERATED_STYLE_1
 70
     0
 40
0.0
 41
1.0
 50
0.0
 71
     0
 42
0.2
  3

  4

1001
ACAD
1000
Arial
1071
    60966
  0
STYLE
  5
1BE
330
3
100
AcDbSymbolTableRecord
100
AcDbTextStyleTableRecord
  2
GENERATED_STYLE_2
 70
     0
 40
0.0
 41
1.0
 50
0.0
 71
     0
 42
0.2
  3

  4

1001
ACAD
1000
Arial
1071
 33615398
  0
STYLE
  5
1C8
330
3
100
AcDbSymbolTableRecord
100
AcDbTextStyleTableRecord
  2
GENERATED_STYLE_3
 70
     0
 40
0.0
 41
1.0
 50
0.0
 71
     0
 42
0.2
  3

  4

1001
ACAD
1000
Arial
1071
 16838182
  0
ENDTAB
  0
TABLE
  2
VIEW
  5
6
330
0
100
AcDbSymbolTable
 70
     0
  0
ENDTAB
  0
TABLE
  2
UCS
  5
7
330
0
100
AcDbSymbolTable
 70
     0
  0
ENDTAB
  0
TABLE
  2
APPID
  5
9
330
0
100
AcDbSymbolTable
 70
     1
  0
APPID
  5
12
330
9
100
AcDbSymbolTableRecord
100
AcDbRegAppTableRecord
  2
ACAD
 70
     0
  0
ENDTAB
  0
TABLE
  2
DIMSTYLE
  5
A
330
0
100
AcDbSymbolTable
 70
     1
100
AcDbDimStyleTable
  0
DIMSTYLE
105
27
330
A
100
AcDbSymbolTableRecord
100
AcDbDimStyleTableRecord
  2
Standard
 70
     0
340
11
  0
ENDTAB
  0
TABLE
  2
BLOCK_RECORD
  5
1
330
0
100
AcDbSymbolTable
 70
    20
  0
BLOCK_RECORD
  5
1F
330
1
100
AcDbSymbolTableRecord
100
AcDbBlockTableRecord
  2
*Model_Space
340
22
  0
BLOCK_RECORD
  5
1B
330
1
100
AcDbSymbolTableRecord
100
AcDbBlockTableRecord
  2
*Paper_Space
340
1E
  0
BLOCK_RECORD
  5
23
330
1
100
AcDbSymbolTableRecord
100
AcDbBlockTableRecord
  2
*Paper_Space0
340
26
  0
BLOCK_RECORD
  5
90
330
1
100
AcDbSymbolTableRecord
100
AcDbBlockTableRecord
  2
Izolacja cieplna 12_36_2
340
0
102
{BLKREFS
331
128
102
}
  0
BLOCK_RECORD
  5
129
330
1
100
AcDbSymbolTableRecord
100
AcDbBlockTableRecord
  2
Izolacja cieplna 12_37_2
340
0
102
{BLKREFS
331
145
102
}
  0
BLOCK_RECORD
  5
146
330
1
100
AcDbSymbolTableRecord
100
AcDbBlockTableRecord
  2
Sygnał termostatu 12
340
0
102
{BLKREFS
331
14C
331
278
102
}
  0
BLOCK_RECORD
  5
14F
330
1
100
AcDbSymbolTableRecord
100
AcDbBlockTableRecord
  2
Sygnał termostatu 12_2
340
0
102
{BLKREFS
331
154
331
27B
102
}
  0
BLOCK_RECORD
  5
157
330
1
100
AcDbSymbolTableRecord
100
AcDbBlockTableRecord
  2
Sygnał termostatu 12_3
340
0
102
{BLKREFS
331
15C
331
275
102
}
  0
BLOCK_RECORD
  5
15F
330
1
100
AcDbSymbolTableRecord
100
AcDbBlockTableRecord
  2
Sygnał termostatu 12_4
340
0
102
{BLKREFS
331
164
331
26C
102
}
  0
BLOCK_RECORD
  5
167
330
1
100
AcDbSymbolTableRecord
100
AcDbBlockTableRecord
  2
Sygnał termostatu 12_5
340
0
102
{BLKREFS
331
16C
331
26F
102
}
  0
BLOCK_RECORD
  5
16F
330
1
100
AcDbSymbolTableRecord
100
AcDbBlockTableRecord
  2
Sygnał termostatu 12_6
340
0
102
{BLKREFS
331
174
331
272
102
}
  0
BLOCK_RECORD
  5
177
330
1
100
AcDbSymbolTableRecord
100
AcDbBlockTableRecord
  2
InsulFib_zygzak_JS_2016_v12
340
0
102
{BLKREFS
331
17E
331
17F
102
}
  0
BLOCK_RECORD
  5
180
330
1
100
AcDbSymbolTableRecord
100
AcDbBlockTableRecord
  2
InsulFib_zygzak_JS_2016_v12_2
340
0
102
{BLKREFS
331
185
331
186
102
}
  0
BLOCK_RECORD
  5
1CB
330
1
100
AcDbSymbolTableRecord
100
AcDbBlockTableRecord
  2
*X11
340
0
102
{BLKREFS
331
1E0
102
}
  0
BLOCK_RECORD
  5
1E8
330
1
100
AcDbSymbolTableRecord
100
AcDbBlockTableRecord
  2
*X12
340
0
102
{BLKREFS
331
1FC
102
}
  0
BLOCK_RECORD
  5
201
330
1
100
AcDbSymbolTableRecord
100
AcDbBlockTableRecord
  2
*X13
340
0
102
{BLKREFS
331
215
102
}
  0
BLOCK_RECORD
  5
21A
330
1
100
AcDbSymbolTableRecord
100
AcDbBlockTableRecord
  2
*X14
340
0
102
{BLKREFS
331
22E
102
}
  0
BLOCK_RECORD
  5
233
330
1
100
AcDbSymbolTableRecord
100
AcDbBlockTableRecord
  2
*X15
340
0
102
{BLKREFS
331
247
102
}
  0
BLOCK_RECORD
  5
24C
330
1
100
AcDbSymbolTableRecord
100
AcDbBlockTableRecord
  2
*X16
340
0
102
{BLKREFS
331
260
102
}
  0
BLOCK_RECORD
  5
298
330
1
100
AcDbSymbolTableRecord
100
AcDbBlockTableRecord
  2
Bez nazwy_STORY_MARKER
340
0
  0
BLOCK_RECORD
  5
29B
330
1
100
AcDbSymbolTableRecord
100
AcDbBlockTableRecord
  2
Rysunek_1
340
0
102
{BLKREFS
331
29E
102
}
  0
BLOCK_RECORD
  5
2A5
330
1
100
AcDbSymbolTableRecord
100
AcDbBlockTableRecord
  2
02.04.2-20 \U+FF8CCIANA+PIWICA 05.01._STORY_MARKER
340
0
  0
ENDTAB
  0
ENDSEC
  0
SECTION
  2
BLOCKS
  0
BLOCK
  5
20
330
1F
100
AcDbEntity
  8
0
100
AcDbBlockBegin
  2
*Model_Space
 70
     0
 10
0.0
 20
0.0
 30
0.0
  3
*Model_Space
  1

  0
ENDBLK
  5
21
330
1F
100
AcDbEntity
  8
0
100
AcDbBlockEnd
  0
BLOCK
  5
1C
330
1B
100
AcDbEntity
 67
     1
  8
0
100
AcDbBlockBegin
  2
*Paper_Space
 70
     0
 10
0.0
 20
0.0
 30
0.0
  3
*Paper_Space
  1

  0
ENDBLK
  5
1D
330
1B
100
AcDbEntity
 67
     1
  8
0
100
AcDbBlockEnd
  0
BLOCK
  5
24
330
23
100
AcDbEntity
  8
0
100
AcDbBlockBegin
  2
*Paper_Space0
 70
     0
 10
0.0
 20
0.0
 30
0.0
  3
*Paper_Space0
  1

  0
ENDBLK
  5
25
330
23
100
AcDbEntity
  8
0
100
AcDbBlockEnd
  0
BLOCK
  5
91
330
90
100
AcDbEntity
  8
0
100
AcDbBlockBegin
  2
Izolacja cieplna 12_36_2
 70
     0
 10
-2048.059647858244
 20
307.398433416207
 30
0.0
  3
Izolacja cieplna 12_36_2
  1

  0
LINE
  5
93
330
90
100
AcDbEntity
  8
0
  6
Continuous
370
    13
100
AcDbLine
 10
-2059.979309053509
 20
316.5584629049282
 30
0.0
 11
-2076.140352413124
 21
323.5891295035574
 31
0.0
  0
LINE
  5
94
330
90
100
AcDbEntity
  8
0
  6
Continuous
370
    13
100
AcDbLine
 10
-2076.140352413124
 20
308.1082221022547
 30
0.0
 11
-2059.979309053509
 21
315.1388823647554
 31
0.0
  0
LINE
  5
95
330
90
100
AcDbEntity
  8
0
  6
Continuous
370
    13
100
AcDbLine
 10
-2059.979309053509
 20
333.4593159914037
 30
0.0
 11
-2076.140352413124
 21
340.4899825900328
 31
0.0
  0
LINE
  5
96
330
90
100
AcDbEntity
  8
0
  6
Continuous
370
    13
100
AcDbLine
 10
-2076.140352413124
 20
325.0090751887301
 30
0.0
 11
-2059.979309053509
 21
332.0397354512309
 31
0.0
  0
LINE
  5
97
330
90
100
AcDbEntity
  8
0
  6
Continuous
370
    13
100
AcDbLine
 10
-2059.979309053509
 20
350.360169077879
 30
0.0
 11
-2076.140352413124
 21
357.3908356765081
 31
0.0
  0
LINE
  5
98
330
90
100
AcDbEntity
  8
0
  6
Continuous
370
    13
100
AcDbLine
 10
-2076.140352413124
 20
341.9099282752055
 30
0.0
 11
-2059.979309053509
 21
348.9405885377062
 31
0.0
  0
LINE
  5
99
330
90
100
AcDbEntity
  8
0
  6
Continuous
370
    13
100
AcDbLine
 10
-2059.979309053509
 20
367.2610221643544
 30
0.0
 11
-2076.140352413124
 21
374.2916887629835
 31
0.0
  0
LINE
  5
9A
330
90
100
AcDbEntity
  8
0
  6
Continuous
370
    13
100
AcDbLine
 10
-2076.140352413124
 20
358.8107813616808
 30
0.0
 11
-2059.979309053509
 21
365.8414416241816
 31
0.0
  0
LINE
  5
9B
330
90
100
AcDbEntity
  8
0
  6
Continuous
370
    13
100
AcDbLine
 10
-2059.979309053509
 20
384.1618752508298
 30
0.0
 11
-2076.140352413124
 21
391.192541849459
 31
0.0
  0
LINE
  5
9C
330
90
100
AcDbEntity
  8
0
  6
Continuous
370
    13
100
AcDbLine
 10
-2076.140352413124
 20
375.7116344481562
 30
0.0
 11
-2059.979309053509
 21
382.742294710657
 31
0.0
  0
LINE
  5
9D
330
90
100
AcDbEntity
  8
0
  6
Continuous
370
    13
100
AcDbLine
 10
-2059.979309053509
 20
401.0627283373051
 30
0.0
 11
-2076.140352413124
 21
408.0933949359343
 31
0.0
  0
LINE
  5
9E
330
90
100
AcDbEntity
  8
0
  6
Continuous
370
    13
100
AcDbLine
 10
-2076.140352413124
 20
392.6124875346316
 30
0.0
 11
-2059.979309053509
 21
399.6431477971324
 31
0.0
  0
LINE
  5
9F
330
90
100
AcDbEntity
  8
0
  6
Continuous
370
    13
100
AcDbLine
 10
-2059.979309053509
 20
417.9635814237806
 30
0.0
 11
-2076.140352413124
 21
424.9942480224097
 31
0.0
  0
LINE
  5
A0
330
90
100
AcDbEntity
  8
0
  6
Continuous
370
    13
100
AcDbLine
 10
-2076.140352413124
 20
409.513340621107
 30
0.0
 11
-2059.979309053509
 21
416.5440008836078
 31
0.0
  0
LINE
  5
A1
330
90
100
AcDbEntity
  8
0
  6
Continuous
370
    13
100
AcDbLine
 10
-2059.979309053509
 20
434.864434510256
 30
0.0
 11
-2076.140352413124
 21
441.8951011088851
 31
0.0
  0
LINE
  5
A2
330
90
100
AcDbEntity
  8
0
  6
Continuous
370
    13
100
AcDbLine
 10
-2076.140352413124
 20
426.4141937075824
 30
0.0
 11
-2059.979309053509
 21
433.4448539700832
 31
0.0
  0
LINE
  5
A3
330
90
100
AcDbEntity
  8
0
  6
Continuous
370
    13
100
AcDbLine
 10
-2059.979309053509
 20
451.7652875967314
 30
0.0
 11
-2076.140352413124
 21
458.7959541953605
 31
0.0
  0
LINE
  5
A4
330
90
100
AcDbEntity
  8
0
  6
Continuous
370
    13
100
AcDbLine
 10
-2076.140352413124
 20
443.3150467940578
 30
0.0
 11
-2059.979309053509
 21
450.3457070565585
 31
0.0
  0
LINE
  5
A5
330
90
100
AcDbEntity
  8
0
  6
Continuous
370
    13
100
AcDbLine
 10
-2059.979309053509
 20
468.6661406832068
 30
0.0
 11
-2076.140352413124
 21
475.6968072818358
 31
0.0
  0
LINE
  5
A6
330
90
100
AcDbEntity
  8
0
  6
Continuous
370
    13
100
AcDbLine
 10
-2076.140352413124
 20
460.2158998805331
 30
0.0
 11
-2059.979309053509
 21
467.2465601430339
 31
0.0
  0
LINE
  5
A7
330
90
100
AcDbEntity
  8
0
  6
Continuous
370
    13
100
AcDbLine
 10
-2059.979309053509
 20
485.5669937696821
 30
0.0
 11
-2076.140352413124
 21
492.5976603683112
 31
0.0
  0
LINE
  5
A8
330
90
100
AcDbEntity
  8
0
  6
Continuous
370
    13
100
AcDbLine
 10
-2076.140352413124
 20
477.1167529670085
 30
0.0
 11
-2059.979309053509
 21
484.1474132295093
 31
0.0
  0
LINE
  5
A9
330
90
100
AcDbEntity
  8
0
  6
Continuous
370
    13
100
AcDbLine
 10
-2059.979309053509
 20
502.4678468561575
 30
0.0
 11
-2076.140352413124
 21
509.4985134547866
 31
0.0
  0
LINE
  5
AA
330
90
100
AcDbEntity
  8
0
  6
Continuous
370
    13
100
AcDbLine
 10
-2076.140352413124
 20
494.0176060534839
 30
0.0
 11
-2059.979309053509
 21
501.0482663159846
 31
0.0
  0
LINE
  5
AB
330
90
100
AcDbEntity
  8
0
  6
Continuous
370
    13
100
AcDbLine
 10
-2059.979309053509
 20
519.3686999426329
 30
0.0
 11
-2076.140352413124
 21
526.399366541262
 31
0.0
  0
LINE
  5
AC
330
90
100
AcDbEntity
  8
0
  6
Continuous
370
    13
100
AcDbLine
 10
-2076.140352413124
 20
510.9184591399593
 30
0.0
 11
-2059.979309053509
 21
517.94911940246
 31
0.0
  0
LINE
  5
AD
330
90
100
AcDbEntity
  8
0
  6
Continuous
370
    13
100
AcDbLine
 10
-2059.979309053509
 20
536.2695530291082
 30
0.0
 11
-2076.140352413124
 21
543.3002196277373
 31
0.0
  0
LINE
  5
AE
330
90
100
AcDbEntity
  8
0
  6
Continuous
370
    13
100
AcDbLine
 10
-2076.140352413124
 20
527.8193122264346
 30
0.0
 11
-2059.979309053509
 21
534.8499724889354
 31
0.0
  0
LINE
  5
AF
330
90
100
AcDbEntity
  8
0
  6
Continuous
370
    13
100
AcDbLine
 10
-2059.979309053509
 20
553.1704061155837
 30
0.0
 11
-2076.140352413124
 21
560.2010727142128
 31
0.0
  0
LINE
  5
B0
330
90
100
AcDbEntity
  8
0
  6
Continuous
370
    13
100
AcDbLine
 10
-2076.140352413124
 20
544.72016531291
 30
0.0
 11
-2059.979309053509
 21
551.7508255754108
 31
0.0
  0
LINE
  5
B1
330
90
100
AcDbEntity
  8
0
  6
Continuous
370
    13
100
AcDbLine
 10
-2059.979309053509
 20
570.071259202059
 30
0.0
 11
-2076.140352413124
 21
577.1019258006882
 31
0.0
  0
LINE
  5
B2
330
90
100
AcDbEntity
  8
0
  6
Continuous
370
    13
100
AcDbLine
 10
-2076.140352413124
 20
561.6210183993854
 30
0.0
 11
-2059.979309053509
 21
568.6516786618862
 31
0.0
  0
LINE
  5
B3
330
90
100
AcDbEntity
  8
0
  6
Continuous
370
    13
100
AcDbLine
 10
-2059.979309053509
 20
586.9721122885343
 30
0.0
 11
-2076.140352413124
 21
594.0027788871636
 31
0.0
  0
LINE
  5
B4
330
90
100
AcDbEntity
  8
0
  6
Continuous
370
    13
100
AcDbLine
 10
-2076.140352413124
 20
578.5218714858607
 30
0.0
 11
-2059.979309053509
 21
585.5525317483615
 31
0.0
  0
LINE
  5
B5
330
90
100
AcDbEntity
  8
0
  6
Continuous
370
    13
100
AcDbLine
 10
-2059.979309053509
 20
603.8729653750097
 30
0.0
 11
-2076.140352413124
 21
610.903631973639
 31
0.0
  0
LINE
  5
B6
330
90
100
AcDbEntity
  8
0
  6
Continuous
370
    13
100
AcDbLine
 10
-2076.140352413124
 20
595.4227245723362
 30
0.0
 11
-2059.979309053509
 21
602.4533848348369
 31
0.0
  0
LINE
  5
B7
330
90
100
AcDbEntity
  8
0
  6
Continuous
370
    13
100
AcDbLine
 10
-2059.979309053509
 20
620.773818461485
 30
0.0
 11
-2076.140352413124
 21
627.8044850601143
 31
0.0
  0
LINE
  5
B8
330
90
100
AcDbEntity
  8
0
  6
Continuous
370
    13
100
AcDbLine
 10
-2076.140352413124
 20
612.3235776588115
 30
0.0
 11
-2059.979309053509
 21
619.3542379213122
 31
0.0
  0
LINE
  5
B9
330
90
100
AcDbEntity
  8
0
  6
Continuous
370
    13
100
AcDbLine
 10
-2059.979309053509
 20
637.6746715479604
 30
0.0
 11
-2076.140352413124
 21
644.7053381465897
 31
0.0
  0
LINE
  5
BA
330
90
100
AcDbEntity
  8
0
  6
Continuous
370
    13
100
AcDbLine
 10
-2076.140352413124
 20
629.2244307452869
 30
0.0
 11
-2059.979309053509
 21
636.2550910077877
 31
0.0
  0
LINE
  5
BB
330
90
100
AcDbEntity
  8
0
  6
Continuous
370
    13
100
AcDbLine
 10
-2059.979309053509
 20
654.5755246344359
 30
0.0
 11
-2076.140352413124
 21
661.606191233065
 31
0.0
  0
LINE
  5
BC
330
90
100
AcDbEntity
  8
0
  6
Continuous
370
    13
100
AcDbLine
 10
-2076.140352413124
 20
646.1252838317623
 30
0.0
 11
-2059.979309053509
 21
653.1559440942631
 31
0.0
  0
LINE
  5
BD
330
90
100
AcDbEntity
  8
0
  6
Continuous
370
    13
100
AcDbLine
 10
-2059.979309053509
 20
671.4763777209112
 30
0.0
 11
-2076.140352413124
 21
678.5070443195405
 31
0.0
  0
LINE
  5
BE
330
90
100
AcDbEntity
  8
0
  6
Continuous
370
    13
100
AcDbLine
 10
-2076.140352413124
 20
663.0261369182376
 30
0.0
 11
-2059.979309053509
 21
670.0567971807384
 31
0.0
  0
LINE
  5
BF
330
90
100
AcDbEntity
  8
0
  6
Continuous
370
    13
100
AcDbLine
 10
-2059.979309053509
 20
688.3772308073866
 30
0.0
 11
-2076.140352413124
 21
695.4078974060159
 31
0.0
  0
LINE
  5
C0
330
90
100
AcDbEntity
  8
0
  6
Continuous
370
    13
100
AcDbLine
 10
-2076.140352413124
 20
679.926990004713
 30
0.0
 11
-2059.979309053509
 21
686.9576502672138
 31
0.0
  0
LINE
  5
C1
330
90
100
AcDbEntity
  8
0
  6
Continuous
370
    13
100
AcDbLine
 10
-2059.979309053509
 20
705.2780838938619
 30
0.0
 11
-2076.140352413124
 21
712.3087504924912
 31
0.0
  0
LINE
  5
C2
330
90
100
AcDbEntity
  8
0
  6
Continuous
370
    13
100
AcDbLine
 10
-2076.140352413124
 20
696.8278430911884
 30
0.0
 11
-2059.979309053509
 21
703.8585033536891
 31
0.0
  0
LINE
  5
C3
330
90
100
AcDbEntity
  8
0
  6
Continuous
370
    13
100
AcDbLine
 10
-2059.979309053509
 20
722.1789369803373
 30
0.0
 11
-2076.140352413124
 21
729.2096035789666
 31
0.0
  0
LINE
  5
C4
330
90
100
AcDbEntity
  8
0
  6
Continuous
370
    13
100
AcDbLine
 10
-2076.140352413124
 20
713.7286961776638
 30
0.0
 11
-2059.979309053509
 21
720.7593564401645
 31
0.0
  0
LINE
  5
C5
330
90
100
AcDbEntity
  8
0
  6
Continuous
370
    13
100
AcDbLine
 10
-2059.979309053509
 20
739.0797900668127
 30
0.0
 11
-2076.140352413124
 21
746.1104566654419
 31
0.0
  0
LINE
  5
C6
330
90
100
AcDbEntity
  8
0
  6
Continuous
370
    13
100
AcDbLine
 10
-2076.140352413124
 20
730.6295492641392
 30
0.0
 11
-2059.979309053509
 21
737.66020952664
 31
0.0
  0
LINE
  5
C7
330
90
100
AcDbEntity
  8
0
  6
Continuous
370
    13
100
AcDbLine
 10
-2059.979309053509
 20
755.980643153288
 30
0.0
 11
-2076.140352413124
 21
763.0113097519173
 31
0.0
  0
LINE
  5
C8
330
90
100
AcDbEntity
  8
0
  6
Continuous
370
    13
100
AcDbLine
 10
-2076.140352413124
 20
747.5304023506145
 30
0.0
 11
-2059.979309053509
 21
754.5610626131153
 31
0.0
  0
LINE
  5
C9
330
90
100
AcDbEntity
  8
0
  6
Continuous
370
    13
100
AcDbLine
 10
-2059.979309053509
 20
772.8814962397635
 30
0.0
 11
-2076.140352413124
 21
779.9121628383928
 31
0.0
  0
LINE
  5
CA
330
90
100
AcDbEntity
  8
0
  6
Continuous
370
    13
100
AcDbLine
 10
-2076.140352413124
 20
764.4312554370899
 30
0.0
 11
-2059.979309053509
 21
771.4619156995907
 31
0.0
  0
LINE
  5
CB
330
90
100
AcDbEntity
  8
0
  6
Continuous
370
    13
100
AcDbLine
 10
-2059.979309053509
 20
789.7823493262388
 30
0.0
 11
-2076.140352413124
 21
796.8130159248681
 31
0.0
  0
LINE
  5
CC
330
90
100
AcDbEntity
  8
0
  6
Continuous
370
    13
100
AcDbLine
 10
-2076.140352413124
 20
781.3321085235652
 30
0.0
 11
-2059.979309053509
 21
788.362768786066
 31
0.0
  0
LINE
  5
CD
330
90
100
AcDbEntity
  8
0
  6
Continuous
370
    13
100
AcDbLine
 10
-2059.979309053509
 20
806.6832024127142
 30
0.0
 11
-2076.140352413124
 21
813.7138690113434
 31
0.0
  0
LINE
  5
CE
330
90
100
AcDbEntity
  8
0
  6
Continuous
370
    13
100
AcDbLine
 10
-2076.140352413124
 20
798.2329616100407
 30
0.0
 11
-2059.979309053509
 21
805.2636218725414
 31
0.0
  0
LINE
  5
CF
330
90
100
AcDbEntity
  8
0
  6
Continuous
370
    13
100
AcDbLine
 10
-2059.979309053509
 20
823.5840554991896
 30
0.0
 11
-2076.140352413124
 21
830.6147220978187
 31
0.0
  0
LINE
  5
D0
330
90
100
AcDbEntity
  8
0
  6
Continuous
370
    13
100
AcDbLine
 10
-2076.140352413124
 20
815.133814696516
 30
0.0
 11
-2059.979309053509
 21
822.1644749590168
 31
0.0
  0
LINE
  5
D1
330
90
100
AcDbEntity
  8
0
  6
Continuous
370
    13
100
AcDbLine
 10
-2059.979309053509
 20
840.484908585665
 30
0.0
 11
-2076.140352413124
 21
847.5155751842941
 31
0.0
  0
LINE
  5
D2
330
90
100
AcDbEntity
  8
0
  6
Continuous
370
    13
100
AcDbLine
 10
-2076.140352413124
 20
832.0346677829914
 30
0.0
 11
-2059.979309053509
 21
839.0653280454922
 31
0.0
  0
LINE
  5
D3
330
90
100
AcDbEntity
  8
0
  6
Continuous
370
    13
100
AcDbLine
 10
-2059.979309053509
 20
857.3857616721405
 30
0.0
 11
-2076.140352413124
 21
864.4164282707695
 31
0.0
  0
LINE
  5
D4
330
90
100
AcDbEntity
  8
0
  6
Continuous
370
    13
100
AcDbLine
 10
-2076.140352413124
 20
848.9355208694668
 30
0.0
 11
-2059.979309053509
 21
855.9661811319676
 31
0.0
  0
LINE
  5
D5
330
90
100
AcDbEntity
  8
0
  6
Continuous
370
    13
100
AcDbLine
 10
-2059.979309053509
 20
874.2866147586158
 30
0.0
 11
-2076.140352413124
 21
881.3172813572448
 31
0.0
  0
LINE
  5
D6
330
90
100
AcDbEntity
  8
0
  6
Continuous
370
    13
100
AcDbLine
 10
-2076.140352413124
 20
865.8363739559421
 30
0.0
 11
-2059.979309053509
 21
872.8670342184429
 31
0.0
  0
LINE
  5
D7
330
90
100
AcDbEntity
  8
0
  6
Continuous
370
    13
100
AcDbLine
 10
-2059.979309053509
 20
891.1874678450912
 30
0.0
 11
-2076.140352413124
 21
898.2181344437203
 31
0.0
  0
LINE
  5
D8
330
90
100
AcDbEntity
  8
0
  6
Continuous
370
    13
100
AcDbLine
 10
-2076.140352413124
 20
882.7372270424175
 30
0.0
 11
-2059.979309053509
 21
889.7678873049183
 31
0.0
  0
LINE
  5
D9
330
90
100
AcDbEntity
  8
0
  6
Continuous
370
    13
100
AcDbLine
 10
-2059.979309053509
 20
908.0883209315665
 30
0.0
 11
-2076.140352413124
 21
915.1189875301956
 31
0.0
  0
LINE
  5
DA
330
90
100
AcDbEntity
  8
0
  6
Continuous
370
    13
100
AcDbLine
 10
-2076.140352413124
 20
899.6380801288929
 30
0.0
 11
-2059.979309053509
 21
906.6687403913936
 31
0.0
  0
LINE
  5
DB
330
90
100
AcDbEntity
  8
0
  6
Continuous
370
    13
100
AcDbLine
 10
-2059.979309053509
 20
924.9891740180419
 30
0.0
 11
-2076.140352413124
 21
932.019840616671
 31
0.0
  0
LINE
  5
DC
330
90
100
AcDbEntity
  8
0
  6
Continuous
370
    13
100
AcDbLine
 10
-2076.140352413124
 20
916.5389332153683
 30
0.0
 11
-2059.979309053509
 21
923.569593477869
 31
0.0
  0
ELLIPSE
  5
DD
330
90
100
AcDbEntity
  8
0
  6
Continuous
370
    13
100
AcDbEllipse
 10
-2056.566585735497
 20
307.398433416207
 30
0.0
 11
-8.50693867459033
 21
1.041799521837988E-15
 31
0.0
210
0.0
220
0.0
230
1.0
 40
0.9933353820893682
 41
3.141592653589793
 42
5.125182398198052
  0
ELLIPSE
  5
DE
330
90
100
AcDbEntity
  8
0
  6
Continuous
370
    13
100
AcDbEllipse
 10
-2079.553078920515
 20
315.8486805550355
 30
0.0
 11
-8.50693867459033
 21
1.041799521837988E-15
 31
0.0
210
0.0
220
0.0
230
1.0
 40
0.9933353820893682
 41
4.299595219146344
 42
8.266774944004323
  0
ELLIPSE
  5
DF
330
90
100
AcDbEntity
  8
0
  6
Continuous
370
    13
100
AcDbEllipse
 10
-2056.566588924835
 20
324.2989181896556
 30
0.0
 11
-8.50693867459033
 21
1.041799521837988E-15
 31
0.0
210
0.0
220
0.0
230
1.0
 40
0.9933353820893682
 41
1.158003553206711
 42
5.125182741616042
  0
ELLIPSE
  5
E0
330
90
100
AcDbEntity
  8
0
  6
Continuous
370
    13
100
AcDbEllipse
 10
-2079.553078920515
 20
332.7495336415109
 30
0.0
 11
-8.50693867459033
 21
1.041799521837988E-15
 31
0.0
210
0.0
220
0.0
230
1.0
 40
0.9933353820893682
 41
4.299595219146344
 42
8.266774944004323
  0
ELLIPSE
  5
E1
330
90
100
AcDbEntity
  8
0
  6
Continuous
370
    13
100
AcDbEllipse
 10
-2056.566588924835
 20
341.1997712761309
 30
0.0
 11
-8.50693867459033
 21
1.041799521837988E-15
 31
0.0
210
0.0
220
0.0
230
1.0
 40
0.9933353820893682
 41
1.158003553206711
 42
5.125182741616042
  0
ELLIPSE
  5
E2
330
90
100
AcDbEntity
  8
0
  6
Continuous
370
    13
100
AcDbEllipse
 10
-2079.553078920515
 20
349.6503867279862
 30
0.0
 11
-8.50693867459033
 21
1.041799521837988E-15
 31
0.0
210
0.0
220
0.0
230
1.0
 40
0.9933353820893682
 41
4.299595219146344
 42
8.266774944004323
  0
ELLIPSE
  5
E3
330
90
100
AcDbEntity
  8
0
  6
Continuous
370
    13
100
AcDbEllipse
 10
-2056.566588924835
 20
358.1006243626063
 30
0.0
 11
-8.50693867459033
 21
1.041799521837988E-15
 31
0.0
210
0.0
220
0.0
230
1.0
 40
0.9933353820893682
 41
1.158003553206711
 42
5.125182741616042
  0
ELLIPSE
  5
E4
330
90
100
AcDbEntity
  8
0
  6
Continuous
370
    13
100
AcDbEllipse
 10
-2079.553078920515
 20
366.5512398144617
 30
0.0
 11
-8.50693867459033
 21
1.041799521837988E-15
 31
0.0
210
0.0
220
0.0
230
1.0
 40
0.9933353820893682
 41
4.299595219146344
 42
8.266774944004323
  0
ELLIPSE
  5
E5
330
90
100
AcDbEntity
  8
0
  6
Continuous
370
    13
100
AcDbEllipse
 10
-2056.566588924835
 20
375.0014774490817
 30
0.0
 11
-8.50693867459033
 21
1.041799521837988E-15
 31
0.0
210
0.0
220
0.0
230
1.0
 40
0.9933353820893682
 41
1.158003553206711
 42
5.125182741616042
  0
ELLIPSE
  5
E6
330
90
100
AcDbEntity
  8
0
  6
Continuous
370
    13
100
AcDbEllipse
 10
-2079.553078920515
 20
383.4520929009371
 30
0.0
 11
-8.50693867459033
 21
1.041799521837988E-15
 31
0.0
210
0.0
220
0.0
230
1.0
 40
0.9933353820893682
 41
4.299595219146344
 42
8.266774944004323
  0
ELLIPSE
  5
E7
330
90
100
AcDbEntity
  8
0
  6
Continuous
370
    13
100
AcDbEllipse
 10
-2056.566588924835
 20
391.9023305355571
 30
0.0
 11
-8.50693867459033
 21
1.041799521837988E-15
 31
0.0
210
0.0
220
0.0
230
1.0
 40
0.9933353820893682
 41
1.158003553206711
 42
5.125182741616042
  0
ELLIPSE
  5
E8
330
90
100
AcDbEntity
  8
0
  6
Continuous
370
    13
100
AcDbEllipse
 10
-2079.553078920515
 20
400.3529459874125
 30
0.0
 11
-8.50693867459033
 21
1.041799521837988E-15
 31
0.0
210
0.0
220
0.0
230
1.0
 40
0.9933353820893682
 41
4.299595219146344
 42
8.266774944004323
  0
ELLIPSE
  5
E9
330
90
100
AcDbEntity
  8
0
  6
Continuous
370
    13
100
AcDbEllipse
 10
-2056.566588924835
 20
408.8031836220325
 30
0.0
 11
-8.50693867459033
 21
1.041799521837988E-15
 31
0.0
210
0.0
220
0.0
230
1.0
 40
0.9933353820893682
 41
1.158003553206711
 42
5.125182741616042
  0
ELLIPSE
  5
EA
330
90
100
AcDbEntity
  8
0
  6
Continuous
370
    13
100
AcDbEllipse
 10
-2079.553078920515
 20
417.2537990738878
 30
0.0
 11
-8.50693867459033
 21
1.041799521837988E-15
 31
0.0
210
0.0
220
0.0
230
1.0
 40
0.9933353820893682
 41
4.299595219146344
 42
8.266774944004323
  0
ELLIPSE
  5
EB
330
90
100
AcDbEntity
  8
0
  6
Continuous
370
    13
100
AcDbEllipse
 10
-2056.566588924835
 20
425.7040367085079
 30
0.0
 11
-8.50693867459033
 21
1.041799521837988E-15
 31
0.0
210
0.0
220
0.0
230
1.0
 40
0.9933353820893682
 41
1.158003553206711
 42
5.125182741616042
  0
ELLIPSE
  5
EC
330
90
100
AcDbEntity
  8
0
  6
Continuous
370
    13
100
AcDbEllipse
 10
-2079.553078920515
 20
434.1546521603632
 30
0.0
 11
-8.50693867459033
 21
1.041799521837988E-15
 31
0.0
210
0.0
220
0.0
230
1.0
 40
0.9933353820893682
 41
4.299595219146344
 42
8.266774944004323
  0
ELLIPSE
  5
ED
330
90
100
AcDbEntity
  8
0
  6
Continuous
370
    13
100
AcDbEllipse
 10
-2056.566588924835
 20
442.6048897949833
 30
0.0
 11
-8.50693867459033
 21
1.041799521837988E-15
 31
0.0
210
0.0
220
0.0
230
1.0
 40
0.9933353820893682
 41
1.158003553206711
 42
5.125182741616042
  0
ELLIPSE
  5
EE
330
90
100
AcDbEntity
  8
0
  6
Continuous
370
    13
100
AcDbEllipse
 10
-2079.553078920515
 20
451.0555052468386
 30
0.0
 11
-8.50693867459033
 21
1.041799521837988E-15
 31
0.0
210
0.0
220
0.0
230
1.0
 40
0.9933353820893682
 41
4.299595219146344
 42
8.266774944004323
  0
ELLIPSE
  5
EF
330
90
100
AcDbEntity
  8
0
  6
Continuous
370
    13
100
AcDbEllipse
 10
-2056.566588924835
 20
459.5057428814586
 30
0.0
 11
-8.50693867459033
 21
1.041799521837988E-15
 31
0.0
210
0.0
220
0.0
230
1.0
 40
0.9933353820893682
 41
1.158003553206711
 42
5.125182741616042
  0
ELLIPSE
  5
F0
330
90
100
AcDbEntity
  8
0
  6
Continuous
370
    13
100
AcDbEllipse
 10
-2079.553078920515
 20
467.956358333314
 30
0.0
 11
-8.50693867459033
 21
1.041799521837988E-15
 31
0.0
210
0.0
220
0.0
230
1.0
 40
0.9933353820893682
 41
4.299595219146344
 42
8.266774944004323
  0
ELLIPSE
  5
F1
330
90
100
AcDbEntity
  8
0
  6
Continuous
370
    13
100
AcDbEllipse
 10
-2056.566588924835
 20
476.406595967934
 30
0.0
 11
-8.50693867459033
 21
1.041799521837988E-15
 31
0.0
210
0.0
220
0.0
230
1.0
 40
0.9933353820893682
 41
1.158003553206711
 42
5.125182741616042
  0
ELLIPSE
  5
F2
330
90
100
AcDbEntity
  8
0
  6
Continuous
370
    13
100
AcDbEllipse
 10
-2079.553078920515
 20
484.8572114197894
 30
0.0
 11
-8.50693867459033
 21
1.041799521837988E-15
 31
0.0
210
0.0
220
0.0
230
1.0
 40
0.9933353820893682
 41
4.299595219146344
 42
8.266774944004323
  0
ELLIPSE
  5
F3
330
90
100
AcDbEntity
  8
0
  6
Continuous
370
    13
100
AcDbEllipse
 10
-2056.566588924835
 20
493.3074490544094
 30
0.0
 11
-8.50693867459033
 21
1.041799521837988E-15
 31
0.0
210
0.0
220
0.0
230
1.0
 40
0.9933353820893682
 41
1.158003553206711
 42
5.125182741616042
  0
ELLIPSE
  5
F4
330
90
100
AcDbEntity
  8
0
  6
Continuous
370
    13
100
AcDbEllipse
 10
-2079.553078920515
 20
501.7580645062647
 30
0.0
 11
-8.50693867459033
 21
1.041799521837988E-15
 31
0.0
210
0.0
220
0.0
230
1.0
 40
0.9933353820893682
 41
4.299595219146344
 42
8.266774944004323
  0
ELLIPSE
  5
F5
330
90
100
AcDbEntity
  8
0
  6
Continuous
370
    13
100
AcDbEllipse
 10
-2056.566588924835
 20
510.2083021408848
 30
0.0
 11
-8.50693867459033
 21
1.041799521837988E-15
 31
0.0
210
0.0
220
0.0
230
1.0
 40
0.9933353820893682
 41
1.158003553206711
 42
5.125182741616042
  0
ELLIPSE
  5
F6
330
90
100
AcDbEntity
  8
0
  6
Continuous
370
    13
100
AcDbEllipse
 10
-2079.553078920515
 20
518.6589175927401
 30
0.0
 11
-8.50693867459033
 21
1.041799521837988E-15
 31
0.0
210
0.0
220
0.0
230
1.0
 40
0.9933353820893682
 41
4.299595219146344
 42
8.266774944004323
  0
ELLIPSE
  5
F7
330
90
100
AcDbEntity
  8
0
  6
Continuous
370
    13
100
AcDbEllipse
 10
-2056.566588924835
 20
527.1091552273601
 30
0.0
 11
-8.50693867459033
 21
1.041799521837988E-15
 31
0.0
210
0.0
220
0.0
230
1.0
 40
0.9933353820893682
 41
1.158003553206711
 42
5.125182741616042
  0
ELLIPSE
  5
F8
330
90
100
AcDbEntity
  8
0
  6
Continuous
370
    13
100
AcDbEllipse
 10
-2079.553078920515
 20
535.5597706792155
 30
0.0
 11
-8.50693867459033
 21
1.041799521837988E-15
 31
0.0
210
0.0
220
0.0
230
1.0
 40
0.9933353820893682
 41
4.299595219146344
 42
8.266774944004323
  0
ELLIPSE
  5
F9
330
90
100
AcDbEntity
  8
0
  6
Continuous
370
    13
100
AcDbEllipse
 10
-2056.566588924835
 20
544.0100083138356
 30
0.0
 11
-8.50693867459033
 21
1.041799521837988E-15
 31
0.0
210
0.0
220
0.0
230
1.0
 40
0.9933353820893682
 41
1.158003553206711
 42
5.125182741616042
  0
ELLIPSE
  5
FA
330
90
100
AcDbEntity
  8
0
  6
Continuous
370
    13
100
AcDbEllipse
 10
-2079.553078920515
 20
552.4606237656908
 30
0.0
 11
-8.50693867459033
 21
1.041799521837988E-15
 31
0.0
210
0.0
220
0.0
230
1.0
 40
0.9933353820893682
 41
4.299595219146344
 42
8.266774944004323
  0
ELLIPSE
  5
FB
330
90
100
AcDbEntity
  8
0
  6
Continuous
370
    13
100
AcDbEllipse
 10
-2056.566588924835
 20
560.9108614003109
 30
0.0
 11
-8.50693867459033
 21
1.041799521837988E-15
 31
0.0
210
0.0
220
0.0
230
1.0
 40
0.9933353820893682
 41
1.158003553206711
 42
5.125182741616042
  0
ELLIPSE
  5
FC
330
90
100
AcDbEntity
  8
0
  6
Continuous
370
    13
100
AcDbEllipse
 10
-2079.553078920515
 20
569.3614768521662
 30
0.0
 11
-8.50693867459033
 21
1.041799521837988E-15
 31
0.0
210
0.0
220
0.0
230
1.0
 40
0.9933353820893682
 41
4.299595219146344
 42
8.266774944004323
  0
ELLIPSE
  5
FD
330
90
100
AcDbEntity
  8
0
  6
Continuous
370
    13
100
AcDbEllipse
 10
-2056.566588924835
 20
577.8117144867863
 30
0.0
 11
-8.50693867459033
 21
1.041799521837988E-15
 31
0.0
210
0.0
220
0.0
230
1.0
 40
0.9933353820893682
 41
1.158003553206711
 42
5.125182741615994
  0
ELLIPSE
  5
FE
330
90
100
AcDbEntity
  8
0
  6
Continuous
370
    13
100
AcDbEllipse
 10
-2079.553078920515
 20
586.2623299386415
 30
0.0
 11
-8.50693867459033
 21
1.041799521837988E-15
 31
0.0
210
0.0
220
0.0
230
1.0
 40
0.9933353820893682
 41
4.299595219146344
 42
8.266774944004323
  0
ELLIPSE
  5
FF
330
90
100
AcDbEntity
  8
0
  6
Continuous
370
    13
100
AcDbEllipse
 10
-2056.566588924835
 20
594.7125675732616
 30
0.0
 11
-8.50693867459033
 21
1.041799521837988E-15
 31
0.0
210
0.0
220
0.0
230
1.0
 40
0.9933353820893682
 41
1.158003553206711
 42
5.125182741615994
  0
ELLIPSE
  5
100
330
90
100
AcDbEntity
  8
0
  6
Continuous
370
    13
100
AcDbEllipse
 10
-2079.553078920515
 20
603.163183025117
 30
0.0
 11
-8.50693867459033
 21
1.041799521837988E-15
 31
0.0
210
0.0
220
0.0
230
1.0
 40
0.9933353820893682
 41
4.299595219146344
 42
8.266774944004323
  0
ELLIPSE
  5
101
330
90
100
AcDbEntity
  8
0
  6
Continuous
370
    13
100
AcDbEllipse
 10
-2056.566588924835
 20
611.613420659737
 30
0.0
 11
-8.50693867459033
 21
1.041799521837988E-15
 31
0.0
210
0.0
220
0.0
230
1.0
 40
0.9933353820893682
 41
1.158003553206711
 42
5.125182741615994
  0
ELLIPSE
  5
102
330
90
100
AcDbEntity
  8
0
  6
Continuous
370
    13
100
AcDbEllipse
 10
-2079.553078920515
 20
620.0640361115924
 30
0.0
 11
-8.50693867459033
 21
1.041799521837988E-15
 31
0.0
210
0.0
220
0.0
230
1.0
 40
0.9933353820893682
 41
4.299595219146344
 42
8.266774944004323
  0
ELLIPSE
  5
103
330
90
100
AcDbEntity
  8
0
  6
Continuous
370
    13
100
AcDbEllipse
 10
-2056.566588924835
 20
628.5142737462124
 30
0.0
 11
-8.50693867459033
 21
1.041799521837988E-15
 31
0.0
210
0.0
220
0.0
230
1.0
 40
0.9933353820893682
 41
1.158003553206711
 42
5.125182741615994
  0
ELLIPSE
  5
104
330
90
100
AcDbEntity
  8
0
  6
Continuous
370
    13
100
AcDbEllipse
 10
-2079.553078920515
 20
636.9648891980677
 30
0.0
 11
-8.50693867459033
 21
1.041799521837988E-15
 31
0.0
210
0.0
220
0.0
230
1.0
 40
0.9933353820893682
 41
4.299595219146344
 42
8.266774944004323
  0
ELLIPSE
  5
105
330
90
100
AcDbEntity
  8
0
  6
Continuous
370
    13
100
AcDbEllipse
 10
-2056.566588924835
 20
645.4151268326877
 30
0.0
 11
-8.50693867459033
 21
1.041799521837988E-15
 31
0.0
210
0.0
220
0.0
230
1.0
 40
0.9933353820893682
 41
1.158003553206711
 42
5.125182741615994
  0
ELLIPSE
  5
106
330
90
100
AcDbEntity
  8
0
  6
Continuous
370
    13
100
AcDbEllipse
 10
-2079.553078920515
 20
653.8657422845431
 30
0.0
 11
-8.50693867459033
 21
1.041799521837988E-15
 31
0.0
210
0.0
220
0.0
230
1.0
 40
0.9933353820893682
 41
4.299595219146344
 42
8.266774944004323
  0
ELLIPSE
  5
107
330
90
100
AcDbEntity
  8
0
  6
Continuous
370
    13
100
AcDbEllipse
 10
-2056.566588924835
 20
662.3159799191632
 30
0.0
 11
-8.50693867459033
 21
1.041799521837988E-15
 31
0.0
210
0.0
220
0.0
230
1.0
 40
0.9933353820893682
 41
1.158003553206711
 42
5.125182741615994
  0
ELLIPSE
  5
108
330
90
100
AcDbEntity
  8
0
  6
Continuous
370
    13
100
AcDbEllipse
 10
-2079.553078920515
 20
670.7665953710184
 30
0.0
 11
-8.50693867459033
 21
1.041799521837988E-15
 31
0.0
210
0.0
220
0.0
230
1.0
 40
0.9933353820893682
 41
4.299595219146344
 42
8.266774944004323
  0
ELLIPSE
  5
109
330
90
100
AcDbEntity
  8
0
  6
Continuous
370
    13
100
AcDbEllipse
 10
-2056.566588924835
 20
679.2168330056385
 30
0.0
 11
-8.50693867459033
 21
1.041799521837988E-15
 31
0.0
210
0.0
220
0.0
230
1.0
 40
0.9933353820893682
 41
1.158003553206711
 42
5.125182741615994
  0
ELLIPSE
  5
10A
330
90
100
AcDbEntity
  8
0
  6
Continuous
370
    13
100
AcDbEllipse
 10
-2079.553078920515
 20
687.6674484574938
 30
0.0
 11
-8.50693867459033
 21
1.041799521837988E-15
 31
0.0
210
0.0
220
0.0
230
1.0
 40
0.9933353820893682
 41
4.299595219146344
 42
8.266774944004323
  0
ELLIPSE
  5
10B
330
90
100
AcDbEntity
  8
0
  6
Continuous
370
    13
100
AcDbEllipse
 10
-2056.566588924835
 20
696.1176860921139
 30
0.0
 11
-8.50693867459033
 21
1.041799521837988E-15
 31
0.0
210
0.0
220
0.0
230
1.0
 40
0.9933353820893682
 41
1.158003553206711
 42
5.125182741615994
  0
ELLIPSE
  5
10C
330
90
100
AcDbEntity
  8
0
  6
Continuous
370
    13
100
AcDbEllipse
 10
-2079.553078920515
 20
704.5683015439693
 30
0.0
 11
-8.50693867459033
 21
1.041799521837988E-15
 31
0.0
210
0.0
220
0.0
230
1.0
 40
0.9933353820893682
 41
4.299595219146344
 42
8.266774944004323
  0
ELLIPSE
  5
10D
330
90
100
AcDbEntity
  8
0
  6
Continuous
370
    13
100
AcDbEllipse
 10
-2056.566588924835
 20
713.0185391785892
 30
0.0
 11
-8.50693867459033
 21
1.041799521837988E-15
 31
0.0
210
0.0
220
0.0
230
1.0
 40
0.9933353820893682
 41
1.158003553206711
 42
5.125182741615994
  0
ELLIPSE
  5
10E
330
90
100
AcDbEntity
  8
0
  6
Continuous
370
    13
100
AcDbEllipse
 10
-2079.553078920515
 20
721.4691546304446
 30
0.0
 11
-8.50693867459033
 21
1.041799521837988E-15
 31
0.0
210
0.0
220
0.0
230
1.0
 40
0.9933353820893682
 41
4.299595219146344
 42
8.266774944004323
  0
ELLIPSE
  5
10F
330
90
100
AcDbEntity
  8
0
  6
Continuous
370
    13
100
AcDbEllipse
 10
-2056.566588924835
 20
729.9193922650646
 30
0.0
 11
-8.50693867459033
 21
1.041799521837988E-15
 31
0.0
210
0.0
220
0.0
230
1.0
 40
0.9933353820893682
 41
1.158003553206711
 42
5.125182741615994
  0
ELLIPSE
  5
110
330
90
100
AcDbEntity
  8
0
  6
Continuous
370
    13
100
AcDbEllipse
 10
-2079.553078920515
 20
738.37000771692
 30
0.0
 11
-8.50693867459033
 21
1.041799521837988E-15
 31
0.0
210
0.0
220
0.0
230
1.0
 40
0.9933353820893682
 41
4.299595219146344
 42
8.266774944004323
  0
ELLIPSE
  5
111
330
90
100
AcDbEntity
  8
0
  6
Continuous
370
    13
100
AcDbEllipse
 10
-2056.566588924835
 20
746.82024535154
 30
0.0
 11
-8.50693867459033
 21
1.041799521837988E-15
 31
0.0
210
0.0
220
0.0
230
1.0
 40
0.9933353820893682
 41
1.158003553206711
 42
5.125182741615994
  0
ELLIPSE
  5
112
330
90
100
AcDbEntity
  8
0
  6
Continuous
370
    13
100
AcDbEllipse
 10
-2079.553078920515
 20
755.2708608033953
 30
0.0
 11
-8.50693867459033
 21
1.041799521837988E-15
 31
0.0
210
0.0
220
0.0
230
1.0
 40
0.9933353820893682
 41
4.299595219146344
 42
8.266774944004323
  0
ELLIPSE
  5
113
330
90
100
AcDbEntity
  8
0
  6
Continuous
370
    13
100
AcDbEllipse
 10
-2056.566588924835
 20
763.7210984380154
 30
0.0
 11
-8.50693867459033
 21
1.041799521837988E-15
 31
0.0
210
0.0
220
0.0
230
1.0
 40
0.9933353820893682
 41
1.158003553206711
 42
5.125182741615994
  0
ELLIPSE
  5
114
330
90
100
AcDbEntity
  8
0
  6
Continuous
370
    13
100
AcDbEllipse
 10
-2079.553078920515
 20
772.1717138898707
 30
0.0
 11
-8.50693867459033
 21
1.041799521837988E-15
 31
0.0
210
0.0
220
0.0
230
1.0
 40
0.9933353820893682
 41
4.299595219146344
 42
8.266774944004323
  0
ELLIPSE
  5
115
330
90
100
AcDbEntity
  8
0
  6
Continuous
370
    13
100
AcDbEllipse
 10
-2056.566588924835
 20
780.6219515244908
 30
0.0
 11
-8.50693867459033
 21
1.041799521837988E-15
 31
0.0
210
0.0
220
0.0
230
1.0
 40
0.9933353820893682
 41
1.158003553206711
 42
5.125182741615994
  0
ELLIPSE
  5
116
330
90
100
AcDbEntity
  8
0
  6
Continuous
370
    13
100
AcDbEllipse
 10
-2079.553078920515
 20
789.0725669763461
 30
0.0
 11
-8.50693867459033
 21
1.041799521837988E-15
 31
0.0
210
0.0
220
0.0
230
1.0
 40
0.9933353820893682
 41
4.299595219146344
 42
8.266774944004323
  0
ELLIPSE
  5
117
330
90
100
AcDbEntity
  8
0
  6
Continuous
370
    13
100
AcDbEllipse
 10
-2056.566588924835
 20
797.5228046109661
 30
0.0
 11
-8.50693867459033
 21
1.041799521837988E-15
 31
0.0
210
0.0
220
0.0
230
1.0
 40
0.9933353820893682
 41
1.158003553206711
 42
5.125182741615994
  0
ELLIPSE
  5
118
330
90
100
AcDbEntity
  8
0
  6
Continuous
370
    13
100
AcDbEllipse
 10
-2079.553078920515
 20
805.9734200628214
 30
0.0
 11
-8.50693867459033
 21
1.041799521837988E-15
 31
0.0
210
0.0
220
0.0
230
1.0
 40
0.9933353820893682
 41
4.299595219146344
 42
8.266774944004323
  0
ELLIPSE
  5
119
330
90
100
AcDbEntity
  8
0
  6
Continuous
370
    13
100
AcDbEllipse
 10
-2056.566588924835
 20
814.4236576974415
 30
0.0
 11
-8.50693867459033
 21
1.041799521837988E-15
 31
0.0
210
0.0
220
0.0
230
1.0
 40
0.9933353820893682
 41
1.158003553206711
 42
5.125182741615994
  0
ELLIPSE
  5
11A
330
90
100
AcDbEntity
  8
0
  6
Continuous
370
    13
100
AcDbEllipse
 10
-2079.553078920515
 20
822.8742731492969
 30
0.0
 11
-8.50693867459033
 21
1.041799521837988E-15
 31
0.0
210
0.0
220
0.0
230
1.0
 40
0.9933353820893682
 41
4.299595219146344
 42
8.266774944004323
  0
ELLIPSE
  5
11B
330
90
100
AcDbEntity
  8
0
  6
Continuous
370
    13
100
AcDbEllipse
 10
-2056.566588924835
 20
831.3245107839169
 30
0.0
 11
-8.50693867459033
 21
1.041799521837988E-15
 31
0.0
210
0.0
220
0.0
230
1.0
 40
0.9933353820893682
 41
1.158003553206711
 42
5.125182741615994
  0
ELLIPSE
  5
11C
330
90
100
AcDbEntity
  8
0
  6
Continuous
370
    13
100
AcDbEllipse
 10
-2079.553078920515
 20
839.7751262357722
 30
0.0
 11
-8.50693867459033
 21
1.041799521837988E-15
 31
0.0
210
0.0
220
0.0
230
1.0
 40
0.9933353820893682
 41
4.299595219146344
 42
8.266774944004323
  0
ELLIPSE
  5
11D
330
90
100
AcDbEntity
  8
0
  6
Continuous
370
    13
100
AcDbEllipse
 10
-2056.566588924835
 20
848.2253638703922
 30
0.0
 11
-8.50693867459033
 21
1.041799521837988E-15
 31
0.0
210
0.0
220
0.0
230
1.0
 40
0.9933353820893682
 41
1.158003553206711
 42
5.125182741615994
  0
ELLIPSE
  5
11E
330
90
100
AcDbEntity
  8
0
  6
Continuous
370
    13
100
AcDbEllipse
 10
-2079.553078920515
 20
856.6759793222476
 30
0.0
 11
-8.50693867459033
 21
1.041799521837988E-15
 31
0.0
210
0.0
220
0.0
230
1.0
 40
0.9933353820893682
 41
4.299595219146344
 42
8.266774944004323
  0
ELLIPSE
  5
11F
330
90
100
AcDbEntity
  8
0
  6
Continuous
370
    13
100
AcDbEllipse
 10
-2056.566588924835
 20
865.1262169568677
 30
0.0
 11
-8.50693867459033
 21
1.041799521837988E-15
 31
0.0
210
0.0
220
0.0
230
1.0
 40
0.9933353820893682
 41
1.158003553206711
 42
5.125182741615994
  0
ELLIPSE
  5
120
330
90
100
AcDbEntity
  8
0
  6
Continuous
370
    13
100
AcDbEllipse
 10
-2079.553078920515
 20
873.576832408723
 30
0.0
 11
-8.50693867459033
 21
1.041799521837988E-15
 31
0.0
210
0.0
220
0.0
230
1.0
 40
0.9933353820893682
 41
4.299595219146344
 42
8.266774944004323
  0
ELLIPSE
  5
121
330
90
100
AcDbEntity
  8
0
  6
Continuous
370
    13
100
AcDbEllipse
 10
-2056.566588924835
 20
882.027070043343
 30
0.0
 11
-8.50693867459033
 21
1.041799521837988E-15
 31
0.0
210
0.0
220
0.0
230
1.0
 40
0.9933353820893682
 41
1.158003553206711
 42
5.125182741615994
  0
ELLIPSE
  5
122
330
90
100
AcDbEntity
  8
0
  6
Continuous
370
    13
100
AcDbEllipse
 10
-2079.553078920515
 20
890.4776854951983
 30
0.0
 11
-8.50693867459033
 21
1.041799521837988E-15
 31
0.0
210
0.0
220
0.0
230
1.0
 40
0.9933353820893682
 41
4.299595219146344
 42
8.266774944004323
  0
ELLIPSE
  5
123
330
90
100
AcDbEntity
  8
0
  6
Continuous
370
    13
100
AcDbEllipse
 10
-2056.566588924835
 20
898.9279231298184
 30
0.0
 11
-8.50693867459033
 21
1.041799521837988E-15
 31
0.0
210
0.0
220
0.0
230
1.0
 40
0.9933353820893682
 41
1.158003553206711
 42
5.125182741615994
  0
ELLIPSE
  5
124
330
90
100
AcDbEntity
  8
0
  6
Continuous
370
    13
100
AcDbEllipse
 10
-2079.553078920515
 20
907.3785385816738
 30
0.0
 11
-8.50693867459033
 21
1.041799521837988E-15
 31
0.0
210
0.0
220
0.0
230
1.0
 40
0.9933353820893682
 41
4.299595219146344
 42
8.266774944004323
  0
ELLIPSE
  5
125
330
90
100
AcDbEntity
  8
0
  6
Continuous
370
    13
100
AcDbEllipse
 10
-2056.566588924835
 20
915.8287762162938
 30
0.0
 11
-8.50693867459033
 21
1.041799521837988E-15
 31
0.0
210
0.0
220
0.0
230
1.0
 40
0.9933353820893682
 41
1.158003553206711
 42
5.125182741615994
  0
ELLIPSE
  5
126
330
90
100
AcDbEntity
  8
0
  6
Continuous
370
    13
100
AcDbEllipse
 10
-2079.553078920515
 20
924.2793916681491
 30
0.0
 11
-8.50693867459033
 21
1.041799521837988E-15
 31
0.0
210
0.0
220
0.0
230
1.0
 40
0.9933353820893682
 41
4.299595219146344
 42
8.266774944004323
  0
ELLIPSE
  5
127
330
90
100
AcDbEntity
  8
0
  6
Continuous
370
    13
100
AcDbEllipse
 10
-2056.566588924835
 20
932.7296293027691
 30
0.0
 11
-8.50693867459033
 21
1.041799521837988E-15
 31
0.0
210
0.0
220
0.0
230
1.0
 40
0.9933353820893682
 41
1.158003553206711
 42
3.141592653589793
  0
ENDBLK
  5
92
330
90
100
AcDbEntity
  8
0
100
AcDbBlockEnd
  0
BLOCK
  5
12A
330
129
100
AcDbEntity
  8
0
100
AcDbBlockBegin
  2
Izolacja cieplna 12_37_2
 70
     0
 10
-2048.059647858244
 20
946.827772018854
 30
0.0
  3
Izolacja cieplna 12_37_2
  1

  0
LINE
  5
12C
330
129
100
AcDbEntity
  8
0
  6
Continuous
370
    13
100
AcDbLine
 10
-2059.979309053509
 20
955.4092205111878
 30
0.0
 11
-2076.140352413124
 21
961.9958044689353
 31
0.0
  0
LINE
  5
12D
330
129
100
AcDbEntity
  8
0
  6
Continuous
370
    13
100
AcDbLine
 10
-2076.140352413124
 20
947.4927278530312
 30
0.0
 11
-2059.979309053509
 21
954.0793058748634
 31
0.0
  0
LINE
  5
12E
330
129
100
AcDbEntity
  8
0
  6
Continuous
370
    13
100
AcDbLine
 10
-2059.979309053509
 20
971.2425538445211
 30
0.0
 11
-2076.140352413124
 21
977.8291378022686
 31
0.0
  0
LINE
  5
12F
330
129
100
AcDbEntity
  8
0
  6
Continuous
370
    13
100
AcDbLine
 10
-2076.140352413124
 20
963.3260611863644
 30
0.0
 11
-2059.979309053509
 21
969.9126392081967
 31
0.0
  0
LINE
  5
130
330
129
100
AcDbEntity
  8
0
  6
Continuous
370
    13
100
AcDbLine
 10
-2059.979309053509
 20
987.0758871778544
 30
0.0
 11
-2076.140352413124
 21
993.6624711356019
 31
0.0
  0
LINE
  5
131
330
129
100
AcDbEntity
  8
0
  6
Continuous
370
    13
100
AcDbLine
 10
-2076.140352413124
 20
979.1593945196978
 30
0.0
 11
-2059.979309053509
 21
985.74597254153
 31
0.0
  0
LINE
  5
132
330
129
100
AcDbEntity
  8
0
  6
Continuous
370
    13
100
AcDbLine
 10
-2059.979309053509
 20
1002.909220511188
 30
0.0
 11
-2076.140352413124
 21
1009.495804468935
 31
0.0
  0
LINE
  5
133
330
129
100
AcDbEntity
  8
0
  6
Continuous
370
    13
100
AcDbLine
 10
-2076.140352413124
 20
994.9927278530312
 30
0.0
 11
-2059.979309053509
 21
1001.579305874863
 31
0.0
  0
LINE
  5
134
330
129
100
AcDbEntity
  8
0
  6
Continuous
370
    13
100
AcDbLine
 10
-2059.979309053509
 20
1018.742553844521
 30
0.0
 11
-2076.140352413124
 21
1025.329137802269
 31
0.0
  0
LINE
  5
135
330
129
100
AcDbEntity
  8
0
  6
Continuous
370
    13
100
AcDbLine
 10
-2076.140352413124
 20
1010.826061186364
 30
0.0
 11
-2059.979309053509
 21
1017.412639208197
 31
0.0
  0
LINE
  5
136
330
129
100
AcDbEntity
  8
0
  6
Continuous
370
    13
100
AcDbLine
 10
-2059.979309053509
 20
1034.575887177854
 30
0.0
 11
-2076.140352413124
 21
1041.162471135602
 31
0.0
  0
LINE
  5
137
330
129
100
AcDbEntity
  8
0
  6
Continuous
370
    13
100
AcDbLine
 10
-2076.140352413124
 20
1026.659394519698
 30
0.0
 11
-2059.979309053509
 21
1033.24597254153
 31
0.0
  0
ELLIPSE
  5
138
330
129
100
AcDbEntity
  8
0
  6
Continuous
370
    13
100
AcDbEllipse
 10
-2056.566585735497
 20
946.827772018854
 30
0.0
 11
-8.50693867459033
 21
1.041799521837988E-15
 31
0.0
210
0.0
220
0.0
230
1.0
 40
0.9305926828629083
 41
3.141592653589793
 42
5.125182398198069
  0
ELLIPSE
  5
139
330
129
100
AcDbEntity
  8
0
  6
Continuous
370
    13
100
AcDbEllipse
 10
-2079.553078920515
 20
954.7442706129508
 30
0.0
 11
-8.50693867459033
 21
1.041799521837988E-15
 31
0.0
210
0.0
220
0.0
230
1.0
 40
0.9305926828629083
 41
4.299595219146322
 42
8.266774944004323
  0
ELLIPSE
  5
13A
330
129
100
AcDbEntity
  8
0
  6
Continuous
370
    13
100
AcDbEllipse
 10
-2056.566588924835
 20
962.6607603031597
 30
0.0
 11
-8.50693867459033
 21
1.041799521837988E-15
 31
0.0
210
0.0
220
0.0
230
1.0
 40
0.9305926828629083
 41
1.158003553206738
 42
5.125182741616042
  0
ELLIPSE
  5
13B
330
129
100
AcDbEntity
  8
0
  6
Continuous
370
    13
100
AcDbEllipse
 10
-2079.553078920515
 20
970.5776039462842
 30
0.0
 11
-8.50693867459033
 21
1.041799521837988E-15
 31
0.0
210
0.0
220
0.0
230
1.0
 40
0.9305926828629083
 41
4.299595219146322
 42
8.266774944004323
  0
ELLIPSE
  5
13C
330
129
100
AcDbEntity
  8
0
  6
Continuous
370
    13
100
AcDbEllipse
 10
-2056.566588924835
 20
978.494093636493
 30
0.0
 11
-8.50693867459033
 21
1.041799521837988E-15
 31
0.0
210
0.0
220
0.0
230
1.0
 40
0.9305926828629083
 41
1.158003553206738
 42
5.125182741616042
  0
ELLIPSE
  5
13D
330
129
100
AcDbEntity
  8
0
  6
Continuous
370
    13
100
AcDbEllipse
 10
-2079.553078920515
 20
986.4109372796174
 30
0.0
 11
-8.50693867459033
 21
1.041799521837988E-15
 31
0.0
210
0.0
220
0.0
230
1.0
 40
0.9305926828629083
 41
4.299595219146322
 42
8.266774944004323
  0
ELLIPSE
  5
13E
330
129
100
AcDbEntity
  8
0
  6
Continuous
370
    13
100
AcDbEllipse
 10
-2056.566588924835
 20
994.3274269698263
 30
0.0
 11
-8.50693867459033
 21
1.041799521837988E-15
 31
0.0
210
0.0
220
0.0
230
1.0
 40
0.9305926828629083
 41
1.158003553206738
 42
5.125182741616042
  0
ELLIPSE
  5
13F
330
129
100
AcDbEntity
  8
0
  6
Continuous
370
    13
100
AcDbEllipse
 10
-2079.553078920515
 20
1002.244270612951
 30
0.0
 11
-8.50693867459033
 21
1.041799521837988E-15
 31
0.0
210
0.0
220
0.0
230
1.0
 40
0.9305926828629083
 41
4.299595219146322
 42
8.266774944004323
  0
ELLIPSE
  5
140
330
129
100
AcDbEntity
  8
0
  6
Continuous
370
    13
100
AcDbEllipse
 10
-2056.566588924835
 20
1010.16076030316
 30
0.0
 11
-8.50693867459033
 21
1.041799521837988E-15
 31
0.0
210
0.0
220
0.0
230
1.0
 40
0.9305926828629083
 41
1.158003553206687
 42
5.125182741616042
  0
ELLIPSE
  5
141
330
129
100
AcDbEntity
  8
0
  6
Continuous
370
    13
100
AcDbEllipse
 10
-2079.553078920515
 20
1018.077603946284
 30
0.0
 11
-8.50693867459033
 21
1.041799521837988E-15
 31
0.0
210
0.0
220
0.0
230
1.0
 40
0.9305926828629083
 41
4.299595219146322
 42
8.266774944004323
  0
ELLIPSE
  5
142
330
129
100
AcDbEntity
  8
0
  6
Continuous
370
    13
100
AcDbEllipse
 10
-2056.566588924835
 20
1025.994093636493
 30
0.0
 11
-8.50693867459033
 21
1.041799521837988E-15
 31
0.0
210
0.0
220
0.0
230
1.0
 40
0.9305926828629083
 41
1.158003553206687
 42
5.125182741616042
  0
ELLIPSE
  5
143
330
129
100
AcDbEntity
  8
0
  6
Continuous
370
    13
100
AcDbEllipse
 10
-2079.553078920515
 20
1033.910937279618
 30
0.0
 11
-8.50693867459033
 21
1.041799521837988E-15
 31
0.0
210
0.0
220
0.0
230
1.0
 40
0.9305926828629083
 41
4.299595219146322
 42
8.266774944004323
  0
ELLIPSE
  5
144
330
129
100
AcDbEntity
  8
0
  6
Continuous
370
    13
100
AcDbEllipse
 10
-2056.566588924835
 20
1041.827426969827
 30
0.0
 11
-8.50693867459033
 21
1.041799521837988E-15
 31
0.0
210
0.0
220
0.0
230
1.0
 40
0.9305926828629083
 41
1.158003553206687
 42
3.141592653589793
  0
ENDBLK
  5
12B
330
129
100
AcDbEntity
  8
0
100
AcDbBlockEnd
  0
BLOCK
  5
147
330
146
100
AcDbEntity
  8
0
100
AcDbBlockBegin
  2
Sygnał termostatu 12
 70
     2
 10
0.0
 20
0.0
 30
0.0
  3
Sygnał termostatu 12
  1

  0
CIRCLE
  5
149
330
146
100
AcDbEntity
  8
@__WIDOCZNE
  6
Continuous
370
    13
100
AcDbCircle
 10
0.0
 20
0.0
 30
0.0
 40
15.0
  0
ATTDEF
  5
14B
330
146
100
AcDbEntity
  8
@__WIDOCZNE
370
    13
100
AcDbText
 10
-11.38287500000024
 20
-6.642846428571491
 30
0.0
 40
15.0
  1
05
  7
GENERATED_STYLE_1
 11
-11.38287500000024
 21
-11.07604955357149
 31
0.0
100
AcDbAttributeDefinition
  3
Tekst
  2
txt
 70
     0
 74
     1
  0
ENDBLK
  5
148
330
146
100
AcDbEntity
  8
0
100
AcDbBlockEnd
  0
BLOCK
  5
150
330
14F
100
AcDbEntity
  8
0
100
AcDbBlockBegin
  2
Sygnał termostatu 12_2
 70
     2
 10
0.0
 20
0.0
 30
0.0
  3
Sygnał termostatu 12_2
  1

  0
CIRCLE
  5
152
330
14F
100
AcDbEntity
  8
@__WIDOCZNE
  6
Continuous
370
    13
100
AcDbCircle
 10
0.0
 20
0.0
 30
0.0
 40
15.0
  0
ATTDEF
  5
153
330
14F
100
AcDbEntity
  8
@__WIDOCZNE
370
    13
100
AcDbText
 10
-11.38287500000024
 20
-6.642846428571491
 30
0.0
 40
15.0
  1
06
  7
GENERATED_STYLE_1
 11
-11.38287500000024
 21
-11.07604955357149
 31
0.0
100
AcDbAttributeDefinition
  3
Tekst
  2
txt
 70
     0
 74
     1
  0
ENDBLK
  5
151
330
14F
100
AcDbEntity
  8
0
100
AcDbBlockEnd
  0
BLOCK
  5
158
330
157
100
AcDbEntity
  8
0
100
AcDbBlockBegin
  2
Sygnał termostatu 12_3
 70
     2
 10
0.0
 20
0.0
 30
0.0
  3
Sygnał termostatu 12_3
  1

  0
CIRCLE
  5
15A
330
157
100
AcDbEntity
  8
@__WIDOCZNE
  6
Continuous
370
    13
100
AcDbCircle
 10
0.0
 20
0.0
 30
0.0
 40
15.0
  0
ATTDEF
  5
15B
330
157
100
AcDbEntity
  8
@__WIDOCZNE
370
    13
100
AcDbText
 10
-11.38287500000024
 20
-6.642846428571491
 30
0.0
 40
15.0
  1
04
  7
GENERATED_STYLE_1
 11
-11.38287500000024
 21
-11.07604955357149
 31
0.0
100
AcDbAttributeDefinition
  3
Tekst
  2
txt
 70
     0
 74
     1
  0
ENDBLK
  5
159
330
157
100
AcDbEntity
  8
0
100
AcDbBlockEnd
  0
BLOCK
  5
160
330
15F
100
AcDbEntity
  8
0
100
AcDbBlockBegin
  2
Sygnał termostatu 12_4
 70
     2
 10
0.0
 20
0.0
 30
0.0
  3
Sygnał termostatu 12_4
  1

  0
CIRCLE
  5
162
330
15F
100
AcDbEntity
  8
@__WIDOCZNE
  6
Continuous
370
    13
100
AcDbCircle
 10
0.0
 20
0.0
 30
0.0
 40
15.0
  0
ATTDEF
  5
163
330
15F
100
AcDbEntity
  8
@__WIDOCZNE
370
    13
100
AcDbText
 10
-11.38287500000024
 20
-6.642846428571491
 30
0.0
 40
15.0
  1
01
  7
GENERATED_STYLE_1
 11
-11.38287500000024
 21
-11.07604955357149
 31
0.0
100
AcDbAttributeDefinition
  3
Tekst
  2
txt
 70
     0
 74
     1
  0
ENDBLK
  5
161
330
15F
100
AcDbEntity
  8
0
100
AcDbBlockEnd
  0
BLOCK
  5
168
330
167
100
AcDbEntity
  8
0
100
AcDbBlockBegin
  2
Sygnał termostatu 12_5
 70
     2
 10
0.0
 20
0.0
 30
0.0
  3
Sygnał termostatu 12_5
  1

  0
CIRCLE
  5
16A
330
167
100
AcDbEntity
  8
@__WIDOCZNE
  6
Continuous
370
    13
100
AcDbCircle
 10
0.0
 20
0.0
 30
0.0
 40
15.0
  0
ATTDEF
  5
16B
330
167
100
AcDbEntity
  8
@__WIDOCZNE
370
    13
100
AcDbText
 10
-11.38287500000024
 20
-6.642846428571491
 30
0.0
 40
15.0
  1
02
  7
GENERATED_STYLE_1
 11
-11.38287500000024
 21
-11.07604955357149
 31
0.0
100
AcDbAttributeDefinition
  3
Tekst
  2
txt
 70
     0
 74
     1
  0
ENDBLK
  5
169
330
167
100
AcDbEntity
  8
0
100
AcDbBlockEnd
  0
BLOCK
  5
170
330
16F
100
AcDbEntity
  8
0
100
AcDbBlockBegin
  2
Sygnał termostatu 12_6
 70
     2
 10
0.0
 20
0.0
 30
0.0
  3
Sygnał termostatu 12_6
  1

  0
CIRCLE
  5
172
330
16F
100
AcDbEntity
  8
@__WIDOCZNE
  6
Continuous
370
    13
100
AcDbCircle
 10
0.0
 20
0.0
 30
0.0
 40
15.0
  0
ATTDEF
  5
173
330
16F
100
AcDbEntity
  8
@__WIDOCZNE
370
    13
100
AcDbText
 10
-11.38287500000024
 20
-6.642846428571491
 30
0.0
 40
15.0
  1
03
  7
GENERATED_STYLE_1
 11
-11.38287500000024
 21
-11.07604955357149
 31
0.0
100
AcDbAttributeDefinition
  3
Tekst
  2
txt
 70
     0
 74
     1
  0
ENDBLK
  5
171
330
16F
100
AcDbEntity
  8
0
100
AcDbBlockEnd
  0
BLOCK
  5
178
330
177
100
AcDbEntity
  8
0
100
AcDbBlockBegin
  2
InsulFib_zygzak_JS_2016_v12
 70
     0
 10
0.0
 20
0.0
 30
0.0
  3
InsulFib_zygzak_JS_2016_v12
  1

  0
LINE
  5
17A
330
177
100
AcDbEntity
  8
@__WIDOCZNE
  6
Continuous
370
    13
100
AcDbLine
 10
0.0
 20
0.0
 30
0.0
 11
69.56717646212914
 21
300.0027364067341
 31
0.0
  0
LINE
  5
17B
330
177
100
AcDbEntity
  8
@__WIDOCZNE
  6
Continuous
370
    13
100
AcDbLine
 10
69.56717646212914
 20
300.0027364067341
 30
0.0
 11
139.1342512191672
 21
0.0000538199922726
 31
0.0
  0
LINE
  5
17C
330
177
100
AcDbEntity
  8
@__WIDOCZNE
  6
Continuous
370
    13
100
AcDbLine
 10
139.1372833783757
 20
0.0
 30
0.0
 11
208.7044598405048
 21
300.0027364067341
 31
0.0
  0
LINE
  5
17D
330
177
100
AcDbEntity
  8
@__WIDOCZNE
  6
Continuous
370
    13
100
AcDbLine
 10
208.7044598405048
 20
300.0027364067341
 30
0.0
 11
278.2715345975429
 21
0.0000538199922726
 31
0.0
  0
ENDBLK
  5
179
330
177
100
AcDbEntity
  8
0
100
AcDbBlockEnd
  0
BLOCK
  5
181
330
180
100
AcDbEntity
  8
0
100
AcDbBlockBegin
  2
InsulFib_zygzak_JS_2016_v12_2
 70
     0
 10
0.0
 20
0.0
 30
0.0
  3
InsulFib_zygzak_JS_2016_v12_2
  1

  0
LINE
  5
183
330
180
100
AcDbEntity
  8
@__WIDOCZNE
  6
Continuous
370
    13
100
AcDbLine
 10
0.0
 20
0.0
 30
0.0
 11
40.76443769877821
 21
284.0111639176885
 31
0.0
  0
LINE
  5
184
330
180
100
AcDbEntity
  8
@__WIDOCZNE
  6
Continuous
370
    13
100
AcDbLine
 10
40.76443769877821
 20
284.0111639176885
 30
0.0
 11
81.52881580119133
 21
0.0000509511307479
 31
0.0
  0
ENDBLK
  5
182
330
180
100
AcDbEntity
  8
0
100
AcDbBlockEnd
  0
BLOCK
  5
1CC
330
1CB
100
AcDbEntity
  8
0
100
AcDbBlockBegin
  2
*X11
 70
     1
 10
0.0
 20
0.0
 30
0.0
  3
*X11
  1

  0
HATCH
  5
1CE
330
1CB
100
AcDbEntity
  8
2D - Ogólne
  6
Continuous
370
    13
100
AcDbHatch
 10
0.0
 20
0.0
 30
0.0
210
0.0
220
0.0
230
1.0
  2
SOLID
 70
     1
 71
     0
 91
        1
 92
        2
 72
     0
 73
     1
 93
        4
 10
-2441.072587942794
 20
1070.206392244434
 10
-2446.663888561029
 20
1070.206392244434
 10
-2446.663888561029
 20
1061.372717900478
 10
-2441.072587942794
 20
1061.372717900478
 97
        0
 75
     0
 76
     1
 98
        0
  0
HATCH
  5
1D0
330
1CB
100
AcDbEntity
  8
2D - Ogólne
  6
Continuous
370
    13
100
AcDbHatch
 10
0.0
 20
0.0
 30
0.0
210
0.0
220
0.0
230
1.0
  2
SOLID
 70
     1
 71
     0
 91
        1
 92
        2
 72
     0
 73
     1
 93
        4
 10
-2341.072588788022
 20
1070.206392311586
 10
-2366.072587489311
 20
1070.206392311586
 10
-2366.072587489311
 20
1061.372718015134
 10
-2341.072588788022
 20
1061.372718015134
 97
        0
 75
     0
 76
     1
 98
        0
  0
HATCH
  5
1D1
330
1CB
100
AcDbEntity
  8
2D - Ogólne
  6
Continuous
370
    13
100
AcDbHatch
 10
0.0
 20
0.0
 30
0.0
210
0.0
220
0.0
230
1.0
  2
SOLID
 70
     1
 71
     0
 91
        1
 92
        2
 72
     0
 73
     1
 93
        4
 10
-2241.072588639242
 20
1070.206392311586
 10
-2266.072587340531
 20
1070.206392311586
 10
-2266.072587340531
 20
1061.372718015134
 10
-2241.072588639242
 20
1061.372718015134
 97
        0
 75
     0
 76
     1
 98
        0
  0
HATCH
  5
1D2
330
1CB
100
AcDbEntity
  8
2D - Ogólne
  6
Continuous
370
    13
100
AcDbHatch
 10
0.0
 20
0.0
 30
0.0
210
0.0
220
0.0
230
1.0
  2
SOLID
 70
     1
 71
     0
 91
        1
 92
        2
 72
     0
 73
     1
 93
        4
 10
-2141.072588490462
 20
1070.206392311586
 10
-2166.072587191751
 20
1070.206392311586
 10
-2166.072587191751
 20
1061.372718015134
 10
-2141.072588490462
 20
1061.372718015134
 97
        0
 75
     0
 76
     1
 98
        0
  0
HATCH
  5
1D3
330
1CB
100
AcDbEntity
  8
2D - Ogólne
  6
Continuous
370
    13
100
AcDbHatch
 10
0.0
 20
0.0
 30
0.0
210
0.0
220
0.0
230
1.0
  2
SOLID
 70
     1
 71
     0
 91
        1
 92
        2
 72
     0
 73
     1
 93
        4
 10
-2441.072587942794
 20
1077.37271691452
 10
-2446.663888561029
 20
1077.37271691452
 10
-2446.663888561029
 20
1070.206396166783
 10
-2441.072587942794
 20
1070.206396166783
 97
        0
 75
     0
 76
     1
 98
        0
  0
HATCH
  5
1D4
330
1CB
100
AcDbEntity
  8
2D - Ogólne
  6
Continuous
370
    13
100
AcDbHatch
 10
0.0
 20
0.0
 30
0.0
210
0.0
220
0.0
230
1.0
  2
SOLID
 70
     1
 71
     0
 91
        1
 92
        2
 72
     0
 73
     1
 93
        4
 10
-2366.072587489311
 20
1077.372714931324
 10
-2366.072587489311
 20
1070.206395830066
 10
-2341.072588788022
 20
1070.206395830066
 10
-2341.072588788022
 20
1077.372714931324
 97
        0
 75
     0
 76
     1
 98
        0
  0
HATCH
  5
1D5
330
1CB
100
AcDbEntity
  8
2D - Ogólne
  6
Continuous
370
    13
100
AcDbHatch
 10
0.0
 20
0.0
 30
0.0
210
0.0
220
0.0
230
1.0
  2
SOLID
 70
     1
 71
     0
 91
        1
 92
        2
 72
     0
 73
     1
 93
        4
 10
-2266.072587340531
 20
1077.372714931324
 10
-2266.072587340531
 20
1070.206395830066
 10
-2241.072588639242
 20
1070.206395830066
 10
-2241.072588639242
 20
1077.372714931324
 97
        0
 75
     0
 76
     1
 98
        0
  0
HATCH
  5
1D6
330
1CB
100
AcDbEntity
  8
2D - Ogólne
  6
Continuous
370
    13
100
AcDbHatch
 10
0.0
 20
0.0
 30
0.0
210
0.0
220
0.0
230
1.0
  2
SOLID
 70
     1
 71
     0
 91
        1
 92
        2
 72
     0
 73
     1
 93
        4
 10
-2166.072587191751
 20
1077.372714931324
 10
-2166.072587191751
 20
1070.206395830066
 10
-2141.072588490462
 20
1070.206395830066
 10
-2141.072588490462
 20
1077.372714931324
 97
        0
 75
     0
 76
     1
 98
        0
  0
HATCH
  5
1D7
330
1CB
100
AcDbEntity
  8
2D - Ogólne
  6
Continuous
370
    13
100
AcDbHatch
 10
0.0
 20
0.0
 30
0.0
210
0.0
220
0.0
230
1.0
  2
SOLID
 70
     1
 71
     0
 91
        1
 92
        2
 72
     0
 73
     1
 93
        4
 10
-2416.072590235513
 20
1070.206392311586
 10
-2441.072588936802
 20
1070.206392311586
 10
-2441.072588936802
 20
1061.372718015134
 10
-2416.072590235513
 20
1061.372718015134
 97
        0
 75
     0
 76
     1
 98
        0
  0
HATCH
  5
1D8
330
1CB
100
AcDbEntity
  8
2D - Ogólne
  6
Continuous
370
    13
100
AcDbHatch
 10
0.0
 20
0.0
 30
0.0
210
0.0
220
0.0
230
1.0
  2
SOLID
 70
     1
 71
     0
 91
        1
 92
        2
 72
     0
 73
     1
 93
        4
 10
-2316.072590086733
 20
1070.206392311586
 10
-2341.072588788022
 20
1070.206392311586
 10
-2341.072588788022
 20
1061.372718015134
 10
-2316.072590086733
 20
1061.372718015134
 97
        0
 75
     0
 76
     1
 98
        0
  0
HATCH
  5
1D9
330
1CB
100
AcDbEntity
  8
2D - Ogólne
  6
Continuous
370
    13
100
AcDbHatch
 10
0.0
 20
0.0
 30
0.0
210
0.0
220
0.0
230
1.0
  2
SOLID
 70
     1
 71
     0
 91
        1
 92
        2
 72
     0
 73
     1
 93
        4
 10
-2216.072589937953
 20
1070.206392311586
 10
-2241.072588639242
 20
1070.206392311586
 10
-2241.072588639242
 20
1061.372718015134
 10
-2216.072589937953
 20
1061.372718015134
 97
        0
 75
     0
 76
     1
 98
        0
  0
HATCH
  5
1DA
330
1CB
100
AcDbEntity
  8
2D - Ogólne
  6
Continuous
370
    13
100
AcDbHatch
 10
0.0
 20
0.0
 30
0.0
210
0.0
220
0.0
230
1.0
  2
SOLID
 70
     1
 71
     0
 91
        1
 92
        2
 72
     0
 73
     1
 93
        4
 10
-2116.072589789173
 20
1070.206392311586
 10
-2141.072588490462
 20
1070.206392311586
 10
-2141.072588490462
 20
1061.372718015134
 10
-2116.072589789173
 20
1061.372718015134
 97
        0
 75
     0
 76
     1
 98
        0
  0
HATCH
  5
1DB
330
1CB
100
AcDbEntity
  8
2D - Ogólne
  6
Continuous
370
    13
100
AcDbHatch
 10
0.0
 20
0.0
 30
0.0
210
0.0
220
0.0
230
1.0
  2
SOLID
 70
     1
 71
     0
 91
        1
 92
        2
 72
     0
 73
     1
 93
        4
 10
-2441.072588936802
 20
1077.372714931324
 10
-2441.072588936802
 20
1070.206395830066
 10
-2416.072590235513
 20
1070.206395830066
 10
-2416.072590235513
 20
1077.372714931324
 97
        0
 75
     0
 76
     1
 98
        0
  0
HATCH
  5
1DC
330
1CB
100
AcDbEntity
  8
2D - Ogólne
  6
Continuous
370
    13
100
AcDbHatch
 10
0.0
 20
0.0
 30
0.0
210
0.0
220
0.0
230
1.0
  2
SOLID
 70
     1
 71
     0
 91
        1
 92
        2
 72
     0
 73
     1
 93
        4
 10
-2341.072588788022
 20
1077.372714931324
 10
-2341.072588788022
 20
1070.206395830066
 10
-2316.072590086733
 20
1070.206395830066
 10
-2316.072590086733
 20
1077.372714931324
 97
        0
 75
     0
 76
     1
 98
        0
  0
HATCH
  5
1DD
330
1CB
100
AcDbEntity
  8
2D - Ogólne
  6
Continuous
370
    13
100
AcDbHatch
 10
0.0
 20
0.0
 30
0.0
210
0.0
220
0.0
230
1.0
  2
SOLID
 70
     1
 71
     0
 91
        1
 92
        2
 72
     0
 73
     1
 93
        4
 10
-2241.072588639242
 20
1077.372714931324
 10
-2241.072588639242
 20
1070.206395830066
 10
-2216.072589937953
 20
1070.206395830066
 10
-2216.072589937953
 20
1077.372714931324
 97
        0
 75
     0
 76
     1
 98
        0
  0
HATCH
  5
1DE
330
1CB
100
AcDbEntity
  8
2D - Ogólne
  6
Continuous
370
    13
100
AcDbHatch
 10
0.0
 20
0.0
 30
0.0
210
0.0
220
0.0
230
1.0
  2
SOLID
 70
     1
 71
     0
 91
        1
 92
        2
 72
     0
 73
     1
 93
        4
 10
-2141.072588490462
 20
1077.372714931324
 10
-2141.072588490462
 20
1070.206395830066
 10
-2116.072589789173
 20
1070.206395830066
 10
-2116.072589789173
 20
1077.372714931324
 97
        0
 75
     0
 76
     1
 98
        0
  0
ENDBLK
  5
1CD
330
1CB
100
AcDbEntity
  8
0
100
AcDbBlockEnd
  0
BLOCK
  5
1E9
330
1E8
100
AcDbEntity
  8
0
100
AcDbBlockBegin
  2
*X12
 70
     1
 10
0.0
 20
0.0
 30
0.0
  3
*X12
  1

  0
HATCH
  5
1EB
330
1E8
100
AcDbEntity
  8
2D - Ogólne
  6
Continuous
370
    13
100
AcDbHatch
 10
0.0
 20
0.0
 30
0.0
210
0.0
220
0.0
230
1.0
  2
SOLID
 70
     1
 71
     0
 91
        1
 92
        2
 72
     0
 73
     1
 93
        4
 10
-2042.14665834879
 20
1070.206392244434
 10
-2047.737958967025
 20
1070.206392244434
 10
-2047.737958967025
 20
1061.372717900478
 10
-2042.14665834879
 20
1061.372717900478
 97
        0
 75
     0
 76
     1
 98
        0
  0
HATCH
  5
1EC
330
1E8
100
AcDbEntity
  8
2D - Ogólne
  6
Continuous
370
    13
100
AcDbHatch
 10
0.0
 20
0.0
 30
0.0
210
0.0
220
0.0
230
1.0
  2
SOLID
 70
     1
 71
     0
 91
        1
 92
        2
 72
     0
 73
     1
 93
        4
 10
-1942.146659194018
 20
1070.206392311586
 10
-1967.146657895307
 20
1070.206392311586
 10
-1967.146657895307
 20
1061.372718015134
 10
-1942.146659194018
 20
1061.372718015134
 97
        0
 75
     0
 76
     1
 98
        0
  0
HATCH
  5
1ED
330
1E8
100
AcDbEntity
  8
2D - Ogólne
  6
Continuous
370
    13
100
AcDbHatch
 10
0.0
 20
0.0
 30
0.0
210
0.0
220
0.0
230
1.0
  2
SOLID
 70
     1
 71
     0
 91
        1
 92
        2
 72
     0
 73
     1
 93
        4
 10
-1842.146659045238
 20
1070.206392311586
 10
-1867.146657746527
 20
1070.206392311586
 10
-1867.146657746527
 20
1061.372718015134
 10
-1842.146659045238
 20
1061.372718015134
 97
        0
 75
     0
 76
     1
 98
        0
  0
HATCH
  5
1EE
330
1E8
100
AcDbEntity
  8
2D - Ogólne
  6
Continuous
370
    13
100
AcDbHatch
 10
0.0
 20
0.0
 30
0.0
210
0.0
220
0.0
230
1.0
  2
SOLID
 70
     1
 71
     0
 91
        1
 92
        2
 72
     0
 73
     1
 93
        4
 10
-1742.146658896458
 20
1070.206392311586
 10
-1767.146657597747
 20
1070.206392311586
 10
-1767.146657597747
 20
1061.372718015134
 10
-1742.146658896458
 20
1061.372718015134
 97
        0
 75
     0
 76
     1
 98
        0
  0
HATCH
  5
1EF
330
1E8
100
AcDbEntity
  8
2D - Ogólne
  6
Continuous
370
    13
100
AcDbHatch
 10
0.0
 20
0.0
 30
0.0
210
0.0
220
0.0
230
1.0
  2
SOLID
 70
     1
 71
     0
 91
        1
 92
        2
 72
     0
 73
     1
 93
        4
 10
-2042.14665834879
 20
1077.37271691452
 10
-2047.737958967025
 20
1077.37271691452
 10
-2047.737958967025
 20
1070.206396166783
 10
-2042.14665834879
 20
1070.206396166783
 97
        0
 75
     0
 76
     1
 98
        0
  0
HATCH
  5
1F0
330
1E8
100
AcDbEntity
  8
2D - Ogólne
  6
Continuous
370
    13
100
AcDbHatch
 10
0.0
 20
0.0
 30
0.0
210
0.0
220
0.0
230
1.0
  2
SOLID
 70
     1
 71
     0
 91
        1
 92
        2
 72
     0
 73
     1
 93
        4
 10
-1967.146657895307
 20
1077.372714931324
 10
-1967.146657895307
 20
1070.206395830066
 10
-1942.146659194018
 20
1070.206395830066
 10
-1942.146659194018
 20
1077.372714931324
 97
        0
 75
     0
 76
     1
 98
        0
  0
HATCH
  5
1F1
330
1E8
100
AcDbEntity
  8
2D - Ogólne
  6
Continuous
370
    13
100
AcDbHatch
 10
0.0
 20
0.0
 30
0.0
210
0.0
220
0.0
230
1.0
  2
SOLID
 70
     1
 71
     0
 91
        1
 92
        2
 72
     0
 73
     1
 93
        4
 10
-1867.146657746527
 20
1077.372714931324
 10
-1867.146657746527
 20
1070.206395830066
 10
-1842.146659045238
 20
1070.206395830066
 10
-1842.146659045238
 20
1077.372714931324
 97
        0
 75
     0
 76
     1
 98
        0
  0
HATCH
  5
1F2
330
1E8
100
AcDbEntity
  8
2D - Ogólne
  6
Continuous
370
    13
100
AcDbHatch
 10
0.0
 20
0.0
 30
0.0
210
0.0
220
0.0
230
1.0
  2
SOLID
 70
     1
 71
     0
 91
        1
 92
        2
 72
     0
 73
     1
 93
        4
 10
-1767.146657597747
 20
1077.372714931324
 10
-1767.146657597747
 20
1070.206395830066
 10
-1742.146658896458
 20
1070.206395830066
 10
-1742.146658896458
 20
1077.372714931324
 97
        0
 75
     0
 76
     1
 98
        0
  0
HATCH
  5
1F3
330
1E8
100
AcDbEntity
  8
2D - Ogólne
  6
Continuous
370
    13
100
AcDbHatch
 10
0.0
 20
0.0
 30
0.0
210
0.0
220
0.0
230
1.0
  2
SOLID
 70
     1
 71
     0
 91
        1
 92
        2
 72
     0
 73
     1
 93
        4
 10
-2017.146660641509
 20
1070.206392311586
 10
-2042.146659342798
 20
1070.206392311586
 10
-2042.146659342798
 20
1061.372718015134
 10
-2017.146660641509
 20
1061.372718015134
 97
        0
 75
     0
 76
     1
 98
        0
  0
HATCH
  5
1F4
330
1E8
100
AcDbEntity
  8
2D - Ogólne
  6
Continuous
370
    13
100
AcDbHatch
 10
0.0
 20
0.0
 30
0.0
210
0.0
220
0.0
230
1.0
  2
SOLID
 70
     1
 71
     0
 91
        1
 92
        2
 72
     0
 73
     1
 93
        4
 10
-1917.14666049273
 20
1070.206392311586
 10
-1942.146659194018
 20
1070.206392311586
 10
-1942.146659194018
 20
1061.372718015134
 10
-1917.14666049273
 20
1061.372718015134
 97
        0
 75
     0
 76
     1
 98
        0
  0
HATCH
  5
1F5
330
1E8
100
AcDbEntity
  8
2D - Ogólne
  6
Continuous
370
    13
100
AcDbHatch
 10
0.0
 20
0.0
 30
0.0
210
0.0
220
0.0
230
1.0
  2
SOLID
 70
     1
 71
     0
 91
        1
 92
        2
 72
     0
 73
     1
 93
        4
 10
-1817.146660343949
 20
1070.206392311586
 10
-1842.146659045238
 20
1070.206392311586
 10
-1842.146659045238
 20
1061.372718015134
 10
-1817.146660343949
 20
1061.372718015134
 97
        0
 75
     0
 76
     1
 98
        0
  0
HATCH
  5
1F6
330
1E8
100
AcDbEntity
  8
2D - Ogólne
  6
Continuous
370
    13
100
AcDbHatch
 10
0.0
 20
0.0
 30
0.0
210
0.0
220
0.0
230
1.0
  2
SOLID
 70
     1
 71
     0
 91
        1
 92
        2
 72
     0
 73
     1
 93
        4
 10
-1717.14666019517
 20
1070.206392311586
 10
-1742.146658896458
 20
1070.206392311586
 10
-1742.146658896458
 20
1061.372718015134
 10
-1717.14666019517
 20
1061.372718015134
 97
        0
 75
     0
 76
     1
 98
        0
  0
HATCH
  5
1F7
330
1E8
100
AcDbEntity
  8
2D - Ogólne
  6
Continuous
370
    13
100
AcDbHatch
 10
0.0
 20
0.0
 30
0.0
210
0.0
220
0.0
230
1.0
  2
SOLID
 70
     1
 71
     0
 91
        1
 92
        2
 72
     0
 73
     1
 93
        4
 10
-2042.146659342798
 20
1077.372714931324
 10
-2042.146659342798
 20
1070.206395830066
 10
-2017.146660641509
 20
1070.206395830066
 10
-2017.146660641509
 20
1077.372714931324
 97
        0
 75
     0
 76
     1
 98
        0
  0
HATCH
  5
1F8
330
1E8
100
AcDbEntity
  8
2D - Ogólne
  6
Continuous
370
    13
100
AcDbHatch
 10
0.0
 20
0.0
 30
0.0
210
0.0
220
0.0
230
1.0
  2
SOLID
 70
     1
 71
     0
 91
        1
 92
        2
 72
     0
 73
     1
 93
        4
 10
-1942.146659194018
 20
1077.372714931324
 10
-1942.146659194018
 20
1070.206395830066
 10
-1917.14666049273
 20
1070.206395830066
 10
-1917.14666049273
 20
1077.372714931324
 97
        0
 75
     0
 76
     1
 98
        0
  0
HATCH
  5
1F9
330
1E8
100
AcDbEntity
  8
2D - Ogólne
  6
Continuous
370
    13
100
AcDbHatch
 10
0.0
 20
0.0
 30
0.0
210
0.0
220
0.0
230
1.0
  2
SOLID
 70
     1
 71
     0
 91
        1
 92
        2
 72
     0
 73
     1
 93
        4
 10
-1842.146659045238
 20
1077.372714931324
 10
-1842.146659045238
 20
1070.206395830066
 10
-1817.146660343949
 20
1070.206395830066
 10
-1817.146660343949
 20
1077.372714931324
 97
        0
 75
     0
 76
     1
 98
        0
  0
HATCH
  5
1FA
330
1E8
100
AcDbEntity
  8
2D - Ogólne
  6
Continuous
370
    13
100
AcDbHatch
 10
0.0
 20
0.0
 30
0.0
210
0.0
220
0.0
230
1.0
  2
SOLID
 70
     1
 71
     0
 91
        1
 92
        2
 72
     0
 73
     1
 93
        4
 10
-1742.146658896458
 20
1077.372714931324
 10
-1742.146658896458
 20
1070.206395830066
 10
-1717.14666019517
 20
1070.206395830066
 10
-1717.14666019517
 20
1077.372714931324
 97
        0
 75
     0
 76
     1
 98
        0
  0
ENDBLK
  5
1EA
330
1E8
100
AcDbEntity
  8
0
100
AcDbBlockEnd
  0
BLOCK
  5
202
330
201
100
AcDbEntity
  8
0
100
AcDbBlockBegin
  2
*X13
 70
     1
 10
0.0
 20
0.0
 30
0.0
  3
*X13
  1

  0
HATCH
  5
204
330
201
100
AcDbEntity
  8
2D - Ogólne
  6
Continuous
370
    13
100
AcDbHatch
 10
0.0
 20
0.0
 30
0.0
210
0.0
220
0.0
230
1.0
  2
SOLID
 70
     1
 71
     0
 91
        1
 92
        2
 72
     0
 73
     1
 93
        4
 10
-2042.14665834879
 20
984.2063922444343
 10
-2047.737958967025
 20
984.2063922444343
 10
-2047.737958967025
 20
975.3727179004775
 10
-2042.14665834879
 20
975.3727179004775
 97
        0
 75
     0
 76
     1
 98
        0
  0
HATCH
  5
205
330
201
100
AcDbEntity
  8
2D - Ogólne
  6
Continuous
370
    13
100
AcDbHatch
 10
0.0
 20
0.0
 30
0.0
210
0.0
220
0.0
230
1.0
  2
SOLID
 70
     1
 71
     0
 91
        1
 92
        2
 72
     0
 73
     1
 93
        4
 10
-1942.146659194018
 20
984.2063923115854
 10
-1967.146657895307
 20
984.2063923115854
 10
-1967.146657895307
 20
975.3727180151337
 10
-1942.146659194018
 20
975.3727180151337
 97
        0
 75
     0
 76
     1
 98
        0
  0
HATCH
  5
206
330
201
100
AcDbEntity
  8
2D - Ogólne
  6
Continuous
370
    13
100
AcDbHatch
 10
0.0
 20
0.0
 30
0.0
210
0.0
220
0.0
230
1.0
  2
SOLID
 70
     1
 71
     0
 91
        1
 92
        2
 72
     0
 73
     1
 93
        4
 10
-1842.146659045238
 20
984.2063923115854
 10
-1867.146657746527
 20
984.2063923115854
 10
-1867.146657746527
 20
975.3727180151337
 10
-1842.146659045238
 20
975.3727180151337
 97
        0
 75
     0
 76
     1
 98
        0
  0
HATCH
  5
207
330
201
100
AcDbEntity
  8
2D - Ogólne
  6
Continuous
370
    13
100
AcDbHatch
 10
0.0
 20
0.0
 30
0.0
210
0.0
220
0.0
230
1.0
  2
SOLID
 70
     1
 71
     0
 91
        1
 92
        2
 72
     0
 73
     1
 93
        4
 10
-1742.146658896458
 20
984.2063923115854
 10
-1767.146657597747
 20
984.2063923115854
 10
-1767.146657597747
 20
975.3727180151337
 10
-1742.146658896458
 20
975.3727180151337
 97
        0
 75
     0
 76
     1
 98
        0
  0
HATCH
  5
208
330
201
100
AcDbEntity
  8
2D - Ogólne
  6
Continuous
370
    13
100
AcDbHatch
 10
0.0
 20
0.0
 30
0.0
210
0.0
220
0.0
230
1.0
  2
SOLID
 70
     1
 71
     0
 91
        1
 92
        2
 72
     0
 73
     1
 93
        4
 10
-2042.14665834879
 20
991.3727169145201
 10
-2047.737958967025
 20
991.3727169145201
 10
-2047.737958967025
 20
984.2063961667831
 10
-2042.14665834879
 20
984.2063961667831
 97
        0
 75
     0
 76
     1
 98
        0
  0
HATCH
  5
209
330
201
100
AcDbEntity
  8
2D - Ogólne
  6
Continuous
370
    13
100
AcDbHatch
 10
0.0
 20
0.0
 30
0.0
210
0.0
220
0.0
230
1.0
  2
SOLID
 70
     1
 71
     0
 91
        1
 92
        2
 72
     0
 73
     1
 93
        4
 10
-1967.146657895307
 20
991.372714931324
 10
-1967.146657895307
 20
984.2063958300657
 10
-1942.146659194018
 20
984.2063958300657
 10
-1942.146659194018
 20
991.372714931324
 97
        0
 75
     0
 76
     1
 98
        0
  0
HATCH
  5
20A
330
201
100
AcDbEntity
  8
2D - Ogólne
  6
Continuous
370
    13
100
AcDbHatch
 10
0.0
 20
0.0
 30
0.0
210
0.0
220
0.0
230
1.0
  2
SOLID
 70
     1
 71
     0
 91
        1
 92
        2
 72
     0
 73
     1
 93
        4
 10
-1867.146657746527
 20
991.372714931324
 10
-1867.146657746527
 20
984.2063958300657
 10
-1842.146659045238
 20
984.2063958300657
 10
-1842.146659045238
 20
991.372714931324
 97
        0
 75
     0
 76
     1
 98
        0
  0
HATCH
  5
20B
330
201
100
AcDbEntity
  8
2D - Ogólne
  6
Continuous
370
    13
100
AcDbHatch
 10
0.0
 20
0.0
 30
0.0
210
0.0
220
0.0
230
1.0
  2
SOLID
 70
     1
 71
     0
 91
        1
 92
        2
 72
     0
 73
     1
 93
        4
 10
-1767.146657597747
 20
991.372714931324
 10
-1767.146657597747
 20
984.2063958300657
 10
-1742.146658896458
 20
984.2063958300657
 10
-1742.146658896458
 20
991.372714931324
 97
        0
 75
     0
 76
     1
 98
        0
  0
HATCH
  5
20C
330
201
100
AcDbEntity
  8
2D - Ogólne
  6
Continuous
370
    13
100
AcDbHatch
 10
0.0
 20
0.0
 30
0.0
210
0.0
220
0.0
230
1.0
  2
SOLID
 70
     1
 71
     0
 91
        1
 92
        2
 72
     0
 73
     1
 93
        4
 10
-2017.146660641509
 20
984.2063923115857
 10
-2042.146659342798
 20
984.2063923115857
 10
-2042.146659342798
 20
975.372718015134
 10
-2017.146660641509
 20
975.372718015134
 97
        0
 75
     0
 76
     1
 98
        0
  0
HATCH
  5
20D
330
201
100
AcDbEntity
  8
2D - Ogólne
  6
Continuous
370
    13
100
AcDbHatch
 10
0.0
 20
0.0
 30
0.0
210
0.0
220
0.0
230
1.0
  2
SOLID
 70
     1
 71
     0
 91
        1
 92
        2
 72
     0
 73
     1
 93
        4
 10
-1917.14666049273
 20
984.2063923115857
 10
-1942.146659194018
 20
984.2063923115857
 10
-1942.146659194018
 20
975.372718015134
 10
-1917.14666049273
 20
975.372718015134
 97
        0
 75
     0
 76
     1
 98
        0
  0
HATCH
  5
20E
330
201
100
AcDbEntity
  8
2D - Ogólne
  6
Continuous
370
    13
100
AcDbHatch
 10
0.0
 20
0.0
 30
0.0
210
0.0
220
0.0
230
1.0
  2
SOLID
 70
     1
 71
     0
 91
        1
 92
        2
 72
     0
 73
     1
 93
        4
 10
-1817.146660343949
 20
984.2063923115857
 10
-1842.146659045238
 20
984.2063923115857
 10
-1842.146659045238
 20
975.372718015134
 10
-1817.146660343949
 20
975.372718015134
 97
        0
 75
     0
 76
     1
 98
        0
  0
HATCH
  5
20F
330
201
100
AcDbEntity
  8
2D - Ogólne
  6
Continuous
370
    13
100
AcDbHatch
 10
0.0
 20
0.0
 30
0.0
210
0.0
220
0.0
230
1.0
  2
SOLID
 70
     1
 71
     0
 91
        1
 92
        2
 72
     0
 73
     1
 93
        4
 10
-1717.14666019517
 20
984.2063923115857
 10
-1742.146658896458
 20
984.2063923115857
 10
-1742.146658896458
 20
975.372718015134
 10
-1717.14666019517
 20
975.372718015134
 97
        0
 75
     0
 76
     1
 98
        0
  0
HATCH
  5
210
330
201
100
AcDbEntity
  8
2D - Ogólne
  6
Continuous
370
    13
100
AcDbHatch
 10
0.0
 20
0.0
 30
0.0
210
0.0
220
0.0
230
1.0
  2
SOLID
 70
     1
 71
     0
 91
        1
 92
        2
 72
     0
 73
     1
 93
        4
 10
-2042.146659342798
 20
991.372714931324
 10
-2042.146659342798
 20
984.2063958300657
 10
-2017.146660641509
 20
984.2063958300657
 10
-2017.146660641509
 20
991.372714931324
 97
        0
 75
     0
 76
     1
 98
        0
  0
HATCH
  5
211
330
201
100
AcDbEntity
  8
2D - Ogólne
  6
Continuous
370
    13
100
AcDbHatch
 10
0.0
 20
0.0
 30
0.0
210
0.0
220
0.0
230
1.0
  2
SOLID
 70
     1
 71
     0
 91
        1
 92
        2
 72
     0
 73
     1
 93
        4
 10
-1942.146659194018
 20
991.372714931324
 10
-1942.146659194018
 20
984.2063958300657
 10
-1917.14666049273
 20
984.2063958300657
 10
-1917.14666049273
 20
991.372714931324
 97
        0
 75
     0
 76
     1
 98
        0
  0
HATCH
  5
212
330
201
100
AcDbEntity
  8
2D - Ogólne
  6
Continuous
370
    13
100
AcDbHatch
 10
0.0
 20
0.0
 30
0.0
210
0.0
220
0.0
230
1.0
  2
SOLID
 70
     1
 71
     0
 91
        1
 92
        2
 72
     0
 73
     1
 93
        4
 10
-1842.146659045238
 20
991.372714931324
 10
-1842.146659045238
 20
984.2063958300657
 10
-1817.146660343949
 20
984.2063958300657
 10
-1817.146660343949
 20
991.372714931324
 97
        0
 75
     0
 76
     1
 98
        0
  0
HATCH
  5
213
330
201
100
AcDbEntity
  8
2D - Ogólne
  6
Continuous
370
    13
100
AcDbHatch
 10
0.0
 20
0.0
 30
0.0
210
0.0
220
0.0
230
1.0
  2
SOLID
 70
     1
 71
     0
 91
        1
 92
        2
 72
     0
 73
     1
 93
        4
 10
-1742.146658896458
 20
991.372714931324
 10
-1742.146658896458
 20
984.2063958300657
 10
-1717.14666019517
 20
984.2063958300657
 10
-1717.14666019517
 20
991.372714931324
 97
        0
 75
     0
 76
     1
 98
        0
  0
ENDBLK
  5
203
330
201
100
AcDbEntity
  8
0
100
AcDbBlockEnd
  0
BLOCK
  5
21B
330
21A
100
AcDbEntity
  8
0
100
AcDbBlockBegin
  2
*X14
 70
     1
 10
0.0
 20
0.0
 30
0.0
  3
*X14
  1

  0
HATCH
  5
21D
330
21A
100
AcDbEntity
  8
2D - Ogólne
  6
Continuous
370
    13
100
AcDbHatch
 10
0.0
 20
0.0
 30
0.0
210
0.0
220
0.0
230
1.0
  2
SOLID
 70
     1
 71
     0
 91
        1
 92
        2
 72
     0
 73
     1
 93
        4
 10
-2440.968344325424
 20
984.2063922444343
 10
-2446.559644943659
 20
984.2063922444343
 10
-2446.559644943659
 20
975.3727179004775
 10
-2440.968344325424
 20
975.3727179004775
 97
        0
 75
     0
 76
     1
 98
        0
  0
HATCH
  5
21E
330
21A
100
AcDbEntity
  8
2D - Ogólne
  6
Continuous
370
    13
100
AcDbHatch
 10
0.0
 20
0.0
 30
0.0
210
0.0
220
0.0
230
1.0
  2
SOLID
 70
     1
 71
     0
 91
        1
 92
        2
 72
     0
 73
     1
 93
        4
 10
-2340.968345170653
 20
984.2063923115854
 10
-2365.968343871942
 20
984.2063923115854
 10
-2365.968343871942
 20
975.3727180151337
 10
-2340.968345170653
 20
975.3727180151337
 97
        0
 75
     0
 76
     1
 98
        0
  0
HATCH
  5
21F
330
21A
100
AcDbEntity
  8
2D - Ogólne
  6
Continuous
370
    13
100
AcDbHatch
 10
0.0
 20
0.0
 30
0.0
210
0.0
220
0.0
230
1.0
  2
SOLID
 70
     1
 71
     0
 91
        1
 92
        2
 72
     0
 73
     1
 93
        4
 10
-2240.968345021873
 20
984.2063923115854
 10
-2265.968343723162
 20
984.2063923115854
 10
-2265.968343723162
 20
975.3727180151337
 10
-2240.968345021873
 20
975.3727180151337
 97
        0
 75
     0
 76
     1
 98
        0
  0
HATCH
  5
220
330
21A
100
AcDbEntity
  8
2D - Ogólne
  6
Continuous
370
    13
100
AcDbHatch
 10
0.0
 20
0.0
 30
0.0
210
0.0
220
0.0
230
1.0
  2
SOLID
 70
     1
 71
     0
 91
        1
 92
        2
 72
     0
 73
     1
 93
        4
 10
-2140.968344873093
 20
984.2063923115854
 10
-2165.968343574382
 20
984.2063923115854
 10
-2165.968343574382
 20
975.3727180151337
 10
-2140.968344873093
 20
975.3727180151337
 97
        0
 75
     0
 76
     1
 98
        0
  0
HATCH
  5
221
330
21A
100
AcDbEntity
  8
2D - Ogólne
  6
Continuous
370
    13
100
AcDbHatch
 10
0.0
 20
0.0
 30
0.0
210
0.0
220
0.0
230
1.0
  2
SOLID
 70
     1
 71
     0
 91
        1
 92
        2
 72
     0
 73
     1
 93
        4
 10
-2440.968344325424
 20
991.3727169145201
 10
-2446.559644943659
 20
991.3727169145201
 10
-2446.559644943659
 20
984.2063961667831
 10
-2440.968344325424
 20
984.2063961667831
 97
        0
 75
     0
 76
     1
 98
        0
  0
HATCH
  5
222
330
21A
100
AcDbEntity
  8
2D - Ogólne
  6
Continuous
370
    13
100
AcDbHatch
 10
0.0
 20
0.0
 30
0.0
210
0.0
220
0.0
230
1.0
  2
SOLID
 70
     1
 71
     0
 91
        1
 92
        2
 72
     0
 73
     1
 93
        4
 10
-2365.968343871942
 20
991.372714931324
 10
-2365.968343871942
 20
984.2063958300657
 10
-2340.968345170653
 20
984.2063958300657
 10
-2340.968345170653
 20
991.372714931324
 97
        0
 75
     0
 76
     1
 98
        0
  0
HATCH
  5
223
330
21A
100
AcDbEntity
  8
2D - Ogólne
  6
Continuous
370
    13
100
AcDbHatch
 10
0.0
 20
0.0
 30
0.0
210
0.0
220
0.0
230
1.0
  2
SOLID
 70
     1
 71
     0
 91
        1
 92
        2
 72
     0
 73
     1
 93
        4
 10
-2265.968343723162
 20
991.372714931324
 10
-2265.968343723162
 20
984.2063958300657
 10
-2240.968345021873
 20
984.2063958300657
 10
-2240.968345021873
 20
991.372714931324
 97
        0
 75
     0
 76
     1
 98
        0
  0
HATCH
  5
224
330
21A
100
AcDbEntity
  8
2D - Ogólne
  6
Continuous
370
    13
100
AcDbHatch
 10
0.0
 20
0.0
 30
0.0
210
0.0
220
0.0
230
1.0
  2
SOLID
 70
     1
 71
     0
 91
        1
 92
        2
 72
     0
 73
     1
 93
        4
 10
-2165.968343574382
 20
991.372714931324
 10
-2165.968343574382
 20
984.2063958300657
 10
-2140.968344873093
 20
984.2063958300657
 10
-2140.968344873093
 20
991.372714931324
 97
        0
 75
     0
 76
     1
 98
        0
  0
HATCH
  5
225
330
21A
100
AcDbEntity
  8
2D - Ogólne
  6
Continuous
370
    13
100
AcDbHatch
 10
0.0
 20
0.0
 30
0.0
210
0.0
220
0.0
230
1.0
  2
SOLID
 70
     1
 71
     0
 91
        1
 92
        2
 72
     0
 73
     1
 93
        4
 10
-2415.968346618144
 20
984.2063923115857
 10
-2440.968345319433
 20
984.2063923115857
 10
-2440.968345319433
 20
975.372718015134
 10
-2415.968346618144
 20
975.372718015134
 97
        0
 75
     0
 76
     1
 98
        0
  0
HATCH
  5
226
330
21A
100
AcDbEntity
  8
2D - Ogólne
  6
Continuous
370
    13
100
AcDbHatch
 10
0.0
 20
0.0
 30
0.0
210
0.0
220
0.0
230
1.0
  2
SOLID
 70
     1
 71
     0
 91
        1
 92
        2
 72
     0
 73
     1
 93
        4
 10
-2315.968346469364
 20
984.2063923115857
 10
-2340.968345170653
 20
984.2063923115857
 10
-2340.968345170653
 20
975.372718015134
 10
-2315.968346469364
 20
975.372718015134
 97
        0
 75
     0
 76
     1
 98
        0
  0
HATCH
  5
227
330
21A
100
AcDbEntity
  8
2D - Ogólne
  6
Continuous
370
    13
100
AcDbHatch
 10
0.0
 20
0.0
 30
0.0
210
0.0
220
0.0
230
1.0
  2
SOLID
 70
     1
 71
     0
 91
        1
 92
        2
 72
     0
 73
     1
 93
        4
 10
-2215.968346320584
 20
984.2063923115857
 10
-2240.968345021873
 20
984.2063923115857
 10
-2240.968345021873
 20
975.372718015134
 10
-2215.968346320584
 20
975.372718015134
 97
        0
 75
     0
 76
     1
 98
        0
  0
HATCH
  5
228
330
21A
100
AcDbEntity
  8
2D - Ogólne
  6
Continuous
370
    13
100
AcDbHatch
 10
0.0
 20
0.0
 30
0.0
210
0.0
220
0.0
230
1.0
  2
SOLID
 70
     1
 71
     0
 91
        1
 92
        2
 72
     0
 73
     1
 93
        4
 10
-2115.968346171804
 20
984.2063923115857
 10
-2140.968344873093
 20
984.2063923115857
 10
-2140.968344873093
 20
975.372718015134
 10
-2115.968346171804
 20
975.372718015134
 97
        0
 75
     0
 76
     1
 98
        0
  0
HATCH
  5
229
330
21A
100
AcDbEntity
  8
2D - Ogólne
  6
Continuous
370
    13
100
AcDbHatch
 10
0.0
 20
0.0
 30
0.0
210
0.0
220
0.0
230
1.0
  2
SOLID
 70
     1
 71
     0
 91
        1
 92
        2
 72
     0
 73
     1
 93
        4
 10
-2440.968345319433
 20
991.372714931324
 10
-2440.968345319433
 20
984.2063958300657
 10
-2415.968346618144
 20
984.2063958300657
 10
-2415.968346618144
 20
991.372714931324
 97
        0
 75
     0
 76
     1
 98
        0
  0
HATCH
  5
22A
330
21A
100
AcDbEntity
  8
2D - Ogólne
  6
Continuous
370
    13
100
AcDbHatch
 10
0.0
 20
0.0
 30
0.0
210
0.0
220
0.0
230
1.0
  2
SOLID
 70
     1
 71
     0
 91
        1
 92
        2
 72
     0
 73
     1
 93
        4
 10
-2340.968345170653
 20
991.372714931324
 10
-2340.968345170653
 20
984.2063958300657
 10
-2315.968346469364
 20
984.2063958300657
 10
-2315.968346469364
 20
991.372714931324
 97
        0
 75
     0
 76
     1
 98
        0
  0
HATCH
  5
22B
330
21A
100
AcDbEntity
  8
2D - Ogólne
  6
Continuous
370
    13
100
AcDbHatch
 10
0.0
 20
0.0
 30
0.0
210
0.0
220
0.0
230
1.0
  2
SOLID
 70
     1
 71
     0
 91
        1
 92
        2
 72
     0
 73
     1
 93
        4
 10
-2240.968345021873
 20
991.372714931324
 10
-2240.968345021873
 20
984.2063958300657
 10
-2215.968346320584
 20
984.2063958300657
 10
-2215.968346320584
 20
991.372714931324
 97
        0
 75
     0
 76
     1
 98
        0
  0
HATCH
  5
22C
330
21A
100
AcDbEntity
  8
2D - Ogólne
  6
Continuous
370
    13
100
AcDbHatch
 10
0.0
 20
0.0
 30
0.0
210
0.0
220
0.0
230
1.0
  2
SOLID
 70
     1
 71
     0
 91
        1
 92
        2
 72
     0
 73
     1
 93
        4
 10
-2140.968344873093
 20
991.372714931324
 10
-2140.968344873093
 20
984.2063958300657
 10
-2115.968346171804
 20
984.2063958300657
 10
-2115.968346171804
 20
991.372714931324
 97
        0
 75
     0
 76
     1
 98
        0
  0
ENDBLK
  5
21C
330
21A
100
AcDbEntity
  8
0
100
AcDbBlockEnd
  0
BLOCK
  5
234
330
233
100
AcDbEntity
  8
0
100
AcDbBlockBegin
  2
*X15
 70
     1
 10
0.0
 20
0.0
 30
0.0
  3
*X15
  1

  0
HATCH
  5
236
330
233
100
AcDbEntity
  8
2D - Ogólne
  6
Continuous
370
    13
100
AcDbHatch
 10
0.0
 20
0.0
 30
0.0
210
0.0
220
0.0
230
1.0
  2
SOLID
 70
     1
 71
     0
 91
        1
 92
        2
 72
     0
 73
     1
 93
        4
 10
-2440.968344325424
 20
668.2010955223402
 10
-2446.559644943659
 20
668.2010955223402
 10
-2446.559644943659
 20
659.3674211783834
 10
-2440.968344325424
 20
659.3674211783834
 97
        0
 75
     0
 76
     1
 98
        0
  0
HATCH
  5
237
330
233
100
AcDbEntity
  8
2D - Ogólne
  6
Continuous
370
    13
100
AcDbHatch
 10
0.0
 20
0.0
 30
0.0
210
0.0
220
0.0
230
1.0
  2
SOLID
 70
     1
 71
     0
 91
        1
 92
        2
 72
     0
 73
     1
 93
        4
 10
-2340.968345170653
 20
668.2010955894914
 10
-2365.968343871942
 20
668.2010955894914
 10
-2365.968343871942
 20
659.3674212930396
 10
-2340.968345170653
 20
659.3674212930396
 97
        0
 75
     0
 76
     1
 98
        0
  0
HATCH
  5
238
330
233
100
AcDbEntity
  8
2D - Ogólne
  6
Continuous
370
    13
100
AcDbHatch
 10
0.0
 20
0.0
 30
0.0
210
0.0
220
0.0
230
1.0
  2
SOLID
 70
     1
 71
     0
 91
        1
 92
        2
 72
     0
 73
     1
 93
        4
 10
-2240.968345021873
 20
668.2010955894914
 10
-2265.968343723162
 20
668.2010955894914
 10
-2265.968343723162
 20
659.3674212930396
 10
-2240.968345021873
 20
659.3674212930396
 97
        0
 75
     0
 76
     1
 98
        0
  0
HATCH
  5
239
330
233
100
AcDbEntity
  8
2D - Ogólne
  6
Continuous
370
    13
100
AcDbHatch
 10
0.0
 20
0.0
 30
0.0
210
0.0
220
0.0
230
1.0
  2
SOLID
 70
     1
 71
     0
 91
        1
 92
        2
 72
     0
 73
     1
 93
        4
 10
-2140.968344873093
 20
668.2010955894914
 10
-2165.968343574382
 20
668.2010955894914
 10
-2165.968343574382
 20
659.3674212930396
 10
-2140.968344873093
 20
659.3674212930396
 97
        0
 75
     0
 76
     1
 98
        0
  0
HATCH
  5
23A
330
233
100
AcDbEntity
  8
2D - Ogólne
  6
Continuous
370
    13
100
AcDbHatch
 10
0.0
 20
0.0
 30
0.0
210
0.0
220
0.0
230
1.0
  2
SOLID
 70
     1
 71
     0
 91
        1
 92
        2
 72
     0
 73
     1
 93
        4
 10
-2440.968344325424
 20
675.367420192426
 10
-2446.559644943659
 20
675.367420192426
 10
-2446.559644943659
 20
668.201099444689
 10
-2440.968344325424
 20
668.201099444689
 97
        0
 75
     0
 76
     1
 98
        0
  0
HATCH
  5
23B
330
233
100
AcDbEntity
  8
2D - Ogólne
  6
Continuous
370
    13
100
AcDbHatch
 10
0.0
 20
0.0
 30
0.0
210
0.0
220
0.0
230
1.0
  2
SOLID
 70
     1
 71
     0
 91
        1
 92
        2
 72
     0
 73
     1
 93
        4
 10
-2365.968343871942
 20
675.36741820923
 10
-2365.968343871942
 20
668.2010991079717
 10
-2340.968345170653
 20
668.2010991079717
 10
-2340.968345170653
 20
675.36741820923
 97
        0
 75
     0
 76
     1
 98
        0
  0
HATCH
  5
23C
330
233
100
AcDbEntity
  8
2D - Ogólne
  6
Continuous
370
    13
100
AcDbHatch
 10
0.0
 20
0.0
 30
0.0
210
0.0
220
0.0
230
1.0
  2
SOLID
 70
     1
 71
     0
 91
        1
 92
        2
 72
     0
 73
     1
 93
        4
 10
-2265.968343723162
 20
675.36741820923
 10
-2265.968343723162
 20
668.2010991079717
 10
-2240.968345021873
 20
668.2010991079717
 10
-2240.968345021873
 20
675.36741820923
 97
        0
 75
     0
 76
     1
 98
        0
  0
HATCH
  5
23D
330
233
100
AcDbEntity
  8
2D - Ogólne
  6
Continuous
370
    13
100
AcDbHatch
 10
0.0
 20
0.0
 30
0.0
210
0.0
220
0.0
230
1.0
  2
SOLID
 70
     1
 71
     0
 91
        1
 92
        2
 72
     0
 73
     1
 93
        4
 10
-2165.968343574382
 20
675.36741820923
 10
-2165.968343574382
 20
668.2010991079717
 10
-2140.968344873093
 20
668.2010991079717
 10
-2140.968344873093
 20
675.36741820923
 97
        0
 75
     0
 76
     1
 98
        0
  0
HATCH
  5
23E
330
233
100
AcDbEntity
  8
2D - Ogólne
  6
Continuous
370
    13
100
AcDbHatch
 10
0.0
 20
0.0
 30
0.0
210
0.0
220
0.0
230
1.0
  2
SOLID
 70
     1
 71
     0
 91
        1
 92
        2
 72
     0
 73
     1
 93
        4
 10
-2415.968346618144
 20
668.2010955894916
 10
-2440.968345319433
 20
668.2010955894916
 10
-2440.968345319433
 20
659.3674212930398
 10
-2415.968346618144
 20
659.3674212930398
 97
        0
 75
     0
 76
     1
 98
        0
  0
HATCH
  5
23F
330
233
100
AcDbEntity
  8
2D - Ogólne
  6
Continuous
370
    13
100
AcDbHatch
 10
0.0
 20
0.0
 30
0.0
210
0.0
220
0.0
230
1.0
  2
SOLID
 70
     1
 71
     0
 91
        1
 92
        2
 72
     0
 73
     1
 93
        4
 10
-2315.968346469364
 20
668.2010955894916
 10
-2340.968345170653
 20
668.2010955894916
 10
-2340.968345170653
 20
659.3674212930398
 10
-2315.968346469364
 20
659.3674212930398
 97
        0
 75
     0
 76
     1
 98
        0
  0
HATCH
  5
240
330
233
100
AcDbEntity
  8
2D - Ogólne
  6
Continuous
370
    13
100
AcDbHatch
 10
0.0
 20
0.0
 30
0.0
210
0.0
220
0.0
230
1.0
  2
SOLID
 70
     1
 71
     0
 91
        1
 92
        2
 72
     0
 73
     1
 93
        4
 10
-2215.968346320584
 20
668.2010955894916
 10
-2240.968345021873
 20
668.2010955894916
 10
-2240.968345021873
 20
659.3674212930398
 10
-2215.968346320584
 20
659.3674212930398
 97
        0
 75
     0
 76
     1
 98
        0
  0
HATCH
  5
241
330
233
100
AcDbEntity
  8
2D - Ogólne
  6
Continuous
370
    13
100
AcDbHatch
 10
0.0
 20
0.0
 30
0.0
210
0.0
220
0.0
230
1.0
  2
SOLID
 70
     1
 71
     0
 91
        1
 92
        2
 72
     0
 73
     1
 93
        4
 10
-2115.968346171804
 20
668.2010955894916
 10
-2140.968344873093
 20
668.2010955894916
 10
-2140.968344873093
 20
659.3674212930398
 10
-2115.968346171804
 20
659.3674212930398
 97
        0
 75
     0
 76
     1
 98
        0
  0
HATCH
  5
242
330
233
100
AcDbEntity
  8
2D - Ogólne
  6
Continuous
370
    13
100
AcDbHatch
 10
0.0
 20
0.0
 30
0.0
210
0.0
220
0.0
230
1.0
  2
SOLID
 70
     1
 71
     0
 91
        1
 92
        2
 72
     0
 73
     1
 93
        4
 10
-2440.968345319433
 20
675.36741820923
 10
-2440.968345319433
 20
668.2010991079717
 10
-2415.968346618144
 20
668.2010991079717
 10
-2415.968346618144
 20
675.36741820923
 97
        0
 75
     0
 76
     1
 98
        0
  0
HATCH
  5
243
330
233
100
AcDbEntity
  8
2D - Ogólne
  6
Continuous
370
    13
100
AcDbHatch
 10
0.0
 20
0.0
 30
0.0
210
0.0
220
0.0
230
1.0
  2
SOLID
 70
     1
 71
     0
 91
        1
 92
        2
 72
     0
 73
     1
 93
        4
 10
-2340.968345170653
 20
675.36741820923
 10
-2340.968345170653
 20
668.2010991079717
 10
-2315.968346469364
 20
668.2010991079717
 10
-2315.968346469364
 20
675.36741820923
 97
        0
 75
     0
 76
     1
 98
        0
  0
HATCH
  5
244
330
233
100
AcDbEntity
  8
2D - Ogólne
  6
Continuous
370
    13
100
AcDbHatch
 10
0.0
 20
0.0
 30
0.0
210
0.0
220
0.0
230
1.0
  2
SOLID
 70
     1
 71
     0
 91
        1
 92
        2
 72
     0
 73
     1
 93
        4
 10
-2240.968345021873
 20
675.36741820923
 10
-2240.968345021873
 20
668.2010991079717
 10
-2215.968346320584
 20
668.2010991079717
 10
-2215.968346320584
 20
675.36741820923
 97
        0
 75
     0
 76
     1
 98
        0
  0
HATCH
  5
245
330
233
100
AcDbEntity
  8
2D - Ogólne
  6
Continuous
370
    13
100
AcDbHatch
 10
0.0
 20
0.0
 30
0.0
210
0.0
220
0.0
230
1.0
  2
SOLID
 70
     1
 71
     0
 91
        1
 92
        2
 72
     0
 73
     1
 93
        4
 10
-2140.968344873093
 20
675.36741820923
 10
-2140.968344873093
 20
668.2010991079717
 10
-2115.968346171804
 20
668.2010991079717
 10
-2115.968346171804
 20
675.36741820923
 97
        0
 75
     0
 76
     1
 98
        0
  0
ENDBLK
  5
235
330
233
100
AcDbEntity
  8
0
100
AcDbBlockEnd
  0
BLOCK
  5
24D
330
24C
100
AcDbEntity
  8
0
100
AcDbBlockBegin
  2
*X16
 70
     1
 10
0.0
 20
0.0
 30
0.0
  3
*X16
  1

  0
HATCH
  5
24F
330
24C
100
AcDbEntity
  8
2D - Ogólne
  6
Continuous
370
    13
100
AcDbHatch
 10
0.0
 20
0.0
 30
0.0
210
0.0
220
0.0
230
1.0
  2
SOLID
 70
     1
 71
     0
 91
        1
 92
        2
 72
     0
 73
     1
 93
        4
 10
-2042.14665834879
 20
668.2010955223394
 10
-2047.737958967025
 20
668.2010955223394
 10
-2047.737958967025
 20
659.3674211783826
 10
-2042.14665834879
 20
659.3674211783826
 97
        0
 75
     0
 76
     1
 98
        0
  0
HATCH
  5
250
330
24C
100
AcDbEntity
  8
2D - Ogólne
  6
Continuous
370
    13
100
AcDbHatch
 10
0.0
 20
0.0
 30
0.0
210
0.0
220
0.0
230
1.0
  2
SOLID
 70
     1
 71
     0
 91
        1
 92
        2
 72
     0
 73
     1
 93
        4
 10
-1942.146659194018
 20
668.2010955894906
 10
-1967.146657895307
 20
668.2010955894906
 10
-1967.146657895307
 20
659.3674212930387
 10
-1942.146659194018
 20
659.3674212930387
 97
        0
 75
     0
 76
     1
 98
        0
  0
HATCH
  5
251
330
24C
100
AcDbEntity
  8
2D - Ogólne
  6
Continuous
370
    13
100
AcDbHatch
 10
0.0
 20
0.0
 30
0.0
210
0.0
220
0.0
230
1.0
  2
SOLID
 70
     1
 71
     0
 91
        1
 92
        2
 72
     0
 73
     1
 93
        4
 10
-1842.146659045238
 20
668.2010955894906
 10
-1867.146657746527
 20
668.2010955894906
 10
-1867.146657746527
 20
659.3674212930387
 10
-1842.146659045238
 20
659.3674212930387
 97
        0
 75
     0
 76
     1
 98
        0
  0
HATCH
  5
252
330
24C
100
AcDbEntity
  8
2D - Ogólne
  6
Continuous
370
    13
100
AcDbHatch
 10
0.0
 20
0.0
 30
0.0
210
0.0
220
0.0
230
1.0
  2
SOLID
 70
     1
 71
     0
 91
        1
 92
        2
 72
     0
 73
     1
 93
        4
 10
-1742.146658896458
 20
668.2010955894906
 10
-1767.146657597747
 20
668.2010955894906
 10
-1767.146657597747
 20
659.3674212930387
 10
-1742.146658896458
 20
659.3674212930387
 97
        0
 75
     0
 76
     1
 98
        0
  0
HATCH
  5
253
330
24C
100
AcDbEntity
  8
2D - Ogólne
  6
Continuous
370
    13
100
AcDbHatch
 10
0.0
 20
0.0
 30
0.0
210
0.0
220
0.0
230
1.0
  2
SOLID
 70
     1
 71
     0
 91
        1
 92
        2
 72
     0
 73
     1
 93
        4
 10
-2042.14665834879
 20
675.3674201924251
 10
-2047.737958967025
 20
675.3674201924251
 10
-2047.737958967025
 20
668.2010994446881
 10
-2042.14665834879
 20
668.2010994446881
 97
        0
 75
     0
 76
     1
 98
        0
  0
HATCH
  5
254
330
24C
100
AcDbEntity
  8
2D - Ogólne
  6
Continuous
370
    13
100
AcDbHatch
 10
0.0
 20
0.0
 30
0.0
210
0.0
220
0.0
230
1.0
  2
SOLID
 70
     1
 71
     0
 91
        1
 92
        2
 72
     0
 73
     1
 93
        4
 10
-1967.146657895307
 20
675.3674182092291
 10
-1967.146657895307
 20
668.2010991079708
 10
-1942.146659194018
 20
668.2010991079708
 10
-1942.146659194018
 20
675.3674182092291
 97
        0
 75
     0
 76
     1
 98
        0
  0
HATCH
  5
255
330
24C
100
AcDbEntity
  8
2D - Ogólne
  6
Continuous
370
    13
100
AcDbHatch
 10
0.0
 20
0.0
 30
0.0
210
0.0
220
0.0
230
1.0
  2
SOLID
 70
     1
 71
     0
 91
        1
 92
        2
 72
     0
 73
     1
 93
        4
 10
-1867.146657746527
 20
675.3674182092291
 10
-1867.146657746527
 20
668.2010991079708
 10
-1842.146659045238
 20
668.2010991079708
 10
-1842.146659045238
 20
675.3674182092291
 97
        0
 75
     0
 76
     1
 98
        0
  0
HATCH
  5
256
330
24C
100
AcDbEntity
  8
2D - Ogólne
  6
Continuous
370
    13
100
AcDbHatch
 10
0.0
 20
0.0
 30
0.0
210
0.0
220
0.0
230
1.0
  2
SOLID
 70
     1
 71
     0
 91
        1
 92
        2
 72
     0
 73
     1
 93
        4
 10
-1767.146657597747
 20
675.3674182092291
 10
-1767.146657597747
 20
668.2010991079708
 10
-1742.146658896458
 20
668.2010991079708
 10
-1742.146658896458
 20
675.3674182092291
 97
        0
 75
     0
 76
     1
 98
        0
  0
HATCH
  5
257
330
24C
100
AcDbEntity
  8
2D - Ogólne
  6
Continuous
370
    13
100
AcDbHatch
 10
0.0
 20
0.0
 30
0.0
210
0.0
220
0.0
230
1.0
  2
SOLID
 70
     1
 71
     0
 91
        1
 92
        2
 72
     0
 73
     1
 93
        4
 10
-2017.146660641509
 20
668.2010955894907
 10
-2042.146659342798
 20
668.2010955894907
 10
-2042.146659342798
 20
659.3674212930389
 10
-2017.146660641509
 20
659.3674212930389
 97
        0
 75
     0
 76
     1
 98
        0
  0
HATCH
  5
258
330
24C
100
AcDbEntity
  8
2D - Ogólne
  6
Continuous
370
    13
100
AcDbHatch
 10
0.0
 20
0.0
 30
0.0
210
0.0
220
0.0
230
1.0
  2
SOLID
 70
     1
 71
     0
 91
        1
 92
        2
 72
     0
 73
     1
 93
        4
 10
-1917.14666049273
 20
668.2010955894907
 10
-1942.146659194018
 20
668.2010955894907
 10
-1942.146659194018
 20
659.3674212930389
 10
-1917.14666049273
 20
659.3674212930389
 97
        0
 75
     0
 76
     1
 98
        0
  0
HATCH
  5
259
330
24C
100
AcDbEntity
  8
2D - Ogólne
  6
Continuous
370
    13
100
AcDbHatch
 10
0.0
 20
0.0
 30
0.0
210
0.0
220
0.0
230
1.0
  2
SOLID
 70
     1
 71
     0
 91
        1
 92
        2
 72
     0
 73
     1
 93
        4
 10
-1817.146660343949
 20
668.2010955894907
 10
-1842.146659045238
 20
668.2010955894907
 10
-1842.146659045238
 20
659.3674212930389
 10
-1817.146660343949
 20
659.3674212930389
 97
        0
 75
     0
 76
     1
 98
        0
  0
HATCH
  5
25A
330
24C
100
AcDbEntity
  8
2D - Ogólne
  6
Continuous
370
    13
100
AcDbHatch
 10
0.0
 20
0.0
 30
0.0
210
0.0
220
0.0
230
1.0
  2
SOLID
 70
     1
 71
     0
 91
        1
 92
        2
 72
     0
 73
     1
 93
        4
 10
-1717.14666019517
 20
668.2010955894907
 10
-1742.146658896458
 20
668.2010955894907
 10
-1742.146658896458
 20
659.3674212930389
 10
-1717.14666019517
 20
659.3674212930389
 97
        0
 75
     0
 76
     1
 98
        0
  0
HATCH
  5
25B
330
24C
100
AcDbEntity
  8
2D - Ogólne
  6
Continuous
370
    13
100
AcDbHatch
 10
0.0
 20
0.0
 30
0.0
210
0.0
220
0.0
230
1.0
  2
SOLID
 70
     1
 71
     0
 91
        1
 92
        2
 72
     0
 73
     1
 93
        4
 10
-2042.146659342798
 20
675.3674182092291
 10
-2042.146659342798
 20
668.2010991079708
 10
-2017.146660641509
 20
668.2010991079708
 10
-2017.146660641509
 20
675.3674182092291
 97
        0
 75
     0
 76
     1
 98
        0
  0
HATCH
  5
25C
330
24C
100
AcDbEntity
  8
2D - Ogólne
  6
Continuous
370
    13
100
AcDbHatch
 10
0.0
 20
0.0
 30
0.0
210
0.0
220
0.0
230
1.0
  2
SOLID
 70
     1
 71
     0
 91
        1
 92
        2
 72
     0
 73
     1
 93
        4
 10
-1942.146659194018
 20
675.3674182092291
 10
-1942.146659194018
 20
668.2010991079708
 10
-1917.14666049273
 20
668.2010991079708
 10
-1917.14666049273
 20
675.3674182092291
 97
        0
 75
     0
 76
     1
 98
        0
  0
HATCH
  5
25D
330
24C
100
AcDbEntity
  8
2D - Ogólne
  6
Continuous
370
    13
100
AcDbHatch
 10
0.0
 20
0.0
 30
0.0
210
0.0
220
0.0
230
1.0
  2
SOLID
 70
     1
 71
     0
 91
        1
 92
        2
 72
     0
 73
     1
 93
        4
 10
-1842.146659045238
 20
675.3674182092291
 10
-1842.146659045238
 20
668.2010991079708
 10
-1817.146660343949
 20
668.2010991079708
 10
-1817.146660343949
 20
675.3674182092291
 97
        0
 75
     0
 76
     1
 98
        0
  0
HATCH
  5
25E
330
24C
100
AcDbEntity
  8
2D - Ogólne
  6
Continuous
370
    13
100
AcDbHatch
 10
0.0
 20
0.0
 30
0.0
210
0.0
220
0.0
230
1.0
  2
SOLID
 70
     1
 71
     0
 91
        1
 92
        2
 72
     0
 73
     1
 93
        4
 10
-1742.146658896458
 20
675.3674182092291
 10
-1742.146658896458
 20
668.2010991079708
 10
-1717.14666019517
 20
668.2010991079708
 10
-1717.14666019517
 20
675.3674182092291
 97
        0
 75
     0
 76
     1
 98
        0
  0
ENDBLK
  5
24E
330
24C
100
AcDbEntity
  8
0
100
AcDbBlockEnd
  0
BLOCK
  5
299
330
298
100
AcDbEntity
  8
0
100
AcDbBlockBegin
  2
Bez nazwy_STORY_MARKER
 70
     0
 10
0.0
 20
0.0
 30
0.0
  3
Bez nazwy_STORY_MARKER
  1

  0
ENDBLK
  5
29A
330
298
100
AcDbEntity
  8
0
100
AcDbBlockEnd
  0
BLOCK
  5
29C
330
29B
100
AcDbEntity
  8
0
100
AcDbBlockBegin
  2
Rysunek_1
 70
     0
 10
0.0
 20
0.0
 30
0.0
  3
Rysunek_1
  1

  0
ENDBLK
  5
29D
330
29B
100
AcDbEntity
  8
0
100
AcDbBlockEnd
  0
BLOCK
  5
2A6
330
2A5
100
AcDbEntity
  8
0
100
AcDbBlockBegin
  2
02.04.2-20 \U+FF8CCIANA+PIWICA 05.01._STORY_MARKER
 70
     0
 10
0.0
 20
0.0
 30
0.0
  3
02.04.2-20 \U+FF8CCIANA+PIWICA 05.01._STORY_MARKER
  1

  0
ENDBLK
  5
2A7
330
2A5
100
AcDbEntity
  8
0
100
AcDbBlockEnd
  0
ENDSEC
  0
SECTION
  2
ENTITIES
  0
WIPEOUT
  5
5F
330
1F
100
AcDbEntity
  8
@__WIDOCZNE
  6
Wipeout_Contour
 62
   254
 48
7628.836565623822
370
     0
 92
      140
310
8C00000001000000840000000600000005000000324D3BED88649AC0CE27AF5C5EDB82400000000000000000324D3BED88589AC0CE27AF5C5EDB82400000000000000000324D3BED88589AC014FAEEDD956791400000000000000000324D3BED88649AC014FAEEDD956791400000000000000000324D3BED88649AC0CE27AF
310
5C5EDB82400000000000000000
100
AcDbWipeout
 90
        0
 10
-1689.133717466914
 20
603.4210752185843
 30
0.0
 11
3.0
 21
0.0
 31
0.0
 12
0.0
 22
510.4752792030442
 32
0.0
 13
1.0
 23
1.0
340
0
 70
    15
280
     1
281
    50
282
    50
283
     0
360
0
 71
     2
 91
        5
 14
-0.5
 24
0.5
 14
0.5
 24
0.5
 14
0.5
 24
-0.5
 14
-0.5
 24
-0.5
 14
-0.5
 24
0.5
  0
LINE
  5
62
330
1F
100
AcDbEntity
  8
@__WIDOCZNE
  6
Przerywana gęsta
370
    13
100
AcDbLine
 10
-1687.633717466913
 20
1113.896354421629
 30
0.0
 11
-1687.633717466914
 21
522.6816382125721
 31
0.0
  0
HATCH
  5
63
330
1F
100
AcDbEntity
  8
@__WIDOCZNE
  6
Continuous
370
    13
100
AcDbHatch
 10
0.0
 20
0.0
 30
0.0
210
0.0
220
0.0
230
1.0
  2
__Bloczki_ceramiczne_0002
 70
     0
 71
     0
 91
        1
 92
        2
 72
     0
 73
     1
 93
        4
 10
-1960.146875373657
 20
306.4010133702677
 10
-1960.146875373657
 20
399.3674194678953
 10
-2048.059647060918
 20
399.3674194678953
 10
-2048.059647060918
 20
306.4010133702677
 97
        0
 75
     0
 76
     2
 52
0.0
 41
1.0
 77
     0
 78
     1
 53
45.0
 43
0.0
 44
0.0
 45
-6.363960862091533
 46
6.363960862091534
 79
     0
 98
        0
  0
HATCH
  5
64
330
1F
100
AcDbEntity
  8
@__WIDOCZNE
  6
Continuous
370
    13
100
AcDbHatch
 10
0.0
 20
0.0
 30
0.0
210
0.0
220
0.0
230
1.0
  2
__Bloczki_ceramiczne_0002
 70
     0
 71
     0
 91
        1
 92
        2
 72
     0
 73
     1
 93
        4
 10
-2088.059647060917
 20
306.7783998646219
 10
-2088.059647060917
 20
399.3674194678953
 10
-2333.55964706092
 20
399.3674194678953
 10
-2333.55964706092
 20
306.7783998646219
 97
        0
 75
     0
 76
     2
 52
0.0
 41
1.0
 77
     0
 78
     1
 53
45.0
 43
0.0
 44
0.0
 45
-6.363960862091533
 46
6.363960862091534
 79
     0
 98
        0
  0
WIPEOUT
  5
65
330
1F
100
AcDbEntity
  8
@__WIDOCZNE
  6
Wipeout_Contour
 62
   254
 48
8379.653009554233
370
     0
 92
      140
310
8C00000001000000840000000600000005000000312EC4CA8748A2C0628DF30710017340000000000000000021A9DD978A2F9CC0628DF30710017340000000000000000021A9DD978A2F9CC026A63FF5014473400000000000000000AA47381A3248A2C026A63FF5014473400000000000000000312EC4CA8748A2C0628DF3
310
07100173400000000000000000
100
AcDbWipeout
 90
        0
 10
-2340.265218859328
 20
304.0664138330231
 30
0.0
 11
536.3798739120396
 21
0.0
 31
0.0
 12
0.0
 22
4.184064194920438
 32
0.0
 13
1.0
 23
1.0
340
0
 70
    15
280
     1
281
    50
282
    50
283
     0
360
0
 71
     2
 91
        5
 14
-0.4999999999999998
 24
0.5
 14
0.5000000000000002
 24
0.5
 14
0.5000000000000002
 24
-0.5
 14
-0.4996879775399165
 24
-0.5
 14
-0.4999999999999998
 24
0.5
  0
LINE
  5
66
330
1F
100
AcDbEntity
  8
@__WIDOCZNE
  6
Przerywana gęsta
370
    13
100
AcDbLine
 10
-1960.146875373657
 20
306.7504780279426
 30
0.0
 11
-1960.146875373657
 21
522.6816382125721
 31
0.0
  0
LINE
  5
67
330
1F
100
AcDbEntity
  8
@__WIDOCZNE
  6
Przerywana gęsta
370
    13
100
AcDbLine
 10
-1960.146875373657
 20
522.6816382125721
 30
0.0
 11
-1687.633717466914
 21
522.6816382125721
 31
0.0
  0
HATCH
  5
68
330
1F
100
AcDbEntity
  8
0
  6
Continuous
370
    13
100
AcDbHatch
 10
0.0
 20
0.0
 30
0.0
210
0.0
220
0.0
230
1.0
  2
SOLID
 70
     1
 71
     0
 91
        1
 92
        2
 72
     1
 73
     1
 93
        2
 10
-2325.059647060915
 20
1031.372716189989
 42
0.9999999999999999
 10
-2331.059647060915
 20
1031.372716189989
 42
0.9999999999999999
 97
        0
 75
     0
 76
     1
 98
        0
  0
HATCH
  5
69
330
1F
100
AcDbEntity
  8
0
  6
Continuous
370
    13
100
AcDbHatch
 10
0.0
 20
0.0
 30
0.0
210
0.0
220
0.0
230
1.0
  2
SOLID
 70
     1
 71
     0
 91
        1
 92
        2
 72
     1
 73
     1
 93
        2
 10
-2181.059647060917
 20
1031.372153784893
 42
0.9999999999999999
 10
-2175.059647060917
 20
1031.372153784893
 42
0.9999999999999999
 97
        0
 75
     0
 76
     1
 98
        0
  0
HATCH
  5
6A
330
1F
100
AcDbEntity
  8
0
  6
Continuous
370
    13
100
AcDbHatch
 10
0.0
 20
0.0
 30
0.0
210
0.0
220
0.0
230
1.0
  2
SOLID
 70
     1
 71
     0
 91
        1
 92
        2
 72
     1
 73
     1
 93
        2
 10
-1811.059647060919
 20
1031.372716189989
 42
-0.9999999999999999
 10
-1805.059647060919
 20
1031.372716189989
 42
-0.9999999999999999
 97
        0
 75
     0
 76
     1
 98
        0
  0
HATCH
  5
6B
330
1F
100
AcDbEntity
  8
0
  6
Continuous
370
    13
100
AcDbHatch
 10
0.0
 20
0.0
 30
0.0
210
0.0
220
0.0
230
1.0
  2
SOLID
 70
     1
 71
     0
 91
        1
 92
        2
 72
     1
 73
     1
 93
        2
 10
-1955.059647060918
 20
1031.372153784893
 42
-0.9999999999999999
 10
-1961.059647060918
 20
1031.372153784893
 42
-0.9999999999999999
 97
        0
 75
     0
 76
     1
 98
        0
  0
HATCH
  5
6C
330
1F
100
AcDbEntity
  8
0
  6
Continuous
370
    13
100
AcDbHatch
 10
0.0
 20
0.0
 30
0.0
210
0.0
220
0.0
230
1.0
  2
Płyty_kamienne_0002
 70
     0
 71
     0
 91
        1
 92
        2
 72
     0
 73
     1
 93
        4
 10
-2088.059647060917
 20
1085.372716189989
 10
-2448.05964706092
 20
1085.372716189989
 10
-2448.05964706092
 20
1077.372716189989
 10
-2088.059647060917
 20
1077.372716189989
 97
        0
 75
     0
 76
     2
 52
0.0
 41
1.0
 77
     0
 78
     2
 53
45.0
 43
0.0
 44
17.5
 45
-5.568465901844061
 46
5.568465901844062
 79
     4
 49
0.0
 49
-5.249999999999999
 49
0.0
 49
-7.875
 53
110.0
 43
17.5
 44
17.5
 45
7.400079388689027
 46
2.693408628689645
 79
     4
 49
0.0
 49
-3.85
 49
0.0
 49
-6.649999999999999
 98
        0
  0
HATCH
  5
6D
330
1F
100
AcDbEntity
  8
0
  6
Continuous
370
    13
100
AcDbHatch
 10
0.0
 20
0.0
 30
0.0
210
0.0
220
0.0
230
1.0
  2
Beton_zbrojony_0002
 70
     0
 71
     0
 91
        1
 92
        2
 72
     0
 73
     1
 93
        4
 10
-2088.059647060917
 20
991.3727161899892
 10
-2088.059647060917
 20
1061.372716189989
 10
-2448.05964706092
 20
1061.372716189989
 10
-2448.05964706092
 20
991.3727161899892
 97
        0
 75
     0
 76
     2
 52
0.0
 41
1.0
 77
     0
 78
     2
 53
44.99999999999999
 43
0.0
 44
0.0
 45
-9.192387818250328
 46
9.19238781825033
 79
     0
 53
44.99999999999999
 43
-4.596193909125164
 44
4.596193909125165
 45
-9.192387818250328
 46
9.19238781825033
 79
     2
 49
9.749999642372131
 49
-3.24999988079071
 98
        0
  0
HATCH
  5
6E
330
1F
100
AcDbEntity
  8
0
  6
Continuous
370
    13
100
AcDbHatch
 10
0.0
 20
0.0
 30
0.0
210
0.0
220
0.0
230
1.0
  2
Beton_zbrojony_0002
 70
     0
 71
     0
 91
        1
 92
        2
 72
     0
 73
     1
 93
        4
 10
-2448.059647060922
 20
399.3674194678953
 10
-2088.059647060917
 20
399.3674194678953
 10
-2088.059647060917
 20
639.3674194678955
 10
-2448.059647060922
 20
639.3674194678955
 97
        0
 75
     0
 76
     2
 52
0.0
 41
1.0
 77
     0
 78
     2
 53
44.99999999999999
 43
0.0
 44
0.0
 45
-9.192387818250328
 46
9.19238781825033
 79
     0
 53
44.99999999999999
 43
-4.596193909125164
 44
4.596193909125165
 45
-9.192387818250328
 46
9.19238781825033
 79
     2
 49
9.749999642372131
 49
-3.24999988079071
 98
        0
  0
HATCH
  5
6F
330
1F
100
AcDbEntity
  8
0
  6
Continuous
370
    13
100
AcDbHatch
 10
0.0
 20
0.0
 30
0.0
210
0.0
220
0.0
230
1.0
  2
Płyty_kamienne_0002
 70
     0
 71
     0
 91
        1
 92
        2
 72
     0
 73
     1
 93
        4
 10
-2048.059647060918
 20
1077.372716189989
 10
-1687.633717466911
 20
1077.372716189989
 10
-1687.633717466911
 20
1086.675864214348
 10
-2048.059647060918
 20
1086.675864214349
 97
        0
 75
     0
 76
     2
 52
0.0
 41
1.0
 77
     0
 78
     2
 53
45.0
 43
0.0
 44
17.5
 45
-5.568465901844061
 46
5.568465901844062
 79
     4
 49
0.0
 49
-5.249999999999999
 49
0.0
 49
-7.875
 53
110.0
 43
17.5
 44
17.5
 45
7.400079388689027
 46
2.693408628689645
 79
     4
 49
0.0
 49
-3.85
 49
0.0
 49
-6.649999999999999
 98
        0
  0
HATCH
  5
70
330
1F
100
AcDbEntity
  8
0
  6
Continuous
370
    13
100
AcDbHatch
 10
0.0
 20
0.0
 30
0.0
210
0.0
220
0.0
230
1.0
  2
Beton_zbrojony_0002
 70
     0
 71
     0
 91
        1
 92
        2
 72
     0
 73
     1
 93
        4
 10
-2048.059647060918
 20
991.3727161899892
 10
-2048.059647060918
 20
1061.372716189989
 10
-1687.633717466911
 20
1061.372716189989
 10
-1687.633717466911
 20
991.3727161899892
 97
        0
 75
     0
 76
     2
 52
0.0
 41
1.0
 77
     0
 78
     2
 53
44.99999999999999
 43
0.0
 44
0.0
 45
-9.192387818250328
 46
9.19238781825033
 79
     0
 53
44.99999999999999
 43
-4.596193909125164
 44
4.596193909125165
 45
-9.192387818250328
 46
9.19238781825033
 79
     2
 49
9.749999642372131
 49
-3.24999988079071
 98
        0
  0
HATCH
  5
71
330
1F
100
AcDbEntity
  8
0
  6
Continuous
370
    13
100
AcDbHatch
 10
0.0
 20
0.0
 30
0.0
210
0.0
220
0.0
230
1.0
  2
Beton_zbrojony_0002
 70
     0
 71
     0
 91
        1
 92
        2
 72
     0
 73
     1
 93
        6
 10
-1687.633717466909
 20
522.6816382125721
 10
-1687.633717466909
 20
639.3674194678947
 10
-2048.059647060918
 20
639.3674194678947
 10
-2048.059647060918
 20
399.3674194678953
 10
-1960.146875373657
 20
399.3674194678953
 10
-1960.146875373657
 20
522.6816382125721
 97
        0
 75
     0
 76
     2
 52
0.0
 41
1.0
 77
     0
 78
     2
 53
44.99999999999999
 43
0.0
 44
0.0
 45
-9.192387818250328
 46
9.19238781825033
 79
     0
 53
44.99999999999999
 43
-4.596193909125164
 44
4.596193909125165
 45
-9.192387818250328
 46
9.19238781825033
 79
     2
 49
9.749999642372131
 49
-3.24999988079071
 98
        0
  0
HATCH
  5
72
330
1F
100
AcDbEntity
  8
0
  6
Continuous
370
    13
100
AcDbHatch
 10
0.0
 20
0.0
 30
0.0
210
0.0
220
0.0
230
1.0
  2
Bloczki_betonowe_0002
 70
     0
 71
     0
 91
        1
 92
        2
 72
     1
 73
     1
 93
        2
 10
-2088.059647060917
 20
1064.195030703884
 42
1.078662729979254
 10
-2048.059647060918
 20
1064.195030703884
 42
0.9999999999999999
 97
        0
 75
     0
 76
     2
 52
0.0
 41
1.0
 77
     0
 78
     2
 53
44.99999999999999
 43
0.0
 44
0.0
 45
-4.596193909125164
 46
4.596193909125165
 79
     0
 53
135.0
 43
0.0
 44
0.0
 45
4.596193909125163
 46
4.596193909125166
 79
     0
 98
        0
  0
HATCH
  5
73
330
1F
100
AcDbEntity
  8
@__WIDOCZNE
  6
Continuous
 62
   142
370
    13
100
AcDbHatch
 10
0.0
 20
0.0
 30
0.0
210
0.0
220
0.0
230
1.0
  2
SOLID
 70
     1
 71
     1
 91
        1
 92
        2
 72
     1
 73
     1
 93
        6
 10
-2233.060641540805
 20
212.4859122911715
 42
0.0
 10
-2233.060641540805
 20
224.775023479042
 42
0.0
 10
-2245.349752728675
 20
224.775023479042
 42
0.414213562373095
 10
-2260.09668615412
 20
210.0280900535978
 42
0.0
 10
-2260.09668615412
 20
197.7389788657273
 42
0.0
 10
-2247.807574966249
 20
197.7389788657273
 42
0.414213562373095
 97
        1
330
74
 75
     0
 76
     1
 98
        0
  0
LWPOLYLINE
  5
74
102
{ACAD_REACTORS
330
73
102
}
330
1F
100
AcDbEntity
  8
@__WIDOCZNE
  6
Continuous
 62
   142
370
    13
100
AcDbPolyline
 90
        6
 70
   129
 43
0.0
 10
-2233.060641540805
 20
212.4859122911715
 10
-2233.060641540805
 20
224.775023479042
 10
-2245.349752728675
 20
224.775023479042
 42
0.414213562373095
 10
-2260.09668615412
 20
210.0280900535978
 10
-2260.09668615412
 20
197.7389788657273
 10
-2247.807574966249
 20
197.7389788657273
 42
0.414213562373095
  0
HATCH
  5
75
330
1F
100
AcDbEntity
  8
@__WIDOCZNE
  6
Continuous
370
    13
100
AcDbHatch
 10
0.0
 20
0.0
 30
0.0
210
0.0
220
0.0
230
1.0
  2
SOLID
 70
     1
 71
     1
 91
        3
 92
        2
 72
     1
 73
     1
 93
        8
 10
-2460.364136359056
 20
198.146489925878
 42
0.0723831287448308
 10
-2478.200089100327
 20
197.9944156571989
 42
0.0
 10
-2478.200089100327
 20
163.6790739171294
 42
0.0475754375093521
 10
-2468.554880397918
 20
162.6271847254372
 42
0.0
 10
-2467.170150362709
 20
162.6271847254372
 42
0.0201526900432898
 10
-2463.058607140417
 20
162.8488041146259
 42
0.1117820670402823
 10
-2454.29212603835
 20
165.6180800812246
 42
0.5989391739264164
 10
-2457.20156273198
 20
182.0561156045137
 42
0.7144612958116017
 97
        1
330
76
 92
        2
 72
     1
 73
     1
 93
        4
 10
-2471.78295924638
 20
184.0907499309408
 42
0.018587651104709
 10
-2462.984694258975
 20
184.0992214624304
 42
0.8637728306683231
 10
-2463.241239102949
 20
193.2394958713655
 42
0.0363046036528515
 10
-2471.78295924638
 20
193.2394958713655
 42
0.0
 97
        1
330
77
 92
        2
 72
     1
 73
     1
 93
        4
 10
-2471.683753887556
 20
168.214423800392
 42
0.0570602598095221
 10
-2462.61329674584
 20
168.3019603696767
 42
0.9504624262000833
 10
-2462.708443889126
 20
178.9674522043034
 42
0.0333151677067815
 10
-2471.683753887556
 20
178.9674522043034
 42
0.0
 97
        1
330
78
 75
     0
 76
     1
 98
        0
  0
LWPOLYLINE
  5
76
102
{ACAD_REACTORS
330
75
102
}
330
1F
100
AcDbEntity
  8
@__WIDOCZNE
  6
Continuous
370
    13
100
AcDbPolyline
 90
        8
 70
   129
 43
0.0
 10
-2460.364136359056
 20
198.146489925878
 42
0.0723831287448308
 10
-2478.200089100327
 20
197.9944156571989
 10
-2478.200089100327
 20
163.6790739171294
 42
0.0475754375093521
 10
-2468.554880397918
 20
162.6271847254372
 10
-2467.170150362709
 20
162.6271847254372
 42
0.0201526900432898
 10
-2463.058607140417
 20
162.8488041146259
 42
0.1117820670402823
 10
-2454.29212603835
 20
165.6180800812246
 42
0.5989391739264164
 10
-2457.20156273198
 20
182.0561156045137
 42
0.7144612958116017
  0
LWPOLYLINE
  5
77
102
{ACAD_REACTORS
330
75
102
}
330
1F
100
AcDbEntity
  8
@__WIDOCZNE
  6
Continuous
370
    13
100
AcDbPolyline
 90
        4
 70
   129
 43
0.0
 10
-2471.78295924638
 20
184.0907499309408
 42
0.018587651104709
 10
-2462.984694258975
 20
184.0992214624304
 42
0.8637728306683231
 10
-2463.241239102949
 20
193.2394958713655
 42
0.0363046036528515
 10
-2471.78295924638
 20
193.2394958713655
  0
LWPOLYLINE
  5
78
102
{ACAD_REACTORS
330
75
102
}
330
1F
100
AcDbEntity
  8
@__WIDOCZNE
  6
Continuous
370
    13
100
AcDbPolyline
 90
        4
 70
   129
 43
0.0
 10
-2471.683753887556
 20
168.214423800392
 42
0.0570602598095221
 10
-2462.61329674584
 20
168.3019603696767
 42
0.9504624262000833
 10
-2462.708443889126
 20
178.9674522043034
 42
0.0333151677067815
 10
-2471.683753887556
 20
178.9674522043034
  0
HATCH
  5
79
330
1F
100
AcDbEntity
  8
@__WIDOCZNE
  6
Continuous
370
    13
100
AcDbHatch
 10
0.0
 20
0.0
 30
0.0
210
0.0
220
0.0
230
1.0
  2
SOLID
 70
     1
 71
     1
 91
        1
 92
        2
 72
     1
 73
     1
 93
       12
 10
-2402.761004281093
 20
190.2914016061237
 42
0.0
 10
-2410.721714018827
 20
190.2914016061237
 42
0.0
 10
-2410.721714018827
 20
198.0343059238585
 42
0.0
 10
-2416.861346365576
 20
196.7855671414682
 42
0.0
 10
-2416.861346365576
 20
171.2593115854002
 42
0.3686923280690939
 10
-2408.229270944844
 20
162.6569850158477
 42
0.0
 10
-2402.006024872016
 20
162.6784693670871
 42
0.0
 10
-2400.679772977111
 20
168.4808214073019
 42
0.0
 10
-2407.034980662467
 20
168.4808214073019
 42
-0.3159610186060354
 10
-2410.721714018827
 20
172.1675547636634
 42
0.0
 10
-2410.721714018827
 20
184.5583332305694
 42
0.0
 10
-2402.761004281093
 20
184.5583332305694
 42
0.0
 97
        1
330
7A
 75
     0
 76
     1
 98
        0
  0
LWPOLYLINE
  5
7A
102
{ACAD_REACTORS
330
79
102
}
330
1F
100
AcDbEntity
  8
@__WIDOCZNE
  6
Continuous
370
    13
100
AcDbPolyline
 90
       12
 70
   129
 43
0.0
 10
-2402.761004281093
 20
190.2914016061237
 10
-2410.721714018827
 20
190.2914016061237
 10
-2410.721714018827
 20
198.0343059238585
 10
-2416.861346365576
 20
196.7855671414682
 10
-2416.861346365576
 20
171.2593115854002
 42
0.3686923280690939
 10
-2408.229270944844
 20
162.6569850158477
 10
-2402.006024872016
 20
162.6784693670871
 10
-2400.679772977111
 20
168.4808214073019
 10
-2407.034980662467
 20
168.4808214073019
 42
-0.3159610186060354
 10
-2410.721714018827
 20
172.1675547636634
 10
-2410.721714018827
 20
184.5583332305694
 10
-2402.761004281093
 20
184.5583332305694
  0
HATCH
  5
7B
330
1F
100
AcDbEntity
  8
@__WIDOCZNE
  6
Continuous
370
    13
100
AcDbHatch
 10
0.0
 20
0.0
 30
0.0
210
0.0
220
0.0
230
1.0
  2
SOLID
 70
     1
 71
     1
 91
        2
 92
        2
 72
     1
 73
     1
 93
       14
 10
-2385.749119825466
 20
184.3911192942747
 42
-0.387209016979461
 10
-2381.881371775676
 20
180.3329072796869
 42
0.0
 10
-2381.846811130498
 20
178.7978101648209
 42
0.1185067504646354
 10
-2390.733866147223
 20
178.8778709746426
 42
0.2642193030162518
 10
-2397.092422163342
 20
173.830651038144
 42
0.1757337626801403
 10
-2397.100110445591
 20
168.2419655651923
 42
0.2604621029539542
 10
-2390.961886503055
 20
162.7820836792386
 42
0.0083652857947627
 10
-2389.189791244612
 20
162.6271847254372
 42
0.0
 10
-2381.704096746566
 20
162.6271847254372
 42
0.028992295246684
 10
-2375.594454203081
 20
163.4161679587782
 42
0.0
 10
-2375.907901445326
 20
180.748964512305
 42
0.4278697545607686
 10
-2384.616806275462
 20
189.9486421098908
 42
0.0
 10
-2393.343522372149
 20
189.9852766918064
 42
0.0
 10
-2394.724429823892
 20
184.3911192942747
 42
0.0
 97
        1
330
7C
 92
        2
 72
     1
 73
     1
 93
        6
 10
-2381.791909392085
 20
174.5454186886732
 42
0.1273826308893613
 10
-2388.583028245157
 20
174.7202198573499
 42
0.2091253650713026
 10
-2391.266997983153
 20
172.1724212427214
 42
0.067218802794298
 10
-2391.235468759156
 20
170.218651939078
 42
0.2977682718343915
 10
-2388.475292163637
 20
167.3811318384084
 42
0.0710664823309622
 10
-2381.791909392085
 20
167.3941971218929
 42
0.0
 97
        1
330
7D
 75
     0
 76
     1
 98
        0
  0
LWPOLYLINE
  5
7C
102
{ACAD_REACTORS
330
7B
102
}
330
1F
100
AcDbEntity
  8
@__WIDOCZNE
  6
Continuous
370
    13
100
AcDbPolyline
 90
       14
 70
   129
 43
0.0
 10
-2385.749119825466
 20
184.3911192942747
 42
-0.387209016979461
 10
-2381.881371775676
 20
180.3329072796869
 10
-2381.846811130498
 20
178.7978101648209
 42
0.1185067504646354
 10
-2390.733866147223
 20
178.8778709746426
 42
0.2642193030162518
 10
-2397.092422163342
 20
173.830651038144
 42
0.1757337626801403
 10
-2397.100110445591
 20
168.2419655651923
 42
0.2604621029539542
 10
-2390.961886503055
 20
162.7820836792386
 42
0.0083652857947627
 10
-2389.189791244612
 20
162.6271847254372
 10
-2381.704096746566
 20
162.6271847254372
 42
0.028992295246684
 10
-2375.594454203081
 20
163.4161679587782
 10
-2375.907901445326
 20
180.748964512305
 42
0.4278697545607686
 10
-2384.616806275462
 20
189.9486421098908
 10
-2393.343522372149
 20
189.9852766918064
 10
-2394.724429823892
 20
184.3911192942747
  0
LWPOLYLINE
  5
7D
102
{ACAD_REACTORS
330
7B
102
}
330
1F
100
AcDbEntity
  8
@__WIDOCZNE
  6
Continuous
370
    13
100
AcDbPolyline
 90
        6
 70
   129
 43
0.0
 10
-2381.791909392085
 20
174.5454186886732
 42
0.1273826308893613
 10
-2388.583028245157
 20
174.7202198573499
 42
0.2091253650713026
 10
-2391.266997983153
 20
172.1724212427214
 42
0.067218802794298
 10
-2391.235468759156
 20
170.218651939078
 42
0.2977682718343915
 10
-2388.475292163637
 20
167.3811318384084
 42
0.0710664823309622
 10
-2381.791909392085
 20
167.3941971218929
  0
HATCH
  5
7E
330
1F
100
AcDbEntity
  8
@__WIDOCZNE
  6
Continuous
370
    13
100
AcDbHatch
 10
0.0
 20
0.0
 30
0.0
210
0.0
220
0.0
230
1.0
  2
SOLID
 70
     1
 71
     1
 91
        1
 92
        2
 72
     1
 73
     1
 93
       26
 10
-2365.158841238945
 20
190.0745195847637
 42
0.0863077155126181
 10
-2370.951020187098
 20
188.6552775208461
 42
0.0
 10
-2370.951020187098
 20
162.6271847254372
 42
0.0
 10
-2364.452169287353
 20
162.6271847254372
 42
0.0
 10
-2364.452169287353
 20
184.4204173817658
 42
-0.12168371550613
 10
-2359.620779582958
 20
184.8966327309807
 42
-0.3861329478031837
 10
-2355.67845990019
 20
180.3052953709212
 42
0.0
 10
-2355.67845990019
 20
162.6271847254372
 42
0.0
 10
-2349.434765988241
 20
162.6271847254372
 42
0.0
 10
-2349.525718727098
 20
179.7282516715812
 42
0.0
 10
-2349.434765988241
 20
179.7301273302088
 42
0.0799288732000265
 10
-2350.061544211963
 20
183.2824568620994
 42
0.0
 10
-2349.429197408038
 20
183.6735138362622
 42
-0.1916235362829357
 10
-2343.841024165825
 20
184.7612072546587
 42
-0.3589776600930252
 10
-2340.451351958608
 20
180.7072557575484
 42
0.0
 10
-2340.448230421975
 20
162.6271847254372
 42
0.0
 10
-2334.49406252924
 20
162.6271847254372
 42
0.0
 10
-2334.496708794973
 20
181.9611987332861
 42
0.3475935087177212
 10
-2341.742977354661
 20
190.2914016061237
 42
0.0
 10
-2346.645093390208
 20
190.2914016061237
 42
0.0002381544695914
 10
-2346.678820549336
 20
190.2890280402376
 42
0.1173548723086789
 10
-2349.679197302392
 20
189.421680943167
 42
0.1053500657717058
 10
-2352.784629449916
 20
187.4703184612203
 42
0.1560368886834541
 10
-2357.385423603941
 20
190.1304297063415
 42
0.0158994515272265
 10
-2359.598953272029
 20
190.2914016061237
 42
0.0
 10
-2362.446327969357
 20
190.2914016061237
 42
0.0194967579096993
 97
        1
330
7F
 75
     0
 76
     1
 98
        0
  0
LWPOLYLINE
  5
7F
102
{ACAD_REACTORS
330
7E
102
}
330
1F
100
AcDbEntity
  8
@__WIDOCZNE
  6
Continuous
370
    13
100
AcDbPolyline
 90
       26
 70
   129
 43
0.0
 10
-2365.158841238945
 20
190.0745195847637
 42
0.0863077155126181
 10
-2370.951020187098
 20
188.6552775208461
 10
-2370.951020187098
 20
162.6271847254372
 10
-2364.452169287353
 20
162.6271847254372
 10
-2364.452169287353
 20
184.4204173817658
 42
-0.12168371550613
 10
-2359.620779582958
 20
184.8966327309807
 42
-0.3861329478031837
 10
-2355.67845990019
 20
180.3052953709212
 10
-2355.67845990019
 20
162.6271847254372
 10
-2349.434765988241
 20
162.6271847254372
 10
-2349.525718727098
 20
179.7282516715812
 10
-2349.434765988241
 20
179.7301273302088
 42
0.0799288732000265
 10
-2350.061544211963
 20
183.2824568620994
 10
-2349.429197408038
 20
183.6735138362622
 42
-0.1916235362829357
 10
-2343.841024165825
 20
184.7612072546587
 42
-0.3589776600930252
 10
-2340.451351958608
 20
180.7072557575484
 10
-2340.448230421975
 20
162.6271847254372
 10
-2334.49406252924
 20
162.6271847254372
 10
-2334.496708794973
 20
181.9611987332861
 42
0.3475935087177212
 10
-2341.742977354661
 20
190.2914016061237
 10
-2346.645093390208
 20
190.2914016061237
 42
0.0002381544695914
 10
-2346.678820549336
 20
190.2890280402376
 42
0.1173548723086789
 10
-2349.679197302392
 20
189.421680943167
 42
0.1053500657717058
 10
-2352.784629449916
 20
187.4703184612203
 42
0.1560368886834541
 10
-2357.385423603941
 20
190.1304297063415
 42
0.0158994515272265
 10
-2359.598953272029
 20
190.2914016061237
 10
-2362.446327969357
 20
190.2914016061237
 42
0.0194967579096993
  0
HATCH
  5
80
330
1F
100
AcDbEntity
  8
@__WIDOCZNE
  6
Continuous
370
    13
100
AcDbHatch
 10
0.0
 20
0.0
 30
0.0
210
0.0
220
0.0
230
1.0
  2
SOLID
 70
     1
 71
     1
 91
        2
 92
        2
 72
     1
 73
     1
 93
       14
 10
-2320.141792080859
 20
189.6688263596271
 42
0.2809658966461606
 10
-2329.3395360775
 20
180.1536074390357
 42
0.1091159824470767
 10
-2329.33263856142
 20
171.6692040022663
 42
0.2766399819923606
 10
-2320.092686316951
 20
162.99778369038
 42
0.0392105095801167
 10
-2317.558921076936
 20
162.6382814732459
 42
0.0
 10
-2308.751172021254
 20
162.6271847254372
 42
0.0
 10
-2307.651858921562
 20
168.0644262901145
 42
0.0
 10
-2316.852881197431
 20
168.0644262901145
 42
-0.1667294674755062
 10
-2320.841804399697
 20
169.4326018969523
 42
-0.081638462027361
 10
-2322.89066502481
 20
172.0674744449022
 42
-0.0661503038161424
 10
-2323.167314539614
 20
173.8368786591611
 42
0.0
 10
-2305.580910020958
 20
173.8368786591611
 42
0.0
 10
-2305.580910020958
 20
179.4562031799147
 42
0.3105787245802772
 10
-2313.972835035355
 20
189.6825642322515
 42
0.1083142208160692
 97
        1
330
81
 92
        2
 72
     1
 73
     1
 93
        5
 10
-2315.640053659076
 20
184.9856458261794
 42
0.1431069476368757
 10
-2318.612425328111
 20
185.0911235085517
 42
0.3279495498710064
 10
-2323.164992439465
 20
178.8862156606417
 42
0.0
 10
-2311.478544942464
 20
178.8862156606417
 42
0.0
 10
-2311.478544942464
 20
179.3640028052988
 42
0.3298596086471468
 97
        1
330
82
 75
     0
 76
     1
 98
        0
  0
LWPOLYLINE
  5
81
102
{ACAD_REACTORS
330
80
102
}
330
1F
100
AcDbEntity
  8
@__WIDOCZNE
  6
Continuous
370
    13
100
AcDbPolyline
 90
       14
 70
   129
 43
0.0
 10
-2320.141792080859
 20
189.6688263596271
 42
0.2809658966461606
 10
-2329.3395360775
 20
180.1536074390357
 42
0.1091159824470767
 10
-2329.33263856142
 20
171.6692040022663
 42
0.2766399819923606
 10
-2320.092686316951
 20
162.99778369038
 42
0.0392105095801167
 10
-2317.558921076936
 20
162.6382814732459
 10
-2308.751172021254
 20
162.6271847254372
 10
-2307.651858921562
 20
168.0644262901145
 10
-2316.852881197431
 20
168.0644262901145
 42
-0.1667294674755062
 10
-2320.841804399697
 20
169.4326018969523
 42
-0.081638462027361
 10
-2322.89066502481
 20
172.0674744449022
 42
-0.0661503038161424
 10
-2323.167314539614
 20
173.8368786591611
 10
-2305.580910020958
 20
173.8368786591611
 10
-2305.580910020958
 20
179.4562031799147
 42
0.3105787245802772
 10
-2313.972835035355
 20
189.6825642322515
 42
0.1083142208160692
  0
LWPOLYLINE
  5
82
102
{ACAD_REACTORS
330
80
102
}
330
1F
100
AcDbEntity
  8
@__WIDOCZNE
  6
Continuous
370
    13
100
AcDbPolyline
 90
        5
 70
   129
 43
0.0
 10
-2315.640053659076
 20
184.9856458261794
 42
0.1431069476368757
 10
-2318.612425328111
 20
185.0911235085517
 42
0.3279495498710064
 10
-2323.164992439465
 20
178.8862156606417
 10
-2311.478544942464
 20
178.8862156606417
 10
-2311.478544942464
 20
179.3640028052988
 42
0.3298596086471468
  0
HATCH
  5
83
330
1F
100
AcDbEntity
  8
@__WIDOCZNE
  6
Continuous
370
    13
100
AcDbHatch
 10
0.0
 20
0.0
 30
0.0
210
0.0
220
0.0
230
1.0
  2
SOLID
 70
     1
 71
     1
 91
        1
 92
        2
 72
     1
 73
     1
 93
       13
 10
-2286.836256374796
 20
190.1130430798368
 42
0.0175531184166386
 10
-2289.644418105004
 20
190.2914016061237
 42
0.0
 10
-2291.915227747819
 20
190.2914016061237
 42
0.0177750747803509
 10
-2294.758795509944
 20
190.1095272606721
 42
0.0683229953867364
 10
-2301.079238402647
 20
188.8627338948439
 42
0.0
 10
-2301.079238402647
 20
162.6271847254372
 42
0.0
 10
-2294.830753110244
 20
162.6271847254372
 42
0.0
 10
-2294.830753110244
 20
184.4426543279063
 42
-0.0958663550348273
 10
-2288.739921986668
 20
184.7204097332123
 42
-0.3633763851128492
 10
-2285.062165682073
 20
180.3280817278896
 42
0.0
 10
-2285.062165682073
 20
162.6271847254372
 42
0.0
 10
-2278.977095419548
 20
162.6271847254372
 42
0.0
 10
-2278.977095419548
 20
181.2746730269961
 42
0.3803017440747632
 97
        1
330
84
 75
     0
 76
     1
 98
        0
  0
LWPOLYLINE
  5
84
102
{ACAD_REACTORS
330
83
102
}
330
1F
100
AcDbEntity
  8
@__WIDOCZNE
  6
Continuous
370
    13
100
AcDbPolyline
 90
       13
 70
   129
 43
0.0
 10
-2286.836256374796
 20
190.1130430798368
 42
0.0175531184166386
 10
-2289.644418105004
 20
190.2914016061237
 10
-2291.915227747819
 20
190.2914016061237
 42
0.0177750747803509
 10
-2294.758795509944
 20
190.1095272606721
 42
0.0683229953867364
 10
-2301.079238402647
 20
188.8627338948439
 10
-2301.079238402647
 20
162.6271847254372
 10
-2294.830753110244
 20
162.6271847254372
 10
-2294.830753110244
 20
184.4426543279063
 42
-0.0958663550348273
 10
-2288.739921986668
 20
184.7204097332123
 42
-0.3633763851128492
 10
-2285.062165682073
 20
180.3280817278896
 10
-2285.062165682073
 20
162.6271847254372
 10
-2278.977095419548
 20
162.6271847254372
 10
-2278.977095419548
 20
181.2746730269961
 42
0.3803017440747632
  0
HATCH
  5
85
330
1F
100
AcDbEntity
  8
@__WIDOCZNE
  6
Continuous
370
    13
100
AcDbHatch
 10
0.0
 20
0.0
 30
0.0
210
0.0
220
0.0
230
1.0
  2
SOLID
 70
     1
 71
     1
 91
        1
 92
        2
 72
     1
 73
     1
 93
       12
 10
-2274.236090849879
 20
171.2593115854002
 42
0.3564817226562251
 10
-2265.604015429148
 20
162.6569850158477
 42
0.0
 10
-2259.38076935632
 20
162.6784693670871
 42
0.0
 10
-2258.054517461413
 20
168.4808214073019
 42
0.0
 10
-2264.409725146768
 20
168.4808214073019
 42
-0.3014632934563285
 10
-2268.096458503131
 20
172.1675547636634
 42
0.0
 10
-2268.096458503131
 20
184.5583332305694
 42
0.0
 10
-2260.135748765395
 20
184.5583332305694
 42
0.0
 10
-2260.135748765395
 20
190.2914016061237
 42
0.0
 10
-2268.096458503131
 20
190.2914016061237
 42
0.0
 10
-2268.096458503131
 20
198.0343059238585
 42
0.0
 10
-2274.236090849879
 20
196.7855671414682
 42
0.0
 97
        1
330
86
 75
     0
 76
     1
 98
        0
  0
LWPOLYLINE
  5
86
102
{ACAD_REACTORS
330
85
102
}
330
1F
100
AcDbEntity
  8
@__WIDOCZNE
  6
Continuous
370
    13
100
AcDbPolyline
 90
       12
 70
   129
 43
0.0
 10
-2274.236090849879
 20
171.2593115854002
 42
0.3564817226562251
 10
-2265.604015429148
 20
162.6569850158477
 10
-2259.38076935632
 20
162.6784693670871
 10
-2258.054517461413
 20
168.4808214073019
 10
-2264.409725146768
 20
168.4808214073019
 42
-0.3014632934563285
 10
-2268.096458503131
 20
172.1675547636634
 10
-2268.096458503131
 20
184.5583332305694
 10
-2260.135748765395
 20
184.5583332305694
 10
-2260.135748765395
 20
190.2914016061237
 10
-2268.096458503131
 20
190.2914016061237
 10
-2268.096458503131
 20
198.0343059238585
 10
-2274.236090849879
 20
196.7855671414682
  0
HATCH
  5
87
330
1F
100
AcDbEntity
  8
@__WIDOCZNE
  6
Continuous
370
    13
100
AcDbHatch
 10
0.0
 20
0.0
 30
0.0
210
0.0
220
0.0
230
1.0
  2
SOLID
 70
     1
 71
     1
 91
        2
 92
        2
 72
     1
 73
     1
 93
        9
 10
-2437.236234825413
 20
190.0539776868158
 42
0.2820479307333718
 10
-2446.658312936192
 20
180.5277728468377
 42
0.0886832537999132
 10
-2446.641170113751
 20
171.8777022296489
 42
0.2508564250541997
 10
-2437.925162784696
 20
162.6271847254372
 42
0.0
 10
-2430.41780263348
 20
162.6271847254372
 42
0.2670900430231695
 10
-2421.595228159987
 20
172.7181849459658
 42
0.1207336614180937
 10
-2421.573204299135
 20
180.0625141135876
 42
0.3094451166888095
 10
-2430.915507077448
 20
190.0367102227349
 42
0.0268897328129527
 10
-2432.588063093622
 20
190.2914016061237
 42
0.074328415179198
 97
        1
330
88
 92
        2
 72
     1
 73
     1
 93
        8
 10
-2440.454625002055
 20
179.222085426213
 42
0.0948073731652809
 10
-2440.502653349582
 20
173.6127058235342
 42
0.0590800675341869
 10
-2439.956906617607
 20
171.7469703410535
 42
0.6394418664691048
 10
-2428.496374022395
 20
171.3988332490768
 42
0.0835238969854629
 10
-2427.778995120193
 20
173.7455859392441
 42
0.0916297819744675
 10
-2427.892764297198
 20
179.5053405560738
 42
0.2559732989582162
 10
-2432.098785593123
 20
184.7200486953922
 42
0.1954327814670101
 10
-2436.375201068304
 20
184.5457819826377
 42
0.2505066079508973
 97
        1
330
89
 75
     0
 76
     1
 98
        0
  0
LWPOLYLINE
  5
88
102
{ACAD_REACTORS
330
87
102
}
330
1F
100
AcDbEntity
  8
@__WIDOCZNE
  6
Continuous
370
    13
100
AcDbPolyline
 90
        9
 70
   129
 43
0.0
 10
-2437.236234825413
 20
190.0539776868158
 42
0.2820479307333718
 10
-2446.658312936192
 20
180.5277728468377
 42
0.0886832537999132
 10
-2446.641170113751
 20
171.8777022296489
 42
0.2508564250541997
 10
-2437.925162784696
 20
162.6271847254372
 10
-2430.41780263348
 20
162.6271847254372
 42
0.2670900430231695
 10
-2421.595228159987
 20
172.7181849459658
 42
0.1207336614180937
 10
-2421.573204299135
 20
180.0625141135876
 42
0.3094451166888095
 10
-2430.915507077448
 20
190.0367102227349
 42
0.0268897328129527
 10
-2432.588063093622
 20
190.2914016061237
 42
0.074328415179198
  0
LWPOLYLINE
  5
89
102
{ACAD_REACTORS
330
87
102
}
330
1F
100
AcDbEntity
  8
@__WIDOCZNE
  6
Continuous
370
    13
100
AcDbPolyline
 90
        8
 70
   129
 43
0.0
 10
-2440.454625002055
 20
179.222085426213
 42
0.0948073731652809
 10
-2440.502653349582
 20
173.6127058235342
 42
0.0590800675341869
 10
-2439.956906617607
 20
171.7469703410535
 42
0.6394418664691048
 10
-2428.496374022395
 20
171.3988332490768
 42
0.0835238969854629
 10
-2427.778995120193
 20
173.7455859392441
 42
0.0916297819744675
 10
-2427.892764297198
 20
179.5053405560738
 42
0.2559732989582162
 10
-2432.098785593123
 20
184.7200486953922
 42
0.1954327814670101
 10
-2436.375201068304
 20
184.5457819826377
 42
0.2505066079508973
  0
HATCH
  5
8A
330
1F
100
AcDbEntity
  8
@__WIDOCZNE
  6
Continuous
370
    13
100
AcDbHatch
 10
0.0
 20
0.0
 30
0.0
210
0.0
220
0.0
230
1.0
  2
__Kropki_luz_n2_burzenie_2C
 70
     0
 71
     1
 91
        1
 92
        2
 72
     0
 73
     1
 93
        4
 10
-2048.059647060918
 20
639.3674194678947
 10
-1687.633717466909
 20
639.3674194678947
 10
-1687.633717466909
 20
659.3674194678952
 10
-2048.059647060918
 20
659.3674194678952
 97
        1
330
8B
 75
     0
 76
     2
 52
0.0
 41
1.0
 77
     0
 78
     2
 53
45.0
 43
0.0
 44
17.5
 45
-5.568465901844061
 46
5.568465901844062
 79
     4
 49
0.0
 49
-5.249999999999999
 49
0.0
 49
-7.875
 53
110.0
 43
17.5
 44
17.5
 45
7.400079388689027
 46
2.693408628689645
 79
     4
 49
0.0
 49
-3.85
 49
0.0
 49
-6.649999999999999
 98
        0
  0
LWPOLYLINE
  5
8B
102
{ACAD_REACTORS
330
8A
102
}
330
1F
100
AcDbEntity
  8
@__WIDOCZNE
  6
Continuous
370
    13
100
AcDbPolyline
 90
        4
 70
   129
 43
0.0
 10
-2048.059647060918
 20
639.3674194678947
 10
-1687.633717466909
 20
639.3674194678947
 10
-1687.633717466909
 20
659.3674194678952
 10
-2048.059647060918
 20
659.3674194678952
  0
HATCH
  5
8C
330
1F
100
AcDbEntity
  8
@__WIDOCZNE
  6
Continuous
370
    13
100
AcDbHatch
 10
0.0
 20
0.0
 30
0.0
210
0.0
220
0.0
230
1.0
  2
__Kropki_luz_n2_burzenie_2C
 70
     0
 71
     1
 91
        1
 92
        2
 72
     0
 73
     1
 93
        4
 10
-2088.059647060917
 20
639.3674194678955
 10
-2448.059647060922
 20
639.3674194678955
 10
-2448.059647060922
 20
659.3674194678952
 10
-2088.059647060917
 20
659.3674194678952
 97
        1
330
8D
 75
     0
 76
     2
 52
0.0
 41
1.0
 77
     0
 78
     2
 53
45.0
 43
0.0
 44
17.5
 45
-5.568465901844061
 46
5.568465901844062
 79
     4
 49
0.0
 49
-5.249999999999999
 49
0.0
 49
-7.875
 53
110.0
 43
17.5
 44
17.5
 45
7.400079388689027
 46
2.693408628689645
 79
     4
 49
0.0
 49
-3.85
 49
0.0
 49
-6.649999999999999
 98
        0
  0
LWPOLYLINE
  5
8D
102
{ACAD_REACTORS
330
8C
102
}
330
1F
100
AcDbEntity
  8
@__WIDOCZNE
  6
Continuous
370
    13
100
AcDbPolyline
 90
        4
 70
   129
 43
0.0
 10
-2088.059647060917
 20
639.3674194678955
 10
-2448.059647060922
 20
639.3674194678955
 10
-2448.059647060922
 20
659.3674194678952
 10
-2088.059647060917
 20
659.3674194678952
  0
HATCH
  5
8E
330
1F
100
AcDbEntity
  8
0
  6
Continuous
370
    13
100
AcDbHatch
 10
0.0
 20
0.0
 30
0.0
210
0.0
220
0.0
230
1.0
  2
__Cegła_licówka_0002
 70
     0
 71
     0
 91
        1
 92
        2
 72
     0
 73
     1
 93
        4
 10
-2448.059647060916
 20
1105.331107538517
 10
-2088.059647060917
 20
1105.331107538517
 10
-2088.059647060917
 20
1085.331107538518
 10
-2448.059647060916
 20
1085.331107538518
 97
        0
 75
     0
 76
     2
 52
0.0
 41
1.0
 77
     0
 78
     1
 53
45.0
 43
0.0
 44
0.0
 45
-3.181980431045766
 46
3.181980431045767
 79
     0
 98
        0
  0
HATCH
  5
8F
330
1F
100
AcDbEntity
  8
0
  6
Continuous
370
    13
100
AcDbHatch
 10
0.0
 20
0.0
 30
0.0
210
0.0
220
0.0
230
1.0
  2
__Cegła_licówka_0002
 70
     0
 71
     0
 91
        1
 92
        2
 72
     0
 73
     1
 93
        4
 10
-2048.059647060918
 20
1085.331107538518
 10
-1687.633717466913
 20
1085.331107538518
 10
-1687.633717466913
 20
1105.331107538517
 10
-2048.059647060918
 20
1105.331107538517
 97
        0
 75
     0
 76
     2
 52
0.0
 41
1.0
 77
     0
 78
     1
 53
45.0
 43
0.0
 44
0.0
 45
-3.181980431045766
 46
3.181980431045767
 79
     0
 98
        0
  0
INSERT
  5
128
330
1F
100
AcDbEntity
  8
0
  6
Continuous
370
    13
100
AcDbBlockReference
  2
Izolacja cieplna 12_36_2
 10
-2048.059647858244
 20
307.398433416207
 30
0.0
  0
INSERT
  5
145
330
1F
100
AcDbEntity
  8
0
  6
Continuous
370
    13
100
AcDbBlockReference
  2
Izolacja cieplna 12_37_2
 10
-2048.059647858244
 20
946.827772018854
 30
0.0
  0
INSERT
  5
14C
330
1F
100
AcDbEntity
  8
@__WIDOCZNE
  6
Continuous
370
    13
100
AcDbBlockReference
 66
     1
  2
Sygnał termostatu 12
 10
-1637.633717466912
 20
588.5723915765242
 30
0.0
  0
ATTRIB
  5
14D
330
14C
100
AcDbEntity
  8
@__WIDOCZNE
  6
Continuous
370
    13
100
AcDbText
 10
-1649.016592466912
 20
581.9295451479527
 30
0.0
 40
15.0
  1
05
  7
GENERATED_STYLE_1
 11
-1649.016592466912
 21
577.4963420229527
 31
0.0
100
AcDbAttribute
  2
txt
 70
     0
 74
     1
  0
SEQEND
  5
14E
330
14C
100
AcDbEntity
  8
@__WIDOCZNE
  6
Continuous
370
    13
  0
INSERT
  5
154
330
1F
100
AcDbEntity
  8
@__WIDOCZNE
  6
Continuous
370
    13
100
AcDbBlockReference
 66
     1
  2
Sygnał termostatu 12_2
 10
-1637.633717466912
 20
738.5776882986183
 30
0.0
  0
ATTRIB
  5
155
330
154
100
AcDbEntity
  8
@__WIDOCZNE
  6
Continuous
370
    13
100
AcDbText
 10
-1649.016592466912
 20
731.934841870047
 30
0.0
 40
15.0
  1
06
  7
GENERATED_STYLE_1
 11
-1649.016592466912
 21
727.501638745047
 31
0.0
100
AcDbAttribute
  2
txt
 70
     0
 74
     1
  0
SEQEND
  5
156
330
154
100
AcDbEntity
  8
@__WIDOCZNE
  6
Continuous
370
    13
  0
INSERT
  5
15C
330
1F
100
AcDbEntity
  8
@__WIDOCZNE
  6
Continuous
370
    13
100
AcDbBlockReference
 66
     1
  2
Sygnał termostatu 12_3
 10
-1637.633717466912
 20
905.1125658492847
 30
0.0
  0
ATTRIB
  5
15D
330
15C
100
AcDbEntity
  8
@__WIDOCZNE
  6
Continuous
370
    13
100
AcDbText
 10
-1649.016592466912
 20
898.4697194207132
 30
0.0
 40
15.0
  1
04
  7
GENERATED_STYLE_1
 11
-1649.016592466912
 21
894.0365162957132
 31
0.0
100
AcDbAttribute
  2
txt
 70
     0
 74
     1
  0
SEQEND
  5
15E
330
15C
100
AcDbEntity
  8
@__WIDOCZNE
  6
Continuous
370
    13
  0
INSERT
  5
164
330
1F
100
AcDbEntity
  8
@__WIDOCZNE
  6
Continuous
370
    13
100
AcDbBlockReference
 66
     1
  2
Sygnał termostatu 12_4
 10
-2068.059647060917
 20
1172.372716189989
 30
0.0
  0
ATTRIB
  5
165
330
164
100
AcDbEntity
  8
@__WIDOCZNE
  6
Continuous
370
    13
100
AcDbText
 10
-2079.442522060917
 20
1165.729869761418
 30
0.0
 40
15.0
  1
01
  7
GENERATED_STYLE_1
 11
-2079.442522060917
 21
1161.296666636418
 31
0.0
100
AcDbAttribute
  2
txt
 70
     0
 74
     1
  0
SEQEND
  5
166
330
164
100
AcDbEntity
  8
@__WIDOCZNE
  6
Continuous
370
    13
  0
INSERT
  5
16C
330
1F
100
AcDbEntity
  8
@__WIDOCZNE
  6
Continuous
370
    13
100
AcDbBlockReference
 66
     1
  2
Sygnał termostatu 12_5
 10
-2121.059647060916
 20
1172.372716189989
 30
0.0
  0
ATTRIB
  5
16D
330
16C
100
AcDbEntity
  8
@__WIDOCZNE
  6
Continuous
370
    13
100
AcDbText
 10
-2132.442522060916
 20
1165.729869761418
 30
0.0
 40
15.0
  1
02
  7
GENERATED_STYLE_1
 11
-2132.442522060916
 21
1161.296666636418
 31
0.0
100
AcDbAttribute
  2
txt
 70
     0
 74
     1
  0
SEQEND
  5
16E
330
16C
100
AcDbEntity
  8
@__WIDOCZNE
  6
Continuous
370
    13
  0
INSERT
  5
174
330
1F
100
AcDbEntity
  8
@__WIDOCZNE
  6
Continuous
370
    13
100
AcDbBlockReference
 66
     1
  2
Sygnał termostatu 12_6
 10
-1994.279192093018
 20
1174.798349226867
 30
0.0
  0
ATTRIB
  5
175
330
174
100
AcDbEntity
  8
@__WIDOCZNE
  6
Continuous
370
    13
100
AcDbText
 10
-2005.662067093018
 20
1168.155502798295
 30
0.0
 40
15.0
  1
03
  7
GENERATED_STYLE_1
 11
-2005.662067093018
 21
1163.722299673295
 31
0.0
100
AcDbAttribute
  2
txt
 70
     0
 74
     1
  0
SEQEND
  5
176
330
174
100
AcDbEntity
  8
@__WIDOCZNE
  6
Continuous
370
    13
  0
INSERT
  5
17E
330
1F
100
AcDbEntity
  8
@__WIDOCZNE
  6
Continuous
370
    13
100
AcDbBlockReference
  2
InsulFib_zygzak_JS_2016_v12
 10
-1964.608892342347
 20
672.2151194540569
 30
0.0
 41
0.9999999999999999
 42
0.9999999999999999
 50
0.6521530230704201
  0
INSERT
  5
17F
330
1F
100
AcDbEntity
  8
@__WIDOCZNE
  6
Continuous
370
    13
100
AcDbBlockReference
  2
InsulFib_zygzak_JS_2016_v12
 10
-2447.800843469062
 20
672.2151194540569
 30
0.0
 41
0.9999999999999999
 42
0.9999999999999999
 50
0.6521530230704201
  0
INSERT
  5
185
330
1F
100
AcDbEntity
  8
@__WIDOCZNE
  6
Continuous
370
    13
100
AcDbBlockReference
  2
InsulFib_zygzak_JS_2016_v12_2
 10
-2046.352351304311
 20
674.4519706909582
 30
0.0
 41
0.9999999999999999
 42
0.9999999999999999
 50
0.6521530230704201
  0
INSERT
  5
186
330
1F
100
AcDbEntity
  8
@__WIDOCZNE
  6
Continuous
370
    13
100
AcDbBlockReference
  2
InsulFib_zygzak_JS_2016_v12_2
 10
-2166.082485594299
 20
674.4519706909582
 30
0.0
 41
0.9999999999999999
 42
0.9999999999999999
 50
0.6521530230704201
  0
LINE
  5
187
330
1F
100
AcDbEntity
  8
0
  6
Continuous
370
    35
100
AcDbLine
 10
-2088.059647060917
 20
308.2504780279436
 30
0.0
 11
-2088.059647060917
 21
1105.331107538517
 31
0.0
  0
LINE
  5
188
330
1F
100
AcDbEntity
  8
0
  6
Continuous
370
    35
100
AcDbLine
 10
-2048.059647060918
 20
308.2504780279436
 30
0.0
 11
-2048.059647060918
 21
1105.331107538517
 31
0.0
  0
LINE
  5
189
330
1F
100
AcDbEntity
  8
0
  6
Continuous
370
    50
100
AcDbLine
 10
-2333.55964706092
 20
399.3674194678953
 30
0.0
 11
-2333.55964706092
 21
306.0415351734727
 31
0.0
  0
LINE
  5
18A
330
1F
100
AcDbEntity
  8
0
  6
Continuous
370
    35
100
AcDbLine
 10
-2168.059647060917
 20
975.3727161899892
 30
0.0
 11
-2168.059647060917
 21
959.3727161899892
 31
0.0
  0
LINE
  5
18B
330
1F
100
AcDbEntity
  8
0
  6
Continuous
370
    35
100
AcDbLine
 10
-1968.059647060918
 20
975.3727161899892
 30
0.0
 11
-1968.059647060918
 21
959.3727161899892
 31
0.0
  0
LINE
  5
18C
330
1F
100
AcDbEntity
  8
0
  6
Continuous
370
    13
100
AcDbLine
 10
-2117.009121813848
 20
1157.929958654711
 30
0.0
 11
-2078.18327575493
 21
1079.612578908321
 31
0.0
  0
CIRCLE
  5
18D
330
1F
100
AcDbEntity
  8
0
  6
Continuous
370
    13
100
AcDbCircle
 10
-2077.072863667898
 20
1077.372716189989
 30
0.0
 40
2.5
  0
HATCH
  5
18E
330
1F
100
AcDbEntity
  8
0
  6
Continuous
370
    13
100
AcDbHatch
 10
0.0
 20
0.0
 30
0.0
210
0.0
220
0.0
230
1.0
  2
SOLID
 70
     1
 71
     0
 91
        1
 92
        2
 72
     0
 73
     1
 93
       16
 10
-2074.572863667898
 20
1077.372716189989
 10
-2074.76316483662
 20
1078.329424770902
 10
-2075.305096714932
 20
1079.140483142956
 10
-2076.116155086985
 20
1079.682415021268
 10
-2077.072863667898
 20
1079.872716189989
 10
-2078.02957224881
 20
1079.682415021268
 10
-2078.840630620864
 20
1079.140483142956
 10
-2079.382562499176
 20
1078.329424770902
 10
-2079.572863667898
 20
1077.372716189989
 10
-2079.382562499176
 20
1076.416007609077
 10
-2078.840630620864
 20
1075.604949237023
 10
-2078.02957224881
 20
1075.063017358711
 10
-2077.072863667898
 20
1074.87271618999
 10
-2076.116155086985
 20
1075.063017358711
 10
-2075.305096714932
 20
1075.604949237023
 10
-2074.76316483662
 20
1076.416007609077
 97
        0
 75
     0
 76
     1
 98
        0
  0
LINE
  5
18F
330
1F
100
AcDbEntity
  8
0
  6
Continuous
370
    13
100
AcDbLine
 10
-2068.059647060917
 20
1156.777360237156
 30
0.0
 11
-2068.059647060917
 21
1100.315156831444
 31
0.0
  0
CIRCLE
  5
190
330
1F
100
AcDbEntity
  8
0
  6
Continuous
370
    13
100
AcDbCircle
 10
-2068.059647060917
 20
1097.815156831444
 30
0.0
 40
2.5
  0
HATCH
  5
191
330
1F
100
AcDbEntity
  8
0
  6
Continuous
370
    13
100
AcDbHatch
 10
0.0
 20
0.0
 30
0.0
210
0.0
220
0.0
230
1.0
  2
SOLID
 70
     1
 71
     0
 91
        1
 92
        2
 72
     0
 73
     1
 93
       16
 10
-2065.559647060917
 20
1097.815156831444
 10
-2065.749948229639
 20
1098.771865412356
 10
-2066.29188010795
 20
1099.58292378441
 10
-2067.102938480004
 20
1100.124855662722
 10
-2068.059647060917
 20
1100.315156831444
 10
-2069.01635564183
 20
1100.124855662722
 10
-2069.827414013884
 20
1099.58292378441
 10
-2070.369345892195
 20
1098.771865412356
 10
-2070.559647060917
 20
1097.815156831444
 10
-2070.369345892195
 20
1096.858448250531
 10
-2069.827414013884
 20
1096.047389878477
 10
-2069.01635564183
 20
1095.505458000165
 10
-2068.059647060917
 20
1095.315156831444
 10
-2067.102938480004
 20
1095.505458000165
 10
-2066.29188010795
 20
1096.047389878477
 10
-2065.749948229639
 20
1096.858448250531
 97
        0
 75
     0
 76
     1
 98
        0
  0
LINE
  5
192
330
1F
100
AcDbEntity
  8
0
  6
Continuous
370
    35
100
AcDbLine
 10
-2448.059647060922
 20
659.3674194678952
 30
0.0
 11
-2088.059647060917
 21
659.3674194678952
 31
0.0
  0
LINE
  5
193
330
1F
100
AcDbEntity
  8
0
  6
Continuous
370
    35
100
AcDbLine
 10
-2448.059647060922
 20
675.3674194678952
 30
0.0
 11
-2088.059647060917
 21
675.3674194678952
 31
0.0
  0
LINE
  5
194
330
1F
100
AcDbEntity
  8
0
  6
Continuous
370
    35
100
AcDbLine
 10
-2448.059647060922
 20
975.3727161899892
 30
0.0
 11
-2088.059647060917
 21
975.3727161899892
 31
0.0
  0
LINE
  5
195
330
1F
100
AcDbEntity
  8
0
  6
Continuous
370
    35
100
AcDbLine
 10
-2448.059647060922
 20
991.3727161899892
 30
0.0
 11
-2088.059647060917
 21
991.3727161899892
 31
0.0
  0
LINE
  5
196
330
1F
100
AcDbEntity
  8
0
  6
Continuous
370
    35
100
AcDbLine
 10
-2448.059647060922
 20
1061.372716189989
 30
0.0
 11
-2088.059647060917
 21
1061.372716189989
 31
0.0
  0
LINE
  5
197
330
1F
100
AcDbEntity
  8
0
  6
Continuous
370
    35
100
AcDbLine
 10
-2448.059647060916
 20
1085.331107538518
 30
0.0
 11
-2088.059647060917
 21
1085.331107538518
 31
0.0
  0
LINE
  5
198
330
1F
100
AcDbEntity
  8
0
  6
Continuous
370
    35
100
AcDbLine
 10
-2448.059647060922
 20
1077.372716189989
 30
0.0
 11
-2088.059647060917
 21
1077.372716189989
 31
0.0
  0
LINE
  5
199
330
1F
100
AcDbEntity
  8
0
  6
Continuous
370
    50
100
AcDbLine
 10
-2448.059647060922
 20
399.3674194678953
 30
0.0
 11
-2333.55964706092
 21
399.3674194678953
 31
0.0
  0
LINE
  5
19A
330
1F
100
AcDbEntity
  8
0
  6
Continuous
370
    35
100
AcDbLine
 10
-2448.05964706092
 20
1026.372716189989
 30
0.0
 11
-2128.059647060916
 21
1026.372716189989
 31
0.0
  0
LINE
  5
19B
330
1F
100
AcDbEntity
  8
0
  6
Continuous
370
    35
100
AcDbLine
 10
-1687.633717466909
 20
659.3674194678952
 30
0.0
 11
-2048.059647060918
 21
659.3674194678952
 31
0.0
  0
LINE
  5
19C
330
1F
100
AcDbEntity
  8
0
  6
Continuous
370
    35
100
AcDbLine
 10
-1687.633717466911
 20
675.3674194678952
 30
0.0
 11
-2048.059647060918
 21
675.3674194678952
 31
0.0
  0
LINE
  5
19D
330
1F
100
AcDbEntity
  8
0
  6
Continuous
370
    35
100
AcDbLine
 10
-1687.633717466911
 20
975.3727161899892
 30
0.0
 11
-2048.059647060918
 21
975.3727161899892
 31
0.0
  0
LINE
  5
19E
330
1F
100
AcDbEntity
  8
0
  6
Continuous
370
    35
100
AcDbLine
 10
-1687.633717466911
 20
991.3727161899892
 30
0.0
 11
-2048.059647060918
 21
991.3727161899892
 31
0.0
  0
LINE
  5
19F
330
1F
100
AcDbEntity
  8
0
  6
Continuous
370
    35
100
AcDbLine
 10
-1687.633717466911
 20
1061.372716189989
 30
0.0
 11
-2048.059647060918
 21
1061.372716189989
 31
0.0
  0
LINE
  5
1A0
330
1F
100
AcDbEntity
  8
0
  6
Continuous
370
    35
100
AcDbLine
 10
-2048.059647060918
 20
1085.331107538518
 30
0.0
 11
-1687.633717466913
 21
1085.331107538517
 31
0.0
  0
LINE
  5
1A1
330
1F
100
AcDbEntity
  8
0
  6
Continuous
370
    35
100
AcDbLine
 10
-1687.633717466911
 20
1077.372716189989
 30
0.0
 11
-2048.059647060918
 21
1077.372716189989
 31
0.0
  0
LINE
  5
1A2
330
1F
100
AcDbEntity
  8
0
  6
Continuous
370
    35
100
AcDbLine
 10
-1688.059647060915
 20
1026.372716189989
 30
0.0
 11
-2008.059647060918
 21
1026.372716189989
 31
0.0
  0
LINE
  5
1A3
330
1F
100
AcDbEntity
  8
0
  6
Continuous
370
    13
100
AcDbLine
 10
-1652.633717466911
 20
905.1125658492847
 30
0.0
 11
-2005.781879389361
 21
905.1125658492847
 31
0.0
  0
LINE
  5
1A4
330
1F
100
AcDbEntity
  8
0
  6
Continuous
370
    13
100
AcDbLine
 10
-1652.633717466911
 20
588.5723915765242
 30
0.0
 11
-2013.102831842316
 21
588.5723915765242
 31
0.0
  0
LINE
  5
1A5
330
1F
100
AcDbEntity
  8
0
  6
Continuous
370
    13
100
AcDbLine
 10
-1652.633717466911
 20
738.5776882986183
 30
0.0
 11
-2065.559647060917
 21
738.5776882986183
 31
0.0
  0
CIRCLE
  5
1A6
330
1F
100
AcDbEntity
  8
0
  6
Continuous
370
    13
100
AcDbCircle
 10
-2068.059647060917
 20
738.5776882986183
 30
0.0
 40
2.5
  0
HATCH
  5
1A7
330
1F
100
AcDbEntity
  8
0
  6
Continuous
370
    13
100
AcDbHatch
 10
0.0
 20
0.0
 30
0.0
210
0.0
220
0.0
230
1.0
  2
SOLID
 70
     1
 71
     0
 91
        1
 92
        2
 72
     0
 73
     1
 93
       16
 10
-2065.559647060917
 20
738.5776882986183
 10
-2065.749948229639
 20
739.5343968795311
 10
-2066.29188010795
 20
740.3454552515847
 10
-2067.102938480004
 20
740.8873871298965
 10
-2068.059647060917
 20
741.0776882986183
 10
-2069.01635564183
 20
740.8873871298965
 10
-2069.827414013884
 20
740.3454552515847
 10
-2070.369345892195
 20
739.5343968795311
 10
-2070.559647060917
 20
738.5776882986183
 10
-2070.369345892195
 20
737.6209797177057
 10
-2069.827414013884
 20
736.809921345652
 10
-2069.01635564183
 20
736.2679894673402
 10
-2068.059647060917
 20
736.0776882986185
 10
-2067.102938480004
 20
736.2679894673402
 10
-2066.29188010795
 20
736.809921345652
 10
-2065.749948229639
 20
737.6209797177057
 97
        0
 75
     0
 76
     1
 98
        0
  0
LINE
  5
1A8
330
1F
100
AcDbEntity
  8
0
  6
Continuous
370
    50
100
AcDbLine
 10
-2448.059647060916
 20
1105.331107538517
 30
0.0
 11
-1687.633717466913
 21
1105.331107538517
 31
0.0
  0
LINE
  5
1A9
330
1F
100
AcDbEntity
  8
0
  6
Continuous
370
    13
100
AcDbLine
 10
-1588.059647060915
 20
234.0606888346875
 30
0.0
 11
-1588.059647060915
 21
124.060688834688
 31
0.0
  0
LINE
  5
1AA
330
1F
100
AcDbEntity
  8
0
  6
Continuous
370
    13
100
AcDbLine
 10
-2488.059647060915
 20
124.0606888346871
 30
0.0
 11
-1588.059647060915
 21
124.0606888346871
 31
0.0
  0
LINE
  5
1AB
330
1F
100
AcDbEntity
  8
0
  6
Continuous
370
    13
100
AcDbLine
 10
-2333.55964706092
 20
399.3674194678953
 30
0.0
 11
-2088.059647060917
 21
399.3674194678953
 31
0.0
  0
LINE
  5
1AC
330
1F
100
AcDbEntity
  8
0
  6
Continuous
370
    35
100
AcDbLine
 10
-2048.059647060918
 20
399.3674194678953
 30
0.0
 11
-1960.146875373657
 21
399.3674194678953
 31
0.0
  0
LINE
  5
1AD
330
1F
100
AcDbEntity
  8
0
  6
Continuous
370
    35
100
AcDbLine
 10
-2333.55964706092
 20
399.3674194678953
 30
0.0
 11
-2088.059647060917
 21
399.3674194678953
 31
0.0
  0
LWPOLYLINE
  5
1AE
330
1F
100
AcDbEntity
  8
0
  6
Continuous
370
    13
100
AcDbPolyline
 90
        4
 70
   129
 43
0.0
 10
-2488.059647060915
 20
1559.060688834688
 10
-1588.059647060915
 20
1559.060688834688
 10
-1588.059647060915
 20
124.060688834688
 10
-2488.059647060915
 20
124.060688834688
  0
LWPOLYLINE
  5
1AF
330
1F
100
AcDbEntity
  8
0
  6
Continuous
370
    13
100
AcDbPolyline
 90
        8
 70
   128
 43
0.0
 10
-2168.059647060918
 20
975.3727161899892
 10
-2108.785377848747
 20
975.3727161899892
 42
-0.3134266156090753
 10
-2080.190553045063
 20
958.4969928288878
 42
0.1802482968239407
 10
-2076.659814832578
 20
950.7725484183292
 42
0.1989123673796613
 10
-2068.059647060918
 20
947.210242288623
 42
0.3728448194128939
 10
-2056.021797003655
 20
957.6360707453997
 42
-0.3264278037445028
 10
-2031.002850341217
 20
975.3727161899892
 10
-1968.059647060916
 20
975.3727161899892
  0
LWPOLYLINE
  5
1B0
330
1F
100
AcDbEntity
  8
@__WIDOCZNE
  6
Continuous
370
    13
100
AcDbPolyline
 90
        2
 70
   129
 43
0.0
 10
-1588.059647060915
 20
154.0606888346874
 10
-2220.194507961552
 20
154.0606888346874
  0
LWPOLYLINE
  5
1B1
330
1F
100
AcDbEntity
  8
@__WIDOCZNE
  6
Continuous
370
    13
100
AcDbPolyline
 90
        4
 70
   129
 43
0.0
 10
-2488.059647061006
 20
234.0606888346875
 10
-2488.059647061006
 20
124.0606888346871
 10
-1588.059647060915
 20
124.060688834688
 10
-1588.059647060915
 20
234.0606888346875
  0
LWPOLYLINE
  5
1B2
330
1F
100
AcDbEntity
  8
@__WIDOCZNE
  6
Continuous
370
    13
100
AcDbPolyline
 90
        2
 70
   128
 43
0.0
 10
-1658.059647060851
 20
209.060688834688
 10
-1658.059647060851
 20
234.0606888346875
  0
LWPOLYLINE
  5
1B3
330
1F
100
AcDbEntity
  8
@__WIDOCZNE
  6
Continuous
370
    13
100
AcDbPolyline
 90
        2
 70
   128
 43
0.0
 10
-1588.059647060915
 20
209.060688834688
 10
-1743.059647060888
 20
209.060688834688
  0
LWPOLYLINE
  5
1B4
330
1F
100
AcDbEntity
  8
@__WIDOCZNE
  6
Continuous
370
    13
100
AcDbPolyline
 90
        2
 70
   128
 43
0.0
 10
-1743.059647060888
 20
154.0606888346874
 10
-1743.059647060888
 20
234.0606888346875
  0
LWPOLYLINE
  5
1B5
330
1F
100
AcDbEntity
  8
@__WIDOCZNE
  6
Continuous
370
    13
100
AcDbPolyline
 90
        2
 70
   128
 43
0.0
 10
-2220.194507961552
 20
234.0606888346875
 10
-2220.194507961552
 20
124.0606888346871
  0
LWPOLYLINE
  5
1B6
330
1F
100
AcDbEntity
  8
@__WIDOCZNE
  6
Continuous
370
    13
100
AcDbPolyline
 90
        4
 70
   129
 43
0.0
 10
-2613.059647061097
 20
1584.060688834689
 10
-1563.059647060915
 20
1584.060688834688
 10
-1563.059647060915
 20
99.06068883468765
 10
-2613.059647061097
 20
99.06068883468765
  0
LWPOLYLINE
  5
1B7
330
1F
100
AcDbEntity
  8
0
  6
Continuous
370
    13
100
AcDbPolyline
 90
        8
 70
   128
 43
0.0
 10
-2168.059647060918
 20
959.3727161899892
 10
-2108.073274586403
 20
959.3727161899892
 42
-0.2865462259866816
 10
-2095.576509719202
 20
953.3771173299801
 42
0.1436926657851281
 10
-2087.973523331563
 20
939.4588399193449
 42
0.1989123673796634
 10
-2068.059647060917
 20
931.210242288623
 42
0.3522675303718849
 10
-2040.551732714818
 20
953.3361952902766
 42
-0.3058693040634858
 10
-2031.144607262462
 20
959.3727161899892
 10
-1968.059647060916
 20
959.3727161899892
  0
ARC
  5
1B8
330
1F
100
AcDbEntity
  8
0
  6
Continuous
 62
     2
370
    15
100
AcDbCircle
 10
-2068.059647060917
 20
1063.798349226867
 30
0.0
 40
19.99999999999957
100
AcDbArc
 50
180.0
 51
0.0
  0
ARC
  5
1B9
330
1F
100
AcDbEntity
  8
0
  6
Continuous
370
    35
100
AcDbCircle
 10
-2068.059647060917
 20
1064.195030703884
 30
0.0
 40
19.99999999999957
100
AcDbArc
 50
0.0
 51
180.0
  0
CIRCLE
  5
1BA
330
1F
100
AcDbEntity
  8
0
  6
Continuous
370
    13
100
AcDbCircle
 10
-2328.059647060915
 20
1031.372716189989
 30
0.0
 40
3.000000000000101
  0
CIRCLE
  5
1BB
330
1F
100
AcDbEntity
  8
0
  6
Continuous
370
    13
100
AcDbCircle
 10
-2178.059647060917
 20
1031.372153784893
 30
0.0
 40
2.999999999999999
  0
CIRCLE
  5
1BC
330
1F
100
AcDbEntity
  8
0
  6
Continuous
370
    13
100
AcDbCircle
 10
-1808.059647060919
 20
1031.372716189989
 30
0.0
 40
3.000000000000101
  0
CIRCLE
  5
1BD
330
1F
100
AcDbEntity
  8
0
  6
Continuous
370
    13
100
AcDbCircle
 10
-1958.059647060918
 20
1031.372153784893
 30
0.0
 40
2.999999999999999
  0
MTEXT
  5
1BF
330
1F
100
AcDbEntity
  8
@__WIDOCZNE
  6
Continuous
370
    13
100
AcDbMText
 10
-1980.559647060842
 20
188.1757972772501
 30
0.0
 40
14.0
 41
0.0
 71
     5
 72
     1
  1
\A1;{\fArial|b1|i0|c238|p38;TARAS NAD POMIESZCZENIEM OGRZEWANYM\PSZCZEGÓŁ DYLATACJI\P\fArial|b0|i0|c238|p38;(warstwa wykończeniowa - płytki)}
  7
GENERATED_STYLE_2
 73
     1
 44
0.8573811422914943
  0
MTEXT
  5
1C0
330
1F
100
AcDbEntity
  8
@__WIDOCZNE
  6
Continuous
370
    13
100
AcDbMText
 10
-1743.059647060889
 20
160.5180113962292
 30
0.0
 40
20.0
 41
0.0
 71
     7
 72
     1
  1
{ 05.01.01.}
  7
GENERATED_STYLE_2
 73
     1
 44
1.0
  0
MTEXT
  5
1C1
330
1F
100
AcDbEntity
  8
@__WIDOCZNE
  6
Continuous
370
    13
100
AcDbMText
 10
-2215.059647060868
 20
138.2679471926756
 30
0.0
 40
7.5
 41
0.0
 71
     4
 72
     1
  1
{Rysunek nie wyczerpuje wszystkich aspektów technicznych zagadnienia, a jego integralną częścią są karty techniczne \Pposzczególnych produktów. Szczegółowych informacji udzielają technicy zastosowań i doradcy handlowo-techniczni Botament. }
  7
GENERATED_STYLE_1
 73
     1
 44
0.9278263558916975
  0
MTEXT
  5
1C2
330
1F
100
AcDbEntity
  8
@__WIDOCZNE
  6
Continuous
370
    13
100
AcDbMText
 10
-2354.25182431175
 20
139.1954738579433
 30
0.0
 40
7.499999999999998
 41
0.0
 71
     5
 72
     1
  1
{ ul. Prądzyńskiego 20, 63-000 Środa Wlkp., botament.pl\P +48 606-318-643, 61-286-45-17, technik@botament.pl  }
  7
GENERATED_STYLE_1
 73
     1
 44
0.9181612291118321
  0
MTEXT
  5
1C3
330
1F
100
AcDbEntity
  8
@__WIDOCZNE
  6
Continuous
370
    13
100
AcDbMText
 10
-1742.996854766999
 20
207.0606953839223
 30
0.0
 40
7.499999999999999
 41
0.0
 71
     1
 72
     1
  1
{ nr rys:}
  7
GENERATED_STYLE_1
 73
     1
 44
1.0
  0
MTEXT
  5
1C4
330
1F
100
AcDbEntity
  8
@__WIDOCZNE
  6
Continuous
370
    13
100
AcDbMText
 10
-1730.202498971582
 20
232.3464031204009
 30
0.0
 40
7.499999999999999
 41
0.0
 71
     2
 72
     1
  1
{ data:}
  7
GENERATED_STYLE_1
 73
     1
 44
1.0
  0
MTEXT
  5
1C5
330
1F
100
AcDbEntity
  8
@__WIDOCZNE
  6
Continuous
370
    13
100
AcDbMText
 10
-1643.273932775244
 20
232.3464031204009
 30
0.0
 40
7.5
 41
0.0
 71
     2
 72
     1
  1
{ skala:}
  7
GENERATED_STYLE_1
 73
     1
 44
1.0
  0
MTEXT
  5
1C6
330
1F
100
AcDbEntity
  8
@__WIDOCZNE
  6
Continuous
370
    13
100
AcDbMText
 10
-1610.916795698102
 20
212.2792657533427
 30
0.0
 40
9.999999999999998
 41
0.0
 71
     7
 72
     1
  1
{1:5 }
  7
GENERATED_STYLE_1
 73
     1
 44
1.0
  0
MTEXT
  5
1C7
330
1F
100
AcDbEntity
  8
@__WIDOCZNE
  6
Continuous
370
    13
100
AcDbMText
 10
-1715.111093724601
 20
212.2792980523072
 30
0.0
 40
9.999999999999998
 41
0.0
 71
     7
 72
     1
  1
{2023.04. }
  7
GENERATED_STYLE_1
 73
     1
 44
1.0
  0
MTEXT
  5
1C9
330
1F
100
AcDbEntity
  8
@__WIDOCZNE
  6
Continuous
370
    13
100
AcDbMText
 10
-2390.0596470611
 20
1536.774974548974
 30
0.0
 40
9.999999999999995
 41
0.0
 71
     1
 72
     1
  3
\A1;{\fArial|b1|i0|c238|p38;T A R A S  NAD POM. OGRZEWANYM \P\fArial|b0|i0|c238|p38;• PŁYTKI ANTYPOŚLIZGOWE, MROZOODPORNE, WYPEŁNIENIE SPOIN \P  - ZAPRAWA ELASTYCZNA \fArial|b1|i0|c238|p38;MULTIFUGE BASE\P\fArial|b0|i0|c238|p38;• ROZPŁYWNA ZAPRAWA K
  3
LEJOWA  \fArial|b1|i0|c238|p38;BOTAMENT M29HP / M29\P\fArial|b0|i0|c238|p38;  lub WYSOKOELASTYCZNA ZAPRAWA KLEJOWA  \fArial|b1|i0|c238|p38;MULTILIGHT, MULTISTONE\P\fArial|b0|i0|c238|p38;• IZOLACJA WODOCHRONNA \fArial|b1|i0|c238|p38;MULTIPROOF\fArial
  3
|b0|i0|c238|p38; min. 1 mm lub\P\fArial|b1|i0|c238|p38;  BOTAMENT MD28, BOTAMENT RD1 / RD2 / RD FLOW\fArial|b0|i0|c238|p38; min. 2 mm,\P\fArial|b1|i0|c238|p38;  BOTAMENT AE \fArial|b0|i0|c238|p38;(mata hydroizolacyjna) KLEJONA NA \P  ZAPRAWIE KLEJOW
  3
EJ\fArial|b1|i0|c238|p38; BOTAMENT M21 / M21 HP SPEED \P\fArial|b0|i0|c238|p38;• WARSTWA DOCISKOWA (min. 50 mm) - JASTRYCH CEMENTOWY \P   \fArial|b1|i0|c238|p38;BOTAMENT M54FM \fArial|b0|i0|c238|p38;lub JASTRYCH CEMENTOWY ZBROJONY\P\fArial|b1|i0|c23
  3
8|p38;• \fArial|b0|i0|c238|p38;WARSTWA POŚLIZGOWA I RODZIELAJĄCA - FOLIA PE\P• IZOLACJA PRZECIWWILGOCIOWA \fArial|b1|i0|c238|p38;BOTAMENT KSK \P\fArial|b0|i0|c238|p38;  (bitumiczna izolacja samoprzylepna)\P• TERMOIZOLACJA - XPS (polistyren ekstrudow
  3
any)\P• PAROIZOLACJA - \fArial|b1|i0|c238|p38;BOTAMENT BM92 Schnell/Winter \fArial|b0|i0|c238|p38;min. 2,5 mm\P  (na warstwie gruntującej z \fArial|b1|i0|c238|p38;BOTAMENT BE 901 Plus\fArial|b0|i0|c238|p38;)\P  lub \fArial|b1|i0|c238|p38;BOTAMENT RD
  3
1 Universal \fArial|b0|i0|c238|p38;min. 3 mm\P• PŁYTA ŻELBETOWA POZIOMA Z WARSTWĄ SPADKOWĄ 2,0%\P  WYKONANĄ Z \fArial|b1|i0|c238|p38;BOTAMENT M80\fArial|b0|i0|c238|p38; / \fArial|b1|i0|c238|p38;M100 \fArial|b0|i0|c238|p38;(masa szpachlowa gr. 3-50 m
  1
m)\P  lub PŁYTA ŻELBETOWA ZE SPADKIEM\P\fArial|b0|i1|c238|p38;230302}
  7
GENERATED_STYLE_2
 73
     1
 44
0.9111103398007703
  0
MTEXT
  5
1CA
330
1F
100
AcDbEntity
  8
@__WIDOCZNE
  6
Continuous
370
    50
100
AcDbMText
 10
-2491.278268843164
 20
207.7179148275647
 30
0.0
 40
10.0
 41
0.0
 71
     9
 72
     1
  1
{druk: 230425 }
  7
GENERATED_STYLE_1
 11
6.123233995736766E-17
 21
1.0
 31
0.0
 73
     1
 44
1.0
  0
WIPEOUT
  5
1DF
330
1F
100
AcDbEntity
  8
2D - Ogólne
  6
Wipeout_Contour
 62
   254
 48
10032.33740091698
370
     0
 92
      140
310
8C00000001000000840000000600000005000000E13F0F8A1E50A0C0C71A50A97DD590400000000000000000BC9E7AE9531DA3C0C71A50A97DD590400000000000000000BC9E7AE9531DA3C0C71A50A97D9590400000000000000000E13F0F8A1E50A0C0C71A50A97D9590400000000000000000E13F0F8A1E50A0C0C71A50
310
A97DD590400000000000000000
100
AcDbWipeout
 90
        0
 10
-2446.663890678288
 20
1061.372716189989
 30
0.0
 11
358.6042436173716
 21
0.0
 31
0.0
 12
0.0
 22
16.0
 32
0.0
 13
1.0
 23
1.0
340
0
 70
    15
280
     1
281
    50
282
    50
283
     0
360
0
 71
     2
 91
        5
 14
0.4999999999999994
 24
-0.5
 14
-0.5000000000000007
 24
-0.5
 14
-0.5000000000000007
 24
0.5
 14
0.4999999999999994
 24
0.5
 14
0.4999999999999994
 24
-0.5
  0
INSERT
  5
1E0
330
1F
100
AcDbEntity
  8
2D - Ogólne
  6
Continuous
370
    13
100
AcDbBlockReference
  2
*X11
 10
0.0
 20
0.0
 30
0.0
  0
LINE
  5
1E1
330
1F
100
AcDbEntity
  8
2D - Ogólne
  6
Continuous
370
    13
100
AcDbLine
 10
-2088.059647060917
 20
1077.372716189989
 30
0.0
 11
-2446.663890678288
 21
1077.372716189989
 31
0.0
  0
LINE
  5
1E2
330
1F
100
AcDbEntity
  8
2D - Ogólne
  6
Continuous
370
    13
100
AcDbLine
 10
-2446.663890678288
 20
1077.372716189989
 30
0.0
 11
-2446.663890678288
 21
1061.372716189989
 31
0.0
  0
LINE
  5
1E3
330
1F
100
AcDbEntity
  8
2D - Ogólne
  6
Continuous
370
    13
100
AcDbLine
 10
-2446.663890678288
 20
1061.372716189989
 30
0.0
 11
-2088.059647060917
 21
1061.372716189989
 31
0.0
  0
LINE
  5
1E4
330
1F
100
AcDbEntity
  8
2D - Ogólne
  6
Continuous
370
    13
100
AcDbLine
 10
-2088.059647060917
 20
1061.372716189989
 30
0.0
 11
-2088.059647060917
 21
1077.372716189989
 31
0.0
  0
LINE
  5
1E5
330
1F
100
AcDbEntity
  8
@__WIDOCZNE
  6
Przerywana gęsta
370
    13
100
AcDbLine
 10
-1960.146875373657
 20
306.7504780279426
 30
0.0
 11
-2349.010159943522
 21
306.7504780279426
 31
0.0
  0
ARC
  5
1E6
330
1F
100
AcDbEntity
  8
0
  6
Continuous
 62
     2
370
    15
100
AcDbCircle
 10
-2068.059647060917
 20
662.2999987778288
 30
0.0
 40
19.99999999999957
100
AcDbArc
 50
180.0
 51
0.0
  0
WIPEOUT
  5
1E7
330
1F
100
AcDbEntity
  8
@__WIDOCZNE
  6
Wipeout_Contour
 62
   254
 48
10421.8551240465
370
     0
 92
      140
310
8C00000001000000840000000600000005000000E63F0F8A1E23A3C0CE27AF5C5EDB82400000000000000000E63F0F8A1E1DA3C0CE27AF5C5EDB82400000000000000000E63F0F8A1E1DA3C014FAEEDD956791400000000000000000E63F0F8A1E23A3C014FAEEDD956791400000000000000000E63F0F8A1E23A3C0CE27AF
310
5C5EDB82400000000000000000
100
AcDbWipeout
 90
        0
 10
-2449.559647060919
 20
603.4210752185843
 30
0.0
 11
3.0
 21
0.0
 31
0.0
 12
0.0
 22
510.4752792030442
 32
0.0
 13
1.0
 23
1.0
340
0
 70
    15
280
     1
281
    50
282
    50
283
     0
360
0
 71
     2
 91
        5
 14
-0.5
 24
0.5
 14
0.5
 24
0.5
 14
0.5
 24
-0.5
 14
-0.5
 24
-0.5
 14
-0.5
 24
0.5
  0
WIPEOUT
  5
1FB
330
1F
100
AcDbEntity
  8
2D - Ogólne
  6
Wipeout_Contour
 62
   254
 48
8618.783266868393
370
     0
 92
      140
310
8C000000010000008400000006000000050000002E4D3BED88649AC0C71A50A97DD590400000000000000000E30A12ACF3FE9FC0C71A50A97DD590400000000000000000E30A12ACF3FE9FC0C71A50A97D9590400000000000000000324D3BED88649AC0C71A50A97D95904000000000000000002E4D3BED88649AC0C71A50
310
A97DD590400000000000000000
100
AcDbWipeout
 90
        0
 10
-2047.737961084284
 20
1061.372716189989
 30
0.0
 11
358.6042436173714
 21
0.0
 31
0.0
 12
0.0
 22
16.0
 32
0.0
 13
1.0
 23
1.0
340
0
 70
    15
280
     1
281
    50
282
    50
283
     0
360
0
 71
     2
 91
        5
 14
0.4999999999999997
 24
-0.5
 14
-0.5000000000000003
 24
-0.5
 14
-0.5000000000000003
 24
0.5
 14
0.4999999999999972
 24
0.5
 14
0.4999999999999997
 24
-0.5
  0
INSERT
  5
1FC
330
1F
100
AcDbEntity
  8
2D - Ogólne
  6
Continuous
370
    13
100
AcDbBlockReference
  2
*X12
 10
0.0
 20
0.0
 30
0.0
  0
LINE
  5
1FD
330
1F
100
AcDbEntity
  8
2D - Ogólne
  6
Continuous
370
    13
100
AcDbLine
 10
-1689.133717466913
 20
1077.372716189989
 30
0.0
 11
-2047.737961084284
 21
1077.372716189989
 31
0.0
  0
LINE
  5
1FE
330
1F
100
AcDbEntity
  8
2D - Ogólne
  6
Continuous
370
    13
100
AcDbLine
 10
-2047.737961084284
 20
1077.372716189989
 30
0.0
 11
-2047.737961084284
 21
1061.372716189989
 31
0.0
  0
LINE
  5
1FF
330
1F
100
AcDbEntity
  8
2D - Ogólne
  6
Continuous
370
    13
100
AcDbLine
 10
-2047.737961084284
 20
1061.372716189989
 30
0.0
 11
-1689.133717466914
 21
1061.372716189989
 31
0.0
  0
LINE
  5
200
330
1F
100
AcDbEntity
  8
2D - Ogólne
  6
Continuous
370
    13
100
AcDbLine
 10
-1689.133717466914
 20
1061.372716189989
 30
0.0
 11
-1689.133717466913
 21
1077.372716189989
 31
0.0
  0
WIPEOUT
  5
214
330
1F
100
AcDbEntity
  8
2D - Ogólne
  6
Wipeout_Contour
 62
   254
 48
8452.422498224822
370
     0
 92
      140
310
8C000000010000008400000006000000050000002E4D3BED88649AC08C35A052FBFA8E400000000000000000E30A12ACF3FE9FC08C35A052FBFA8E400000000000000000E30A12ACF3FE9FC09435A052FB7A8E400000000000000000324D3BED88649AC08C35A052FB7A8E4000000000000000002E4D3BED88649AC08C35A0
310
52FBFA8E400000000000000000
100
AcDbWipeout
 90
        0
 10
-2047.737961084284
 20
975.3727161899892
 30
0.0
 11
358.6042436173714
 21
0.0
 31
0.0
 12
0.0
 22
16.0
 32
0.0
 13
1.0
 23
1.0
340
0
 70
    15
280
     1
281
    50
282
    50
283
     0
360
0
 71
     2
 91
        5
 14
0.4999999999999997
 24
-0.5
 14
-0.5000000000000003
 24
-0.5
 14
-0.5000000000000003
 24
0.4999999999999432
 14
0.4999999999999972
 24
0.5
 14
0.4999999999999997
 24
-0.5
  0
INSERT
  5
215
330
1F
100
AcDbEntity
  8
2D - Ogólne
  6
Continuous
370
    13
100
AcDbBlockReference
  2
*X13
 10
0.0
 20
0.0
 30
0.0
  0
LINE
  5
216
330
1F
100
AcDbEntity
  8
2D - Ogólne
  6
Continuous
370
    13
100
AcDbLine
 10
-1689.133717466913
 20
991.3727161899892
 30
0.0
 11
-2047.737961084284
 21
991.3727161899892
 31
0.0
  0
LINE
  5
217
330
1F
100
AcDbEntity
  8
2D - Ogólne
  6
Continuous
370
    13
100
AcDbLine
 10
-2047.737961084284
 20
991.3727161899892
 30
0.0
 11
-2047.737961084284
 21
975.3727161899901
 31
0.0
  0
LINE
  5
218
330
1F
100
AcDbEntity
  8
2D - Ogólne
  6
Continuous
370
    13
100
AcDbLine
 10
-2047.737961084284
 20
975.3727161899901
 30
0.0
 11
-1689.133717466914
 21
975.3727161899892
 31
0.0
  0
LINE
  5
219
330
1F
100
AcDbEntity
  8
2D - Ogólne
  6
Continuous
370
    13
100
AcDbLine
 10
-1689.133717466914
 20
975.3727161899892
 30
0.0
 11
-1689.133717466913
 21
991.3727161899892
 31
0.0
  0
WIPEOUT
  5
22D
330
1F
100
AcDbEntity
  8
2D - Ogólne
  6
Wipeout_Contour
 62
   254
 48
9889.56162222631
370
     0
 92
      140
310
8C000000010000008400000006000000050000000BE1A32AE94FA0C08C35A052FBFA8E400000000000000000E63F0F8A1E1DA3C08C35A052FBFA8E400000000000000000E43F0F8A1E1DA3C09435A052FB7A8E4000000000000000000DE1A32AE94FA0C08C35A052FB7A8E4000000000000000000BE1A32AE94FA0C08C35A0
310
52FBFA8E400000000000000000
100
AcDbWipeout
 90
        0
 10
-2446.559647060919
 20
975.3727161899892
 30
0.0
 11
358.6042436173716
 21
0.0
 31
0.0
 12
0.0
 22
16.0
 32
0.0
 13
1.0
 23
1.0
340
0
 70
    15
280
     1
281
    50
282
    50
283
     0
360
0
 71
     2
 91
        5
 14
0.4999999999999994
 24
-0.5
 14
-0.5000000000000007
 24
-0.5
 14
-0.4999999999999981
 24
0.4999999999999432
 14
0.4999999999999968
 24
0.5
 14
0.4999999999999994
 24
-0.5
  0
INSERT
  5
22E
330
1F
100
AcDbEntity
  8
2D - Ogólne
  6
Continuous
370
    13
100
AcDbBlockReference
  2
*X14
 10
0.0
 20
0.0
 30
0.0
  0
LINE
  5
22F
330
1F
100
AcDbEntity
  8
2D - Ogólne
  6
Continuous
370
    13
100
AcDbLine
 10
-2087.955403443547
 20
991.3727161899892
 30
0.0
 11
-2446.559647060919
 21
991.3727161899892
 31
0.0
  0
LINE
  5
230
330
1F
100
AcDbEntity
  8
2D - Ogólne
  6
Continuous
370
    13
100
AcDbLine
 10
-2446.559647060919
 20
991.3727161899892
 30
0.0
 11
-2446.559647060918
 21
975.3727161899901
 31
0.0
  0
LINE
  5
231
330
1F
100
AcDbEntity
  8
2D - Ogólne
  6
Continuous
370
    13
100
AcDbLine
 10
-2446.559647060918
 20
975.3727161899901
 30
0.0
 11
-2087.955403443548
 21
975.3727161899892
 31
0.0
  0
LINE
  5
232
330
1F
100
AcDbEntity
  8
2D - Ogólne
  6
Continuous
370
    13
100
AcDbLine
 10
-2087.955403443548
 20
975.3727161899892
 30
0.0
 11
-2087.955403443547
 21
991.3727161899892
 31
0.0
  0
WIPEOUT
  5
246
330
1F
100
AcDbEntity
  8
2D - Ogólne
  6
Wipeout_Contour
 62
   254
 48
9456.02310325898
370
     0
 92
      140
310
8C000000010000008400000006000000050000000BE1A32AE94FA0C038349E79F01A85400000000000000000E63F0F8A1E1DA3C038349E79F01A85400000000000000000E43F0F8A1E1DA3C037349E79F09A844000000000000000000DE1A32AE94FA0C030349E79F09A844000000000000000000BE1A32AE94FA0C038349E
310
79F01A85400000000000000000
100
AcDbWipeout
 90
        0
 10
-2446.559647060919
 20
659.3674194678952
 30
0.0
 11
358.6042436173716
 21
0.0
 31
0.0
 12
0.0
 22
16.00000000000091
 32
0.0
 13
1.0
 23
1.0
340
0
 70
    15
280
     1
281
    50
282
    50
283
     0
360
0
 71
     2
 91
        5
 14
0.4999999999999994
 24
-0.5
 14
-0.5000000000000007
 24
-0.5
 14
-0.4999999999999981
 24
0.4999999999999503
 14
0.4999999999999968
 24
0.5
 14
0.4999999999999994
 24
-0.5
  0
INSERT
  5
247
330
1F
100
AcDbEntity
  8
2D - Ogólne
  6
Continuous
370
    13
100
AcDbBlockReference
  2
*X15
 10
0.0
 20
0.0
 30
0.0
  0
LINE
  5
248
330
1F
100
AcDbEntity
  8
2D - Ogólne
  6
Continuous
370
    13
100
AcDbLine
 10
-2087.955403443547
 20
675.3674194678961
 30
0.0
 11
-2446.559647060919
 21
675.3674194678961
 31
0.0
  0
LINE
  5
249
330
1F
100
AcDbEntity
  8
2D - Ogólne
  6
Continuous
370
    13
100
AcDbLine
 10
-2446.559647060919
 20
675.3674194678961
 30
0.0
 11
-2446.559647060918
 21
659.367419467896
 31
0.0
  0
LINE
  5
24A
330
1F
100
AcDbEntity
  8
2D - Ogólne
  6
Continuous
370
    13
100
AcDbLine
 10
-2446.559647060918
 20
659.367419467896
 30
0.0
 11
-2087.955403443548
 21
659.3674194678952
 31
0.0
  0
LINE
  5
24B
330
1F
100
AcDbEntity
  8
2D - Ogólne
  6
Continuous
370
    13
100
AcDbLine
 10
-2087.955403443548
 20
659.3674194678952
 30
0.0
 11
-2087.955403443547
 21
675.3674194678961
 31
0.0
  0
WIPEOUT
  5
25F
330
1F
100
AcDbEntity
  8
2D - Ogólne
  6
Wipeout_Contour
 62
   254
 48
7939.987536354978
370
     0
 92
      140
310
8C000000010000008400000006000000050000002E4D3BED88649AC030349E79F01A85400000000000000000E30A12ACF3FE9FC030349E79F01A85400000000000000000E30A12ACF3FE9FC030349E79F09A84400000000000000000324D3BED88649AC028349E79F09A844000000000000000002E4D3BED88649AC030349E
310
79F01A85400000000000000000
100
AcDbWipeout
 90
        0
 10
-2047.737961084284
 20
659.3674194678943
 30
0.0
 11
358.6042436173714
 21
0.0
 31
0.0
 12
0.0
 22
16.00000000000091
 32
0.0
 13
1.0
 23
1.0
340
0
 70
    15
280
     1
281
    50
282
    50
283
     0
360
0
 71
     2
 91
        5
 14
0.4999999999999997
 24
-0.5
 14
-0.5000000000000003
 24
-0.5
 14
-0.5000000000000003
 24
0.4999999999999432
 14
0.4999999999999972
 24
0.5
 14
0.4999999999999997
 24
-0.5
  0
INSERT
  5
260
330
1F
100
AcDbEntity
  8
2D - Ogólne
  6
Continuous
370
    13
100
AcDbBlockReference
  2
*X16
 10
0.0
 20
0.0
 30
0.0
  0
LINE
  5
261
330
1F
100
AcDbEntity
  8
2D - Ogólne
  6
Continuous
370
    13
100
AcDbLine
 10
-1689.133717466913
 20
675.3674194678952
 30
0.0
 11
-2047.737961084284
 21
675.3674194678952
 31
0.0
  0
LINE
  5
262
330
1F
100
AcDbEntity
  8
2D - Ogólne
  6
Continuous
370
    13
100
AcDbLine
 10
-2047.737961084284
 20
675.3674194678952
 30
0.0
 11
-2047.737961084284
 21
659.3674194678952
 31
0.0
  0
LINE
  5
263
330
1F
100
AcDbEntity
  8
2D - Ogólne
  6
Continuous
370
    13
100
AcDbLine
 10
-2047.737961084284
 20
659.3674194678952
 30
0.0
 11
-1689.133717466914
 21
659.3674194678943
 31
0.0
  0
LINE
  5
264
330
1F
100
AcDbEntity
  8
2D - Ogólne
  6
Continuous
370
    13
100
AcDbLine
 10
-1689.133717466914
 20
659.3674194678943
 30
0.0
 11
-1689.133717466913
 21
675.3674194678952
 31
0.0
  0
LWPOLYLINE
  5
265
330
1F
100
AcDbEntity
  8
2D - Ogólne
  6
Continuous
370
    13
100
AcDbPolyline
 90
       16
 70
   129
 43
0.0
 10
-2108.073274586405
 20
959.3727161899892
 42
-0.2865462259866806
 10
-2095.576509719204
 20
953.3771173299801
 42
0.143692665785129
 10
-2087.973523331565
 20
939.4588399193449
 42
0.1989123673796609
 10
-2068.059647060919
 20
931.210242288623
 42
0.3522675303718918
 10
-2040.55173271482
 20
953.3361952902766
 42
-0.3058693040633772
 10
-2031.144607262469
 20
959.3727161899892
 10
-1968.059647060918
 20
959.3727161899892
 10
-1968.059647060918
 20
975.3727161899892
 10
-2031.002850341212
 20
975.3727161899892
 42
0.3264278037445717
 10
-2056.021797003656
 20
957.6360707453997
 42
-0.3728448194129093
 10
-2068.05964706092
 20
947.210242288623
 42
-0.1989123673796679
 10
-2076.65981483258
 20
950.7725484183292
 42
-0.1802482968239299
 10
-2080.190553045064
 20
958.4969928288868
 42
0.3134266156090819
 10
-2108.785377848749
 20
975.3727161899892
 10
-2168.05964706092
 20
975.3727161899892
 10
-2168.05964706092
 20
959.3727161899892
  0
HATCH
  5
266
330
1F
100
AcDbEntity
  8
2D - Ogólne
  6
Continuous
370
    13
100
AcDbHatch
 10
0.0
 20
0.0
 30
0.0
210
0.0
220
0.0
230
1.0
  2
SOLID
 70
     1
 71
     1
 91
        1
 92
        2
 72
     0
 73
     1
 93
        4
 10
-2168.05964706092
 20
959.3727161899892
 10
-2118.299059599748
 20
959.3727161899892
 10
-2118.299059599748
 20
975.3727161899892
 10
-2168.05964706092
 20
975.3727161899892
 97
        1
330
267
 75
     0
 76
     1
 98
        0
  0
LWPOLYLINE
  5
267
102
{ACAD_REACTORS
330
266
102
}
330
1F
100
AcDbEntity
  8
2D - Ogólne
  6
Continuous
370
    13
100
AcDbPolyline
 90
        4
 70
   129
 43
0.0
 10
-2168.05964706092
 20
959.3727161899892
 10
-2118.299059599748
 20
959.3727161899892
 10
-2118.299059599748
 20
975.3727161899892
 10
-2168.05964706092
 20
975.3727161899892
  0
HATCH
  5
268
330
1F
100
AcDbEntity
  8
2D - Ogólne
  6
Continuous
370
    13
100
AcDbHatch
 10
0.0
 20
0.0
 30
0.0
210
0.0
220
0.0
230
1.0
  2
SOLID
 70
     1
 71
     1
 91
        1
 92
        2
 72
     0
 73
     1
 93
        4
 10
-2032.189775558962
 20
959.2561802968094
 10
-1982.42918809779
 20
959.2561802968094
 10
-1982.42918809779
 20
975.2561802968094
 10
-2032.189775558962
 20
975.2561802968094
 97
        1
330
269
 75
     0
 76
     1
 98
        0
  0
LWPOLYLINE
  5
269
102
{ACAD_REACTORS
330
268
102
}
330
1F
100
AcDbEntity
  8
2D - Ogólne
  6
Continuous
370
    13
100
AcDbPolyline
 90
        4
 70
   129
 43
0.0
 10
-2032.189775558962
 20
959.2561802968094
 10
-1982.42918809779
 20
959.2561802968094
 10
-1982.42918809779
 20
975.2561802968094
 10
-2032.189775558962
 20
975.2561802968094
  0
HATCH
  5
26A
330
1F
100
AcDbEntity
  8
2D - Ogólne
  6
Continuous
370
    13
100
AcDbHatch
 10
0.0
 20
0.0
 30
0.0
210
0.0
220
0.0
230
1.0
  2
SOLID
 70
     1
 71
     1
 91
        1
 92
        2
 72
     1
 73
     1
 93
        4
 10
-2094.963530553161
 20
951.047694311284
 42
0.50691817045378
 10
-2052.019630930485
 20
936.2244372306252
 42
0.0
 10
-2059.366442951569
 20
950.8666022879453
 42
-0.6394506589411391
 10
-2080.171377983009
 20
958.2628758986598
 42
0.0
 97
        1
330
26B
 75
     0
 76
     1
 98
        0
  0
LWPOLYLINE
  5
26B
102
{ACAD_REACTORS
330
26A
102
}
330
1F
100
AcDbEntity
  8
2D - Ogólne
  6
Continuous
370
    13
100
AcDbPolyline
 90
        4
 70
   129
 43
0.0
 10
-2094.963530553161
 20
951.047694311284
 42
0.50691817045378
 10
-2052.019630930485
 20
936.2244372306252
 10
-2059.366442951569
 20
950.8666022879453
 42
-0.6394506589411391
 10
-2080.171377983009
 20
958.2628758986598
  0
INSERT
  5
26C
330
1F
100
AcDbEntity
  8
@__WIDOCZNE
  6
Continuous
370
    13
100
AcDbBlockReference
 66
     1
  2
Sygnał termostatu 12_4
 10
-1935.241546604629
 20
469.7313717881917
 30
0.0
  0
ATTRIB
  5
26D
330
26C
100
AcDbEntity
  8
@__WIDOCZNE
  6
Continuous
370
    13
100
AcDbText
 10
-1946.624421604629
 20
463.0885253596203
 30
0.0
 40
15.0
  1
01
  7
GENERATED_STYLE_1
 11
-1946.624421604629
 21
458.6553222346203
 31
0.0
100
AcDbAttribute
  2
txt
 70
     0
 74
     1
  0
SEQEND
  5
26E
330
26C
100
AcDbEntity
  8
@__WIDOCZNE
  6
Continuous
370
    13
  0
INSERT
  5
26F
330
1F
100
AcDbEntity
  8
@__WIDOCZNE
  6
Continuous
370
    13
100
AcDbBlockReference
 66
     1
  2
Sygnał termostatu 12_5
 10
-1935.276086141785
 20
435.0395295925118
 30
0.0
  0
ATTRIB
  5
270
330
26F
100
AcDbEntity
  8
@__WIDOCZNE
  6
Continuous
370
    13
100
AcDbText
 10
-1946.658961141785
 20
428.3966831639404
 30
0.0
 40
15.0
  1
02
  7
GENERATED_STYLE_1
 11
-1946.658961141785
 21
423.9634800389404
 31
0.0
100
AcDbAttribute
  2
txt
 70
     0
 74
     1
  0
SEQEND
  5
271
330
26F
100
AcDbEntity
  8
@__WIDOCZNE
  6
Continuous
370
    13
  0
INSERT
  5
272
330
1F
100
AcDbEntity
  8
@__WIDOCZNE
  6
Continuous
370
    13
100
AcDbBlockReference
 66
     1
  2
Sygnał termostatu 12_6
 10
-1935.276086141785
 20
400.0395295925117
 30
0.0
  0
ATTRIB
  5
273
330
272
100
AcDbEntity
  8
@__WIDOCZNE
  6
Continuous
370
    13
100
AcDbText
 10
-1946.658961141785
 20
393.3966831639403
 30
0.0
 40
15.0
  1
03
  7
GENERATED_STYLE_1
 11
-1946.658961141785
 21
388.9634800389403
 31
0.0
100
AcDbAttribute
  2
txt
 70
     0
 74
     1
  0
SEQEND
  5
274
330
272
100
AcDbEntity
  8
@__WIDOCZNE
  6
Continuous
370
    13
  0
INSERT
  5
275
330
1F
100
AcDbEntity
  8
@__WIDOCZNE
  6
Continuous
370
    13
100
AcDbBlockReference
 66
     1
  2
Sygnał termostatu 12_3
 10
-1935.276086141785
 20
365.0395295925115
 30
0.0
  0
ATTRIB
  5
276
330
275
100
AcDbEntity
  8
@__WIDOCZNE
  6
Continuous
370
    13
100
AcDbText
 10
-1946.658961141785
 20
358.3966831639401
 30
0.0
 40
15.0
  1
04
  7
GENERATED_STYLE_1
 11
-1946.658961141785
 21
353.9634800389401
 31
0.0
100
AcDbAttribute
  2
txt
 70
     0
 74
     1
  0
SEQEND
  5
277
330
275
100
AcDbEntity
  8
@__WIDOCZNE
  6
Continuous
370
    13
  0
INSERT
  5
278
330
1F
100
AcDbEntity
  8
@__WIDOCZNE
  6
Continuous
370
    13
100
AcDbBlockReference
 66
     1
  2
Sygnał termostatu 12
 10
-1935.276086141785
 20
330.0395295925114
 30
0.0
  0
ATTRIB
  5
279
330
278
100
AcDbEntity
  8
@__WIDOCZNE
  6
Continuous
370
    13
100
AcDbText
 10
-1946.658961141785
 20
323.3966831639399
 30
0.0
 40
15.0
  1
05
  7
GENERATED_STYLE_1
 11
-1946.658961141785
 21
318.9634800389399
 31
0.0
100
AcDbAttribute
  2
txt
 70
     0
 74
     1
  0
SEQEND
  5
27A
330
278
100
AcDbEntity
  8
@__WIDOCZNE
  6
Continuous
370
    13
  0
INSERT
  5
27B
330
1F
100
AcDbEntity
  8
@__WIDOCZNE
  6
Continuous
370
    13
100
AcDbBlockReference
 66
     1
  2
Sygnał termostatu 12_2
 10
-1935.276086141785
 20
295.0395295925113
 30
0.0
  0
ATTRIB
  5
27C
330
27B
100
AcDbEntity
  8
@__WIDOCZNE
  6
Continuous
370
    13
100
AcDbText
 10
-1946.658961141785
 20
288.3966831639397
 30
0.0
 40
15.0
  1
06
  7
GENERATED_STYLE_1
 11
-1946.658961141785
 21
283.9634800389397
 31
0.0
100
AcDbAttribute
  2
txt
 70
     0
 74
     1
  0
SEQEND
  5
27D
330
27B
100
AcDbEntity
  8
@__WIDOCZNE
  6
Continuous
370
    13
  0
LINE
  5
27E
330
1F
100
AcDbEntity
  8
0
  6
Continuous
370
    13
100
AcDbLine
 10
-2005.781879389361
 20
905.1125658492847
 30
0.0
 11
-2046.291630054533
 21
945.6108569887424
 31
0.0
  0
CIRCLE
  5
27F
330
1F
100
AcDbEntity
  8
0
  6
Continuous
370
    13
100
AcDbCircle
 10
-2048.059647060918
 20
947.3783738529145
 30
0.0
 40
2.5
  0
HATCH
  5
280
330
1F
100
AcDbEntity
  8
0
  6
Continuous
370
    13
100
AcDbHatch
 10
0.0
 20
0.0
 30
0.0
210
0.0
220
0.0
230
1.0
  2
SOLID
 70
     1
 71
     0
 91
        1
 92
        2
 72
     0
 73
     1
 93
       16
 10
-2045.559647060918
 20
947.3783738529145
 10
-2045.74994822964
 20
948.3350824338271
 10
-2046.291880107951
 20
949.1461408058808
 10
-2047.102938480005
 20
949.6880726841927
 10
-2048.059647060918
 20
949.8783738529144
 10
-2049.01635564183
 20
949.6880726841927
 10
-2049.827414013884
 20
949.1461408058808
 10
-2050.369345892196
 20
948.3350824338271
 10
-2050.559647060918
 20
947.3783738529145
 10
-2050.369345892196
 20
946.4216652720017
 10
-2049.827414013884
 20
945.6106068999482
 10
-2049.01635564183
 20
945.0686750216363
 10
-2048.059647060918
 20
944.8783738529145
 10
-2047.102938480005
 20
945.0686750216363
 10
-2046.291880107951
 20
945.6106068999482
 10
-2045.74994822964
 20
946.4216652720017
 97
        0
 75
     0
 76
     1
 98
        0
  0
LINE
  5
281
330
1F
100
AcDbEntity
  8
0
  6
Continuous
370
    13
100
AcDbLine
 10
-2013.102831842316
 20
588.5723915765242
 30
0.0
 11
-2056.012278343872
 21
640.3908815193529
 31
0.0
  0
CIRCLE
  5
282
330
1F
100
AcDbEntity
  8
0
  6
Continuous
370
    13
100
AcDbCircle
 10
-2057.606752863956
 20
642.3164076824577
 30
0.0
 40
2.5
  0
HATCH
  5
283
330
1F
100
AcDbEntity
  8
0
  6
Continuous
370
    13
100
AcDbHatch
 10
0.0
 20
0.0
 30
0.0
210
0.0
220
0.0
230
1.0
  2
SOLID
 70
     1
 71
     0
 91
        1
 92
        2
 72
     0
 73
     1
 93
       16
 10
-2055.106752863956
 20
642.3164076824577
 10
-2055.297054032678
 20
643.2731162633704
 10
-2055.83898591099
 20
644.084174635424
 10
-2056.650044283044
 20
644.6261065137359
 10
-2057.606752863956
 20
644.8164076824577
 10
-2058.563461444869
 20
644.6261065137359
 10
-2059.374519816923
 20
644.084174635424
 10
-2059.916451695235
 20
643.2731162633704
 10
-2060.106752863956
 20
642.3164076824577
 10
-2059.916451695235
 20
641.359699101545
 10
-2059.374519816923
 20
640.5486407294914
 10
-2058.563461444869
 20
640.0067088511795
 10
-2057.606752863956
 20
639.8164076824577
 10
-2056.650044283044
 20
640.0067088511795
 10
-2055.83898591099
 20
640.5486407294914
 10
-2055.297054032678
 20
641.359699101545
 97
        0
 75
     0
 76
     1
 98
        0
  0
LINE
  5
284
330
1F
100
AcDbEntity
  8
0
  6
Continuous
 62
     2
370
    15
100
AcDbLine
 10
-2151.699301293548
 20
1071.798349226867
 30
0.0
 11
-2096.059647060916
 21
1071.798349226867
 31
0.0
  0
LINE
  5
285
330
1F
100
AcDbEntity
  8
0
  6
Continuous
 62
     2
370
    15
100
AcDbLine
 10
-1982.926416488657
 20
1071.798349226867
 30
0.0
 11
-2040.059647060918
 21
1071.798349226867
 31
0.0
  0
LINE
  5
286
330
1F
100
AcDbEntity
  8
0
  6
Continuous
370
    13
100
AcDbLine
 10
-1994.279192093018
 20
1159.798349226867
 30
0.0
 11
-1994.279192093018
 21
1074.298349226867
 31
0.0
  0
CIRCLE
  5
287
330
1F
100
AcDbEntity
  8
0
  6
Continuous
370
    13
100
AcDbCircle
 10
-1994.279192093018
 20
1071.798349226867
 30
0.0
 40
2.5
  0
HATCH
  5
288
330
1F
100
AcDbEntity
  8
0
  6
Continuous
370
    13
100
AcDbHatch
 10
0.0
 20
0.0
 30
0.0
210
0.0
220
0.0
230
1.0
  2
SOLID
 70
     1
 71
     0
 91
        1
 92
        2
 72
     0
 73
     1
 93
       16
 10
-1991.779192093018
 20
1071.798349226867
 10
-1991.96949326174
 20
1072.75505780778
 10
-1992.511425140052
 20
1073.566116179833
 10
-1993.322483512105
 20
1074.108048058145
 10
-1994.279192093018
 20
1074.298349226867
 10
-1995.235900673931
 20
1074.108048058145
 10
-1996.046959045984
 20
1073.566116179833
 10
-1996.588890924296
 20
1072.75505780778
 10
-1996.779192093018
 20
1071.798349226867
 10
-1996.588890924296
 20
1070.841640645954
 10
-1996.046959045984
 20
1070.030582273901
 10
-1995.235900673931
 20
1069.488650395589
 10
-1994.279192093018
 20
1069.298349226867
 10
-1993.322483512105
 20
1069.488650395589
 10
-1992.511425140052
 20
1070.030582273901
 10
-1991.96949326174
 20
1070.841640645954
 97
        0
 75
     0
 76
     1
 98
        0
  0
LINE
  5
289
330
1F
100
AcDbEntity
  8
0
  6
Continuous
 62
     2
370
    15
100
AcDbLine
 10
-2226.059647060915
 20
670.2999987778288
 30
0.0
 11
-2096.059647060916
 21
670.2999987778288
 31
0.0
  0
LINE
  5
28A
330
1F
100
AcDbEntity
  8
0
  6
Continuous
 62
     2
370
    15
100
AcDbLine
 10
-1910.059647060919
 20
670.2999987778288
 30
0.0
 11
-2040.059647060918
 21
670.2999987778288
 31
0.0
  0
LINE
  5
28B
330
1F
100
AcDbEntity
  8
0
  6
Continuous
370
    50
100
AcDbLine
 10
-2400.059647061097
 20
384.5534172152365
 30
0.0
 11
-2400.059647061097
 21
1539.060688834688
 31
0.0
  0
LINE
  5
28C
330
1F
100
AcDbEntity
  8
@__WIDOCZNE
  6
Przerywana gęsta
370
    13
100
AcDbLine
 10
-2448.059647060918
 20
1113.896354421629
 30
0.0
 11
-2448.059647060919
 21
392.3411064968882
 31
0.0
  0
ARC
  5
28D
330
1F
100
AcDbEntity
  8
0
  6
Continuous
 62
     2
370
    15
100
AcDbCircle
 10
-2096.059647060916
 20
1063.798349226867
 30
0.0
 40
8.0
100
AcDbArc
 50
0.0
 51
90.0
  0
ARC
  5
28E
330
1F
100
AcDbEntity
  8
0
  6
Continuous
 62
     2
370
    15
100
AcDbCircle
 10
-2040.059647060918
 20
1063.798349226867
 30
0.0
 40
8.0
100
AcDbArc
 50
90.0
 51
180.0
  0
ARC
  5
28F
330
1F
100
AcDbEntity
  8
0
  6
Continuous
 62
     2
370
    15
100
AcDbCircle
 10
-2096.059647060916
 20
662.2999987778288
 30
0.0
 40
8.0
100
AcDbArc
 50
0.0
 51
90.0
  0
ARC
  5
290
330
1F
100
AcDbEntity
  8
0
  6
Continuous
 62
     2
370
    15
100
AcDbCircle
 10
-2040.059647060918
 20
662.2999987778288
 30
0.0
 40
8.0
100
AcDbArc
 50
90.0
 51
180.0
  0
MTEXT
  5
291
330
1F
100
AcDbEntity
  8
0
  6
Continuous
370
    13
100
AcDbMText
 10
-1915.539781767814
 20
358.4909490624772
 30
0.0
 40
10.0
 41
0.0
 71
     4
 72
     1
  1
\A1;{\fArial|b0|i0|c238|p38;- TAŚMA USZCZELNIAJĄCA Z \fArial|b1|i0|c238|p38;BOTAMENT KSK\P\fArial|b0|i0|c238|p38;  (połączona z izolacją na zakład min. 10 cm)}
  7
GENERATED_STYLE_1
 73
     1
 44
0.9186980100444309
  0
MTEXT
  5
292
330
1F
100
AcDbEntity
  8
0
  6
Continuous
370
    13
100
AcDbMText
 10
-1946.847514713214
 20
513.083796846889
 30
0.0
 40
15.0
 41
0.0
 71
     1
 72
     1
  1
{\LLEGENDA:}
  7
GENERATED_STYLE_1
 73
     1
 44
1.0
  0
MTEXT
  5
293
330
1F
100
AcDbEntity
  8
0
  6
Continuous
370
    13
100
AcDbMText
 10
-1915.539781767814
 20
442.5024505512316
 30
0.0
 40
10.0
 41
0.0
 71
     1
 72
     1
  1
{- SZNUR POLIETYLENOWY\P  }
  7
GENERATED_STYLE_1
 73
     1
 44
1.0
  0
MTEXT
  5
294
330
1F
100
AcDbEntity
  8
0
  6
Continuous
370
    13
100
AcDbMText
 10
-1915.539781767814
 20
409.7973076940885
 30
0.0
 40
10.0
 41
0.0
 71
     1
 72
     1
  1
\A1;{\fArial|b0|i0|c238|p38;- TAŚMA USZCZELNIAJĄCA - \fArial|b1|i0|c238|p38;BOTAMENT SB78\P\fArial|b0|i0|c238|p38;  (wtopiona w warstwę izolacji)}
  7
GENERATED_STYLE_1
 73
     1
 44
0.9186980100444309
  0
MTEXT
  5
295
330
1F
100
AcDbEntity
  8
0
  6
Continuous
370
    13
100
AcDbMText
 10
-1915.539781767814
 20
338.1915295925117
 30
0.0
 40
10.0
 41
0.0
 71
     1
 72
     1
  1
\A1;{\fArial|b0|i0|c238|p38;- TAŚMA DYLATACYJNA - \fArial|b1|i0|c238|p38;BOTAMENT FB\fArial|b0|i0|c238|p38; \P  (wtopiona w warstwę izolacji)}
  7
GENERATED_STYLE_1
 73
     1
 44
0.9186980100444309
  0
MTEXT
  5
296
330
1F
100
AcDbEntity
  8
0
  6
Continuous
370
    13
100
AcDbMText
 10
-1915.539781767814
 20
300.8966724496544
 30
0.0
 40
10.0
 41
0.0
 71
     1
 72
     1
  1
{- MATERIAŁ TRWALE ELASTYCZNY\P  (wypełnienie szczeliny dylatacyjnej)}
  7
GENERATED_STYLE_1
 73
     1
 44
0.9216692827178624
  0
MTEXT
  5
297
330
1F
100
AcDbEntity
  8
0
  6
Continuous
370
    13
100
AcDbMText
 10
-1915.539781767814
 20
471.1778853662942
 30
0.0
 40
9.999999999999998
 41
0.0
 71
     4
 72
     1
  1
\A1;{\fArial|b0|i0|c238|p38;- SILIKON - \fArial|b1|i0|c238|p38;BOTAMENT S5 SUPAX / S3 SUPAX\P\fArial|b0|i0|c238|p38;}
  7
GENERATED_STYLE_1
 73
     1
 44
1.0
  0
VIEWPORT
  5
5D
330
1B
100
AcDbEntity
 67
     1
  8
0
  6
Continuous
370
     0
100
AcDbViewport
 10
105.0
 20
148.5
 30
0.0
 40
252.0
 41
356.4
 68
     1
 69
     1
 12
105.0
 22
148.5
 13
0.0
 23
0.0
 14
0.5
 24
0.5
 15
0.0
 25
0.0
 16
0.0
 26
0.0
 36
1.0
 17
0.0
 27
0.0
 37
0.0
 42
50.0
 43
0.0
 44
0.0
 45
356.4
 50
0.0
 51
0.0
 72
   100
 90
   557152
  1

281
     0
 71
     1
 74
     0
110
0.0
120
0.0
130
0.0
111
1.0
121
0.0
131
0.0
112
0.0
122
1.0
132
0.0
 79
     0
146
0.0
170
     0
  0
INSERT
  5
29E
102
{ACAD_XDICTIONARY
360
29F
102
}
330
1B
100
AcDbEntity
 67
     1
  8
0
370
    13
100
AcDbBlockReference
  2
Rysunek_1
 10
0.0
 20
0.0
 30
0.0
  0
VIEWPORT
  5
2A2
330
1B
100
AcDbEntity
 67
     1
  8
NonPlottable_0
  6
Continuous
 62
    65
370
    20
100
AcDbViewport
 10
105.0484164235496
 20
148.5076333096957
 30
0.0
 40
209.9031671529008
 41
296.9847333806086
 68
     2
 69
     2
 12
0.0
 22
0.0
 13
0.0
 23
0.0
 14
0.5
 24
0.5
 15
0.0
 25
0.0
 16
0.0
 26
0.0
 36
1.0
 17
-2087.979192499195
 27
841.5225222862094
 37
0.0
 42
50.0
 43
0.0
 44
0.0
 45
1484.923666903043
 50
0.0
 51
0.0
 72
   100
 90
   622688
340
2A4
  1

281
     0
 71
     1
 74
     0
110
0.0
120
0.0
130
0.0
111
1.0
121
0.0
131
0.0
112
0.0
122
1.0
132
0.0
 79
     0
146
0.0
170
     0
  0
LWPOLYLINE
  5
2A4
102
{ACAD_REACTORS
330
2A2
102
}
330
1B
100
AcDbEntity
 67
     1
  8
NonPlottable_0
  6
Continuous
 62
    65
370
    20
100
AcDbPolyline
 90
        4
 70
   129
 43
0.0
 10
0.0968328470991597
 20
0.015266619391361
 10
210.0
 20
0.015266619391361
 10
210.0
 20
297.0
 10
0.0968328470991597
 20
297.0
  0
ENDSEC
  0
SECTION
  2
OBJECTS
  0
DICTIONARY
  5
C
330
0
100
AcDbDictionary
281
     1
  3
ACAD_GROUP
350
D
  3
ACAD_LAYOUT
350
1A
  3
ACAD_MLEADERSTYLE
350
2AB
  3
ACAD_MLINESTYLE
350
17
  3
ACAD_PLOTSETTINGS
350
19
  3
ACAD_PLOTSTYLENAME
350
E
  3
ACAD_SCALELIST
350
3B
  3
ACAD_TABLESTYLE
350
2AA
  3
ACAD_VISUALSTYLE
350
2A
  3
WATERMARKS
350
2A8
  0
DICTIONARY
  5
29F
330
29E
100
AcDbDictionary
280
     1
281
     1
  3
ACAD_FILTER
360
2A0
  0
DICTIONARY
  5
D
102
{ACAD_REACTORS
330
C
102
}
330
C
100
AcDbDictionary
281
     1
  0
DICTIONARY
  5
1A
102
{ACAD_REACTORS
330
C
102
}
330
C
100
AcDbDictionary
281
     1
  3
02.04.2-20 ŚCIANA+PIWICA 05.01.
350
1E
  3
Layout2
350
26
  3
Model
350
22
  0
DICTIONARY
  5
2AB
102
{ACAD_REACTORS
330
C
102
}
330
C
100
AcDbDictionary
281
     1
  0
DICTIONARY
  5
17
102
{ACAD_REACTORS
330
C
102
}
330
C
100
AcDbDictionary
281
     1
  3
Standard
350
18
  0
DICTIONARY
  5
19
102
{ACAD_REACTORS
330
C
102
}
330
C
100
AcDbDictionary
281
     1
  0
ACDBDICTIONARYWDFLT
  5
E
102
{ACAD_REACTORS
330
C
102
}
330
C
100
AcDbDictionary
281
     1
  3
Normal
350
F
100
AcDbDictionaryWithDefault
340
F
  0
DICTIONARY
  5
3B
102
{ACAD_REACTORS
330
C
102
}
330
C
100
AcDbDictionary
281
     1
  3
A0
350
3C
  3
A1
350
3D
  3
A2
350
3E
  3
A3
350
3F
  3
A4
350
40
  3
A5
350
41
  3
A6
350
42
  3
A7
350
43
  3
A8
350
44
  3
A9
350
45
  3
B0
350
46
  3
B1
350
47
  3
B2
350
48
  3
B3
350
49
  3
B4
350
4A
  3
B5
350
4B
  3
B6
350
4C
  3
B7
350
4D
  3
B8
350
4E
  3
B9
350
4F
  3
C0
350
50
  3
C1
350
51
  3
C2
350
52
  3
C3
350
53
  3
C4
350
54
  3
C5
350
55
  3
C6
350
56
  3
C7
350
57
  3
C8
350
58
  3
C9
350
59
  3
D0
350
5A
  3
D1
350
5B
  3
D2
350
5C
  0
DICTIONARY
  5
2AA
102
{ACAD_REACTORS
330
C
102
}
330
C
100
AcDbDictionary
281
     1
  0
DICTIONARY
  5
2A
102
{ACAD_REACTORS
330
C
102
}
330
C
100
AcDbDictionary
281
     1
  3
2dWireframe
350
2F
  3
3D Hidden
350
31
  3
3dWireframe
350
30
  3
Basic
350
32
  3
Brighten
350
36
  3
ColorChange
350
3A
  3
Conceptual
350
34
  3
Dim
350
35
  3
Facepattern
350
39
  3
Flat
350
2B
  3
FlatWithEdges
350
2C
  3
Gouraud
350
2D
  3
GouraudWithEdges
350
2E
  3
Linepattern
350
38
  3
Realistic
350
33
  3
Thicken
350
37
  0
DICTIONARY
  5
2A8
102
{ACAD_REACTORS
330
C
102
}
330
C
100
AcDbDictionary
281
     1
  3
AC_WATERMARK
350
2A9
  0
DICTIONARY
  5
2A0
102
{ACAD_REACTORS
330
29F
102
}
330
29F
100
AcDbDictionary
280
     1
281
     1
  3
SPATIAL
360
2A1
  0
LAYOUT
  5
1E
102
{ACAD_REACTORS
330
1A
102
}
330
1A
100
AcDbPlotSettings
  1

  2
none_device
  4

  6

 40
0.0
 41
0.0
 42
0.0
 43
0.0
 44
210.0
 45
297.0
 46
0.0
 47
0.0
 48
0.0
 49
0.0
140
0.0
141
0.0
142
1.0
143
1.0
 70
   688
 72
     1
 73
     0
 74
     5
  7

 75
    16
 76
     0
 77
     2
 78
   300
147
1.0
148
0.0
149
0.0
100
AcDbLayout
  1
02.04.2-20 ŚCIANA+PIWICA 05.01.
 70
     0
 71
     1
 10
0.0
 20
0.0
 11
210.0
 21
297.0
 12
0.0
 22
0.0
 32
0.0
 14
0.0
 24
0.0
 34
0.0
 15
210.0
 25
297.0
 35
0.0
146
0.0
 13
0.0
 23
0.0
 33
0.0
 16
1.0
 26
0.0
 36
0.0
 17
0.0
 27
1.0
 37
0.0
 76
     0
330
1B
331
5D
  0
LAYOUT
  5
26
102
{ACAD_REACTORS
330
1A
102
}
330
1A
100
AcDbPlotSettings
  1

  2
none_device
  4

  6

 40
0.0
 41
0.0
 42
0.0
 43
0.0
 44
0.0
 45
0.0
 46
0.0
 47
0.0
 48
0.0
 49
0.0
140
0.0
141
0.0
142
1.0
143
1.0
 70
   688
 72
     0
 73
     0
 74
     5
  7

 75
    16
 76
     0
 77
     2
 78
   300
147
1.0
148
0.0
149
0.0
100
AcDbLayout
  1
Layout2
 70
     1
 71
     2
 10
0.0
 20
0.0
 11
0.0
 21
0.0
 12
0.0
 22
0.0
 32
0.0
 14
0.0
 24
0.0
 34
0.0
 15
0.0
 25
0.0
 35
0.0
146
0.0
 13
0.0
 23
0.0
 33
0.0
 16
1.0
 26
0.0
 36
0.0
 17
0.0
 27
1.0
 37
0.0
 76
     0
330
23
  0
LAYOUT
  5
22
102
{ACAD_REACTORS
330
1A
102
}
330
1A
100
AcDbPlotSettings
  1

  2
none_device
  4

  6

 40
0.0
 41
0.0
 42
0.0
 43
0.0
 44
0.0
 45
0.0
 46
0.0
 47
0.0
 48
0.0
 49
0.0
140
0.0
141
0.0
142
1.0
143
1.0
 70
  1712
 72
     0
 73
     0
 74
     0
  7

 75
     0
 76
     0
 77
     2
 78
   300
147
1.0
148
0.0
149
0.0
100
AcDbLayout
  1
Model
 70
     1
 71
     0
 10
0.0
 20
0.0
 11
12.0
 21
9.0
 12
0.0
 22
0.0
 32
0.0
 14
1.000000000000000E+20
 24
1.000000000000000E+20
 34
1.000000000000000E+20
 15
-1.000000000000000E+20
 25
-1.000000000000000E+20
 35
-1.000000000000000E+20
146
0.0
 13
0.0
 23
0.0
 33
0.0
 16
1.0
 26
0.0
 36
0.0
 17
0.0
 27
1.0
 37
0.0
 76
     0
330
1F
331
29
  0
MLINESTYLE
  5
18
102
{ACAD_REACTORS
330
17
102
}
330
17
100
AcDbMlineStyle
  2
Standard
 70
     0
  3

 62
   256
 51
90.0
 52
90.0
 71
     2
 49
0.5
 62
   256
  6
BYLAYER
 49
-0.5
 62
   256
  6
BYLAYER
  0
ACDBPLACEHOLDER
  5
F
102
{ACAD_REACTORS
330
E
102
}
330
E
  0
SCALE
  5
3C
102
{ACAD_REACTORS
330
3B
102
}
330
3B
100
AcDbScale
 70
     0
300
1:1
140
1.0
141
1.0
290
     1
  0
SCALE
  5
3D
102
{ACAD_REACTORS
330
3B
102
}
330
3B
100
AcDbScale
 70
     0
300
1:2
140
1.0
141
2.0
290
     0
  0
SCALE
  5
3E
102
{ACAD_REACTORS
330
3B
102
}
330
3B
100
AcDbScale
 70
     0
300
1:4
140
1.0
141
4.0
290
     0
  0
SCALE
  5
3F
102
{ACAD_REACTORS
330
3B
102
}
330
3B
100
AcDbScale
 70
     0
300
1:5
140
1.0
141
5.0
290
     0
  0
SCALE
  5
40
102
{ACAD_REACTORS
330
3B
102
}
330
3B
100
AcDbScale
 70
     0
300
1:8
140
1.0
141
8.0
290
     0
  0
SCALE
  5
41
102
{ACAD_REACTORS
330
3B
102
}
330
3B
100
AcDbScale
 70
     0
300
1:10
140
1.0
141
10.0
290
     0
  0
SCALE
  5
42
102
{ACAD_REACTORS
330
3B
102
}
330
3B
100
AcDbScale
 70
     0
300
1:16
140
1.0
141
16.0
290
     0
  0
SCALE
  5
43
102
{ACAD_REACTORS
330
3B
102
}
330
3B
100
AcDbScale
 70
     0
300
1:20
140
1.0
141
20.0
290
     0
  0
SCALE
  5
44
102
{ACAD_REACTORS
330
3B
102
}
330
3B
100
AcDbScale
 70
     0
300
1:30
140
1.0
141
30.0
290
     0
  0
SCALE
  5
45
102
{ACAD_REACTORS
330
3B
102
}
330
3B
100
AcDbScale
 70
     0
300
1:40
140
1.0
141
40.0
290
     0
  0
SCALE
  5
46
102
{ACAD_REACTORS
330
3B
102
}
330
3B
100
AcDbScale
 70
     0
300
1:50
140
1.0
141
50.0
290
     0
  0
SCALE
  5
47
102
{ACAD_REACTORS
330
3B
102
}
330
3B
100
AcDbScale
 70
     0
300
1:100
140
1.0
141
100.0
290
     0
  0
SCALE
  5
48
102
{ACAD_REACTORS
330
3B
102
}
330
3B
100
AcDbScale
 70
     0
300
2:1
140
2.0
141
1.0
290
     0
  0
SCALE
  5
49
102
{ACAD_REACTORS
330
3B
102
}
330
3B
100
AcDbScale
 70
     0
300
4:1
140
4.0
141
1.0
290
     0
  0
SCALE
  5
4A
102
{ACAD_REACTORS
330
3B
102
}
330
3B
100
AcDbScale
 70
     0
300
8:1
140
8.0
141
1.0
290
     0
  0
SCALE
  5
4B
102
{ACAD_REACTORS
330
3B
102
}
330
3B
100
AcDbScale
 70
     0
300
10:1
140
10.0
141
1.0
290
     0
  0
SCALE
  5
4C
102
{ACAD_REACTORS
330
3B
102
}
330
3B
100
AcDbScale
 70
     0
300
100:1
140
100.0
141
1.0
290
     0
  0
SCALE
  5
4D
102
{ACAD_REACTORS
330
3B
102
}
330
3B
100
AcDbScale
 70
     0
300
1/128" = 1'-0"
140
0.0078125
141
12.0
290
     0
  0
SCALE
  5
4E
102
{ACAD_REACTORS
330
3B
102
}
330
3B
100
AcDbScale
 70
     0
300
1/64" = 1'-0"
140
0.015625
141
12.0
290
     0
  0
SCALE
  5
4F
102
{ACAD_REACTORS
330
3B
102
}
330
3B
100
AcDbScale
 70
     0
300
1/32" = 1'-0"
140
0.03125
141
12.0
290
     0
  0
SCALE
  5
50
102
{ACAD_REACTORS
330
3B
102
}
330
3B
100
AcDbScale
 70
     0
300
1/16" = 1'-0"
140
0.0625
141
12.0
290
     0
  0
SCALE
  5
51
102
{ACAD_REACTORS
330
3B
102
}
330
3B
100
AcDbScale
 70
     0
300
3/32" = 1'-0"
140
0.09375
141
12.0
290
     0
  0
SCALE
  5
52
102
{ACAD_REACTORS
330
3B
102
}
330
3B
100
AcDbScale
 70
     0
300
1/8" = 1'-0"
140
0.125
141
12.0
290
     0
  0
SCALE
  5
53
102
{ACAD_REACTORS
330
3B
102
}
330
3B
100
AcDbScale
 70
     0
300
3/16" = 1'-0"
140
0.1875
141
12.0
290
     0
  0
SCALE
  5
54
102
{ACAD_REACTORS
330
3B
102
}
330
3B
100
AcDbScale
 70
     0
300
1/4" = 1'-0"
140
0.25
141
12.0
290
     0
  0
SCALE
  5
55
102
{ACAD_REACTORS
330
3B
102
}
330
3B
100
AcDbScale
 70
     0
300
3/8" = 1'-0"
140
0.375
141
12.0
290
     0
  0
SCALE
  5
56
102
{ACAD_REACTORS
330
3B
102
}
330
3B
100
AcDbScale
 70
     0
300
1/2" = 1'-0"
140
0.5
141
12.0
290
     0
  0
SCALE
  5
57
102
{ACAD_REACTORS
330
3B
102
}
330
3B
100
AcDbScale
 70
     0
300
3/4" = 1'-0"
140
0.75
141
12.0
290
     0
  0
SCALE
  5
58
102
{ACAD_REACTORS
330
3B
102
}
330
3B
100
AcDbScale
 70
     0
300
1" = 1'-0"
140
1.0
141
12.0
290
     0
  0
SCALE
  5
59
102
{ACAD_REACTORS
330
3B
102
}
330
3B
100
AcDbScale
 70
     0
300
1-1/2" = 1'-0"
140
1.5
141
12.0
290
     0
  0
SCALE
  5
5A
102
{ACAD_REACTORS
330
3B
102
}
330
3B
100
AcDbScale
 70
     0
300
3" = 1'-0"
140
3.0
141
12.0
290
     0
  0
SCALE
  5
5B
102
{ACAD_REACTORS
330
3B
102
}
330
3B
100
AcDbScale
 70
     0
300
6" = 1'-0"
140
6.0
141
12.0
290
     0
  0
SCALE
  5
5C
102
{ACAD_REACTORS
330
3B
102
}
330
3B
100
AcDbScale
 70
     0
300
1'-0" = 1'-0"
140
12.0
141
12.0
290
     0
  0
VISUALSTYLE
  5
2F
102
{ACAD_REACTORS
330
2A
102
}
330
2A
100
AcDbVisualStyle
  2
2dWireframe
 70
     4
 71
     0
 72
     2
 73
     0
 90
        0
 40
-0.6
 41
-30.0
 62
     5
 63
     7
421
 16777215
 74
     1
 91
        4
 64
     7
 65
   257
 75
     1
175
     1
 42
1.0
 92
        0
 66
   257
 43
1.0
 76
     1
 77
     6
 78
     2
 67
     7
 79
     5
170
     0
171
     0
290
     0
174
     0
 93
        1
 44
0.0
173
     0
291
     0
 45
0.0
1001
ACAD
1000
AcDbSavedByObjectVersion
1070
     0
  0
VISUALSTYLE
  5
31
102
{ACAD_REACTORS
330
2A
102
}
330
2A
100
AcDbVisualStyle
  2
3D Hidden
 70
     6
 71
     1
 72
     2
 73
     2
 90
        0
 40
-0.6
 41
-30.0
 62
     5
 63
     7
421
 16777215
 74
     2
 91
        2
 64
     7
 65
   257
 75
     2
175
     1
 42
40.0
 92
        0
 66
   257
 43
1.0
 76
     1
 77
     6
 78
     2
 67
     7
 79
     3
170
     0
171
     0
290
     0
174
     0
 93
        1
 44
0.0
173
     0
291
     0
 45
0.0
1001
ACAD
1000
AcDbSavedByObjectVersion
1070
     0
  0
VISUALSTYLE
  5
30
102
{ACAD_REACTORS
330
2A
102
}
330
2A
100
AcDbVisualStyle
  2
3dWireframe
 70
     5
 71
     0
 72
     2
 73
     0
 90
        0
 40
-0.6
 41
-30.0
 62
     5
 63
     7
421
 16777215
 74
     1
 91
        4
 64
     7
 65
   257
 75
     1
175
     1
 42
1.0
 92
        0
 66
   257
 43
1.0
 76
     1
 77
     6
 78
     2
 67
     7
 79
     5
170
     0
171
     0
290
     0
174
     0
 93
        1
 44
0.0
173
     0
291
     0
 45
0.0
1001
ACAD
1000
AcDbSavedByObjectVersion
1070
     0
  0
VISUALSTYLE
  5
32
102
{ACAD_REACTORS
330
2A
102
}
330
2A
100
AcDbVisualStyle
  2
Basic
 70
     7
 71
     1
 72
     0
 73
     1
 90
        0
 40
-0.6
 41
-30.0
 62
     5
 63
     7
421
 16777215
 74
     0
 91
        4
 64
     7
 65
   257
 75
     1
175
     1
 42
1.0
 92
        8
 66
     7
 43
1.0
 76
     1
 77
     6
 78
     2
 67
     7
 79
     5
170
     0
171
     0
290
     0
174
     0
 93
        1
 44
0.0
173
     0
291
     1
 45
0.0
1001
ACAD
1000
AcDbSavedByObjectVersion
1070
     0
  0
VISUALSTYLE
  5
36
102
{ACAD_REACTORS
330
2A
102
}
330
2A
100
AcDbVisualStyle
  2
Brighten
 70
    12
 71
     2
 72
     2
 73
     0
 90
        0
 40
-0.6
 41
-30.0
 62
     5
 63
     7
421
 16777215
 74
     1
 91
        4
 64
     7
 65
   257
 75
     1
175
     1
 42
1.0
 92
        8
 66
     7
 43
1.0
 76
     1
 77
     6
 78
     2
 67
     7
 79
     5
170
     0
171
     0
290
     0
174
     0
 93
        1
 44
50.0
173
     0
291
     1
 45
0.0
1001
ACAD
1000
AcDbSavedByObjectVersion
1070
     0
  0
VISUALSTYLE
  5
3A
102
{ACAD_REACTORS
330
2A
102
}
330
2A
100
AcDbVisualStyle
  2
ColorChange
 70
    16
 71
     2
 72
     2
 73
     3
 90
        0
 40
-0.6
 41
-30.0
 62
     5
 63
     8
421
  8421504
 74
     1
 91
        4
 64
     7
 65
   257
 75
     1
175
     1
 42
1.0
 92
        8
 66
     8
424
  8421504
 43
1.0
 76
     1
 77
     6
 78
     2
 67
     7
 79
     5
170
     0
171
     0
290
     0
174
     0
 93
        1
 44
0.0
173
     0
291
     1
 45
0.0
1001
ACAD
1000
AcDbSavedByObjectVersion
1070
     0
  0
VISUALSTYLE
  5
34
102
{ACAD_REACTORS
330
2A
102
}
330
2A
100
AcDbVisualStyle
  2
Conceptual
 70
     9
 71
     3
 72
     2
 73
     0
 90
        0
 40
-0.6
 41
-30.0
 62
     5
 63
     7
421
 16777215
 74
     2
 91
        2
 64
     7
 65
   257
 75
     1
175
     1
 42
40.0
 92
        8
 66
     7
 43
1.0
 76
     1
 77
     6
 78
     2
 67
     7
 79
     3
170
     0
171
     0
290
     0
174
     0
 93
        1
 44
0.0
173
     0
291
     0
 45
0.0
1001
ACAD
1000
AcDbSavedByObjectVersion
1070
     0
  0
VISUALSTYLE
  5
35
102
{ACAD_REACTORS
330
2A
102
}
330
2A
100
AcDbVisualStyle
  2
Dim
 70
    11
 71
     2
 72
     2
 73
     0
 90
        0
 40
-0.6
 41
-30.0
 62
     5
 63
     7
421
 16777215
 74
     1
 91
        4
 64
     7
 65
   257
 75
     1
175
     1
 42
1.0
 92
        8
 66
     7
 43
1.0
 76
     1
 77
     6
 78
     2
 67
     7
 79
     5
170
     0
171
     0
290
     0
174
     0
 93
        1
 44
-50.0
173
     0
291
     1
 45
0.0
1001
ACAD
1000
AcDbSavedByObjectVersion
1070
     0
  0
VISUALSTYLE
  5
39
102
{ACAD_REACTORS
330
2A
102
}
330
2A
100
AcDbVisualStyle
  2
Facepattern
 70
    15
 71
     2
 72
     2
 73
     0
 90
        0
 40
-0.6
 41
-30.0
 62
     5
 63
     7
421
 16777215
 74
     1
 91
        4
 64
     7
 65
   257
 75
     1
175
     1
 42
1.0
 92
        8
 66
     7
 43
1.0
 76
     1
 77
     6
 78
     2
 67
     7
 79
     5
170
     0
171
     0
290
     0
174
     0
 93
        1
 44
0.0
173
     0
291
     1
 45
0.0
1001
ACAD
1000
AcDbSavedByObjectVersion
1070
     0
  0
VISUALSTYLE
  5
2B
102
{ACAD_REACTORS
330
2A
102
}
330
2A
100
AcDbVisualStyle
  2
Flat
 70
     0
 71
     2
 72
     1
 73
     1
 90
        2
 40
-0.6
 41
30.0
 62
     5
 63
     7
421
 16777215
 74
     0
 91
        4
 64
     7
 65
   257
 75
     1
175
     1
 42
1.0
 92
        8
 66
     7
 43
1.0
 76
     1
 77
     6
 78
     2
 67
     7
 79
     5
170
     0
171
     0
290
     0
174
     0
 93
       13
 44
0.0
173
     0
291
     1
 45
0.0
1001
ACAD
1000
AcDbSavedByObjectVersion
1070
     0
  0
VISUALSTYLE
  5
2C
102
{ACAD_REACTORS
330
2A
102
}
330
2A
100
AcDbVisualStyle
  2
FlatWithEdges
 70
     1
 71
     2
 72
     1
 73
     1
 90
        2
 40
-0.6
 41
30.0
 62
     5
 63
     7
421
 16777215
 74
     1
 91
        4
 64
     7
 65
   257
 75
     1
175
     1
 42
1.0
 92
        0
 66
   257
 43
1.0
 76
     1
 77
     6
 78
     2
 67
     7
 79
     5
170
     0
171
     0
290
     0
174
     0
 93
       13
 44
0.0
173
     0
291
     1
 45
0.0
1001
ACAD
1000
AcDbSavedByObjectVersion
1070
     0
  0
VISUALSTYLE
  5
2D
102
{ACAD_REACTORS
330
2A
102
}
330
2A
100
AcDbVisualStyle
  2
Gouraud
 70
     2
 71
     2
 72
     2
 73
     1
 90
        2
 40
-0.6
 41
30.0
 62
     5
 63
     7
421
 16777215
 74
     0
 91
        4
 64
     7
 65
   257
 75
     1
175
     1
 42
1.0
 92
        0
 66
     7
 43
1.0
 76
     1
 77
     6
 78
     2
 67
     7
 79
     5
170
     0
171
     0
290
     0
174
     0
 93
       13
 44
0.0
173
     0
291
     1
 45
0.0
1001
ACAD
1000
AcDbSavedByObjectVersion
1070
     0
  0
VISUALSTYLE
  5
2E
102
{ACAD_REACTORS
330
2A
102
}
330
2A
100
AcDbVisualStyle
  2
GouraudWithEdges
 70
     3
 71
     2
 72
     2
 73
     1
 90
        2
 40
-0.6
 41
30.0
 62
     5
 63
     7
421
 16777215
 74
     1
 91
        4
 64
     7
 65
   257
 75
     1
175
     1
 42
1.0
 92
        0
 66
   257
 43
1.0
 76
     1
 77
     6
 78
     2
 67
     7
 79
     5
170
     0
171
     0
290
     0
174
     0
 93
       13
 44
0.0
173
     0
291
     1
 45
0.0
1001
ACAD
1000
AcDbSavedByObjectVersion
1070
     0
  0
VISUALSTYLE
  5
38
102
{ACAD_REACTORS
330
2A
102
}
330
2A
100
AcDbVisualStyle
  2
Linepattern
 70
    14
 71
     2
 72
     2
 73
     0
 90
        0
 40
-0.6
 41
-30.0
 62
     5
 63
     7
421
 16777215
 74
     1
 91
        4
 64
     7
 65
   257
 75
     7
175
     7
 42
1.0
 92
        8
 66
     7
 43
1.0
 76
     1
 77
     6
 78
     2
 67
     7
 79
     5
170
     0
171
     0
290
     0
174
     0
 93
        1
 44
0.0
173
     0
291
     1
 45
0.0
1001
ACAD
1000
AcDbSavedByObjectVersion
1070
     0
  0
VISUALSTYLE
  5
33
102
{ACAD_REACTORS
330
2A
102
}
330
2A
100
AcDbVisualStyle
  2
Realistic
 70
     8
 71
     2
 72
     2
 73
     0
 90
        0
 40
-0.6
 41
-30.0
 62
     5
 63
     7
421
 16777215
 74
     1
 91
        0
 64
     7
 65
   257
 75
     1
175
     1
 42
1.0
 92
        8
 66
     8
424
  7895160
 43
1.0
 76
     1
 77
     6
 78
     2
 67
     7
 79
     5
170
     0
171
     0
290
     0
174
     0
 93
       13
 44
0.0
173
     0
291
     0
 45
0.0
1001
ACAD
1000
AcDbSavedByObjectVersion
1070
     0
  0
VISUALSTYLE
  5
37
102
{ACAD_REACTORS
330
2A
102
}
330
2A
100
AcDbVisualStyle
  2
Thicken
 70
    13
 71
     2
 72
     2
 73
     0
 90
        0
 40
-0.6
 41
-30.0
 62
     5
 63
     7
421
 16777215
 74
     1
 91
        4
 64
     7
 65
   257
 75
     1
175
     1
 42
1.0
 92
       12
 66
     7
 43
1.0
 76
     1
 77
     6
 78
     2
 67
     7
 79
     5
170
     0
171
     0
290
     0
174
     0
 93
        1
 44
0.0
173
     0
291
     1
 45
0.0
1001
ACAD
1000
AcDbSavedByObjectVersion
1070
     0
  0
XRECORD
  5
2A9
102
{ACAD_REACTORS
330
2A8
102
}
330
2A8
100
AcDbXrecord
280
     1
1000
Ten plik DWG został utworzony w programie ArchiCAD(TM)®
  0
SPATIAL_FILTER
  5
2A1
102
{ACAD_REACTORS
330
2A0
102
}
330
2A0
100
AcDbFilter
100
AcDbSpatialFilter
 70
     4
 10
0.0
 20
0.0
 10
210.0
 20
0.0
 10
210.0
 20
297.0
 10
0.0
 20
297.0
210
0.0
220
0.0
230
1.0
 11
0.0
 21
0.0
 31
0.0
 71
     1
 72
     0
 73
     0
 40
1.0
 40
0.0
 40
0.0
 40
0.0
 40
0.0
 40
1.0
 40
0.0
 40
0.0
 40
0.0
 40
0.0
 40
1.0
 40
0.0
 40
1.0
 40
0.0
 40
0.0
 40
0.0
 40
0.0
 40
1.0
 40
0.0
 40
0.0
 40
0.0
 40
0.0
 40
1.0
 40
0.0
  0
ENDSEC
  0
EOF
