  0
SECTION
  2
HEADER
  9
$ACADVER
  1
AC1015
  9
$ACADMAINTVER
 70
     6
  9
$DWGCODEPAGE
  3
ANSI_1250
  9
$INSBASE
 10
0.0
 20
0.0
 30
0.0
  9
$EXTMIN
 10
1.000000000000000E+20
 20
1.000000000000000E+20
 30
1.000000000000000E+20
  9
$EXTMAX
 10
-1.000000000000000E+20
 20
-1.000000000000000E+20
 30
-1.000000000000000E+20
  9
$LIMMIN
 10
0.0
 20
0.0
  9
$LIMMAX
 10
12.0
 20
9.0
  9
$ORTHOMODE
 70
     0
  9
$REGENMODE
 70
     1
  9
$FILLMODE
 70
     1
  9
$QTEXTMODE
 70
     0
  9
$MIRRTEXT
 70
     1
  9
$LTSCALE
 40
1.0
  9
$ATTMODE
 70
     1
  9
$TEXTSIZE
 40
0.2
  9
$TRACEWID
 40
0.05
  9
$TEXTSTYLE
  7
Standard
  9
$CLAYER
  8
0
  9
$CELTYPE
  6
ByLayer
  9
$CECOLOR
 62
   256
  9
$CELTSCALE
 40
1.0
  9
$DISPSILH
 70
     0
  9
$DIMSCALE
 40
1.0
  9
$DIMASZ
 40
0.18
  9
$DIMEXO
 40
0.0625
  9
$DIMDLI
 40
0.38
  9
$DIMRND
 40
0.0
  9
$DIMDLE
 40
0.0
  9
$DIMEXE
 40
0.18
  9
$DIMTP
 40
0.0
  9
$DIMTM
 40
0.0
  9
$DIMTXT
 40
0.18
  9
$DIMCEN
 40
0.09
  9
$DIMTSZ
 40
0.0
  9
$DIMTOL
 70
     0
  9
$DIMLIM
 70
     0
  9
$DIMTIH
 70
     1
  9
$DIMTOH
 70
     1
  9
$DIMSE1
 70
     0
  9
$DIMSE2
 70
     0
  9
$DIMTAD
 70
     0
  9
$DIMZIN
 70
     0
  9
$DIMBLK
  1

  9
$DIMASO
 70
     1
  9
$DIMSHO
 70
     1
  9
$DIMPOST
  1

  9
$DIMAPOST
  1

  9
$DIMALT
 70
     0
  9
$DIMALTD
 70
     2
  9
$DIMALTF
 40
25.4
  9
$DIMLFAC
 40
1.0
  9
$DIMTOFL
 70
     0
  9
$DIMTVP
 40
0.0
  9
$DIMTIX
 70
     0
  9
$DIMSOXD
 70
     0
  9
$DIMSAH
 70
     0
  9
$DIMBLK1
  1

  9
$DIMBLK2
  1

  9
$DIMSTYLE
  2
Standard
  9
$DIMCLRD
 70
     0
  9
$DIMCLRE
 70
     0
  9
$DIMCLRT
 70
     0
  9
$DIMTFAC
 40
1.0
  9
$DIMGAP
 40
0.09
  9
$DIMJUST
 70
     0
  9
$DIMSD1
 70
     0
  9
$DIMSD2
 70
     0
  9
$DIMTOLJ
 70
     1
  9
$DIMTZIN
 70
     0
  9
$DIMALTZ
 70
     0
  9
$DIMALTTZ
 70
     0
  9
$DIMUPT
 70
     0
  9
$DIMDEC
 70
     4
  9
$DIMTDEC
 70
     4
  9
$DIMALTU
 70
     2
  9
$DIMALTTD
 70
     2
  9
$DIMTXSTY
  7
Standard
  9
$DIMAUNIT
 70
     0
  9
$DIMADEC
 70
     0
  9
$DIMALTRND
 40
0.0
  9
$DIMAZIN
 70
     0
  9
$DIMDSEP
 70
    46
  9
$DIMATFIT
 70
     3
  9
$DIMFRAC
 70
     0
  9
$DIMLDRBLK
  1

  9
$DIMLUNIT
 70
     2
  9
$DIMLWD
 70
    -2
  9
$DIMLWE
 70
    -2
  9
$DIMTMOVE
 70
     0
  9
$LUNITS
 70
     2
  9
$LUPREC
 70
     4
  9
$SKETCHINC
 40
0.1
  9
$FILLETRAD
 40
0.5
  9
$AUNITS
 70
     0
  9
$AUPREC
 70
     0
  9
$MENU
  1
.
  9
$ELEVATION
 40
0.0
  9
$PELEVATION
 40
0.0
  9
$THICKNESS
 40
0.0
  9
$LIMCHECK
 70
     0
  9
$CHAMFERA
 40
0.5
  9
$CHAMFERB
 40
0.5
  9
$CHAMFERC
 40
1.0
  9
$CHAMFERD
 40
0.0
  9
$SKPOLY
 70
     0
  9
$TDCREATE
 40
2458996.587990405
  9
$TDUCREATE
 40
2458996.504657072
  9
$TDUPDATE
 40
2458996.587990417
  9
$TDUUPDATE
 40
2458996.504657083
  9
$TDINDWG
 40
0.0000000116
  9
$TDUSRTIMER
 40
0.0000000116
  9
$USRTIMER
 70
     1
  9
$ANGBASE
 50
0.0
  9
$ANGDIR
 70
     0
  9
$PDMODE
 70
     0
  9
$PDSIZE
 40
0.0
  9
$PLINEWID
 40
0.0
  9
$SPLFRAME
 70
     0
  9
$SPLINETYPE
 70
     6
  9
$SPLINESEGS
 70
     8
  9
$HANDSEED
  5
216
  9
$SURFTAB1
 70
     6
  9
$SURFTAB2
 70
     6
  9
$SURFTYPE
 70
     6
  9
$SURFU
 70
     6
  9
$SURFV
 70
     6
  9
$UCSBASE
  2

  9
$UCSNAME
  2

  9
$UCSORG
 10
0.0
 20
0.0
 30
0.0
  9
$UCSXDIR
 10
1.0
 20
0.0
 30
0.0
  9
$UCSYDIR
 10
0.0
 20
1.0
 30
0.0
  9
$UCSORTHOREF
  2

  9
$UCSORTHOVIEW
 70
     0
  9
$UCSORGTOP
 10
0.0
 20
0.0
 30
0.0
  9
$UCSORGBOTTOM
 10
0.0
 20
0.0
 30
0.0
  9
$UCSORGLEFT
 10
0.0
 20
0.0
 30
0.0
  9
$UCSORGRIGHT
 10
0.0
 20
0.0
 30
0.0
  9
$UCSORGFRONT
 10
0.0
 20
0.0
 30
0.0
  9
$UCSORGBACK
 10
0.0
 20
0.0
 30
0.0
  9
$PUCSBASE
  2

  9
$PUCSNAME
  2

  9
$PUCSORG
 10
0.0
 20
0.0
 30
0.0
  9
$PUCSXDIR
 10
1.0
 20
0.0
 30
0.0
  9
$PUCSYDIR
 10
0.0
 20
1.0
 30
0.0
  9
$PUCSORTHOREF
  2

  9
$PUCSORTHOVIEW
 70
     0
  9
$PUCSORGTOP
 10
0.0
 20
0.0
 30
0.0
  9
$PUCSORGBOTTOM
 10
0.0
 20
0.0
 30
0.0
  9
$PUCSORGLEFT
 10
0.0
 20
0.0
 30
0.0
  9
$PUCSORGRIGHT
 10
0.0
 20
0.0
 30
0.0
  9
$PUCSORGFRONT
 10
0.0
 20
0.0
 30
0.0
  9
$PUCSORGBACK
 10
0.0
 20
0.0
 30
0.0
  9
$USERI1
 70
     0
  9
$USERI2
 70
     0
  9
$USERI3
 70
     0
  9
$USERI4
 70
     0
  9
$USERI5
 70
     0
  9
$USERR1
 40
0.0
  9
$USERR2
 40
0.0
  9
$USERR3
 40
0.0
  9
$USERR4
 40
0.0
  9
$USERR5
 40
0.0
  9
$WORLDVIEW
 70
     1
  9
$SHADEDGE
 70
     3
  9
$SHADEDIF
 70
    70
  9
$TILEMODE
 70
     1
  9
$MAXACTVP
 70
    64
  9
$PINSBASE
 10
0.0
 20
0.0
 30
0.0
  9
$PLIMCHECK
 70
     0
  9
$PEXTMIN
 10
1.000000000000000E+20
 20
1.000000000000000E+20
 30
1.000000000000000E+20
  9
$PEXTMAX
 10
-1.000000000000000E+20
 20
-1.000000000000000E+20
 30
-1.000000000000000E+20
  9
$PLIMMIN
 10
0.0
 20
0.0
  9
$PLIMMAX
 10
12.0
 20
9.0
  9
$UNITMODE
 70
     0
  9
$VISRETAIN
 70
     1
  9
$PLINEGEN
 70
     0
  9
$PSLTSCALE
 70
     1
  9
$TREEDEPTH
 70
  3020
  9
$CMLSTYLE
  2
Standard
  9
$CMLJUST
 70
     0
  9
$CMLSCALE
 40
1.0
  9
$PROXYGRAPHICS
 70
     1
  9
$MEASUREMENT
 70
     0
  9
$CELWEIGHT
370
    -1
  9
$ENDCAPS
280
     0
  9
$JOINSTYLE
280
     0
  9
$LWDISPLAY
290
     1
  9
$INSUNITS
 70
     0
  9
$HYPERLINKBASE
  1

  9
$STYLESHEET
  1

  9
$XEDIT
290
     1
  9
$CEPSNTYPE
380
     0
  9
$PSTYLEMODE
290
     1
  9
$FINGERPRINTGUID
  2
{DEC9A25C-3136-4828-97C9-AF3C3C15A0AE}
  9
$VERSIONGUID
  2
{FAEB1C32-E019-11D5-929B-00C0DF256EC4}
  9
$EXTNAMES
290
     1
  9
$PSVPSCALE
 40
0.0
  9
$OLESTARTUP
290
     0
  0
ENDSEC
  0
SECTION
  2
CLASSES
  0
CLASS
  1
ACDBDICTIONARYWDFLT
  2
AcDbDictionaryWithDefault
  3
ObjectDBX Classes
 90
        0
280
     0
281
     0
  0
CLASS
  1
VISUALSTYLE
  2
AcDbVisualStyle
  3
ObjectDBX Classes
 90
     4095
280
     0
281
     0
  0
CLASS
  1
SCALE
  2
AcDbScale
  3
ObjectDBX Classes
 90
     1153
280
     0
281
     0
  0
CLASS
  1
WIPEOUT
  2
AcDbWipeout
  3
WipeOut|AutoCAD Express Tool|expresstools@autodesk.com
 90
      127
280
     0
281
     1
  0
CLASS
  1
DICTIONARYVAR
  2
AcDbDictionaryVar
  3
ObjectDBX Classes
 90
        0
280
     0
281
     0
  0
CLASS
  1
ACDBPLACEHOLDER
  2
AcDbPlaceHolder
  3
ObjectDBX Classes
 90
        0
280
     0
281
     0
  0
CLASS
  1
LAYOUT
  2
AcDbLayout
  3
ObjectDBX Classes
 90
        0
280
     0
281
     0
  0
ENDSEC
  0
SECTION
  2
TABLES
  0
TABLE
  2
VPORT
  5
8
330
0
100
AcDbSymbolTable
 70
     1
  0
VPORT
  5
29
330
8
100
AcDbSymbolTableRecord
100
AcDbViewportTableRecord
  2
*Active
 70
     0
 10
0.0
 20
0.0
 11
1.0
 21
1.0
 12
0.0
 22
0.0
 13
0.0
 23
0.0
 14
0.5
 24
0.5
 15
0.5
 25
0.5
 16
0.0
 26
0.0
 36
1.0
 17
-1019.198635986731
 27
1751.527679321705
 37
0.0
 40
3121.792625092818
 41
0.7716190893737501
 42
50.0
 43
0.0
 44
0.0
 50
0.0
 51
0.0
 71
     0
 72
   100
 73
     1
 74
     3
 75
     0
 76
     0
 77
     0
 78
     0
281
     0
 65
     1
110
0.0
120
0.0
130
0.0
111
1.0
121
0.0
131
0.0
112
0.0
122
1.0
132
0.0
 79
     0
146
0.0
  0
ENDTAB
  0
TABLE
  2
LTYPE
  5
5
330
0
100
AcDbSymbolTable
 70
     4
  0
LTYPE
  5
14
330
5
100
AcDbSymbolTableRecord
100
AcDbLinetypeTableRecord
  2
ByBlock
 70
     0
  3

 72
    65
 73
     0
 40
0.0
  0
LTYPE
  5
15
330
5
100
AcDbSymbolTableRecord
100
AcDbLinetypeTableRecord
  2
ByLayer
 70
     0
  3

 72
    65
 73
     0
 40
0.0
  0
LTYPE
  5
16
330
5
100
AcDbSymbolTableRecord
100
AcDbLinetypeTableRecord
  2
Continuous
 70
     0
  3
Solid line
 72
    65
 73
     0
 40
0.0
  0
LTYPE
  5
5E
330
5
100
AcDbSymbolTableRecord
100
AcDbLinetypeTableRecord
  2
Wipeout_Contour
 70
     0
  3
- - - - - 
 72
    65
 73
     2
 40
1000.0
 49
0.0
 74
     0
 49
-1000.0
 74
     0
  0
LTYPE
  5
182
330
5
100
AcDbSymbolTableRecord
100
AcDbLinetypeTableRecord
  2
Przerywana gęsta
 70
     0
  3
- - - - - 
 72
    65
 73
     2
 40
30.0
 49
20.0
 74
     0
 49
-10.0
 74
     0
  0
LTYPE
  5
1EE
330
5
100
AcDbSymbolTableRecord
100
AcDbLinetypeTableRecord
  2
Kropki i Kreski
 70
     0
  3
- - - - - 
 72
    65
 73
     4
 40
67.02777624130249
 49
35.27777671813965
 74
     0
 49
-17.63888835906982
 74
     0
 49
0.0
 74
     0
 49
-14.11111116409302
 74
     0
  0
ENDTAB
  0
TABLE
  2
LAYER
  5
2
330
0
100
AcDbSymbolTable
 70
     3
  0
LAYER
  5
10
330
2
100
AcDbSymbolTableRecord
100
AcDbLayerTableRecord
  2
0
 70
     0
 62
     7
  6
Continuous
370
    -3
390
F
  0
LAYER
  5
5F
330
2
100
AcDbSymbolTableRecord
100
AcDbLayerTableRecord
  2
@__WIDOCZNE
 70
     0
 62
     7
  6
Continuous
370
    -3
390
F
  0
LAYER
  5
9A
330
2
100
AcDbSymbolTableRecord
100
AcDbLayerTableRecord
  2
2D - Ogólne
 70
     0
 62
     7
  6
Continuous
370
    -3
390
F
  0
ENDTAB
  0
TABLE
  2
STYLE
  5
3
330
0
100
AcDbSymbolTable
 70
     4
  0
STYLE
  5
11
330
3
100
AcDbSymbolTableRecord
100
AcDbTextStyleTableRecord
  2
Standard
 70
     0
 40
0.0
 41
1.0
 50
0.0
 71
     0
 42
0.2
  3
txt
  4
BIGFONT.SHX
  0
STYLE
  5
160
330
3
100
AcDbSymbolTableRecord
100
AcDbTextStyleTableRecord
  2
GENERATED_STYLE_1
 70
     0
 40
0.0
 41
1.0
 50
0.0
 71
     0
 42
0.2
  3

  4

1001
ACAD
1000
Arial
1071
    60966
  0
STYLE
  5
1AD
330
3
100
AcDbSymbolTableRecord
100
AcDbTextStyleTableRecord
  2
GENERATED_STYLE_2
 70
     0
 40
0.0
 41
1.0
 50
0.0
 71
     0
 42
0.2
  3

  4

1001
ACAD
1000
Arial
1071
 33615398
  0
STYLE
  5
1B6
330
3
100
AcDbSymbolTableRecord
100
AcDbTextStyleTableRecord
  2
GENERATED_STYLE_3
 70
     0
 40
0.0
 41
1.0
 50
0.0
 71
     0
 42
0.2
  3

  4

1001
ACAD
1000
Arial
1071
    41254
  0
ENDTAB
  0
TABLE
  2
VIEW
  5
6
330
0
100
AcDbSymbolTable
 70
     0
  0
ENDTAB
  0
TABLE
  2
UCS
  5
7
330
0
100
AcDbSymbolTable
 70
     0
  0
ENDTAB
  0
TABLE
  2
APPID
  5
9
330
0
100
AcDbSymbolTable
 70
     1
  0
APPID
  5
12
330
9
100
AcDbSymbolTableRecord
100
AcDbRegAppTableRecord
  2
ACAD
 70
     0
  0
ENDTAB
  0
TABLE
  2
DIMSTYLE
  5
A
330
0
100
AcDbSymbolTable
 70
     1
100
AcDbDimStyleTable
  0
DIMSTYLE
105
27
330
A
100
AcDbSymbolTableRecord
100
AcDbDimStyleTableRecord
  2
Standard
 70
     0
340
11
  0
ENDTAB
  0
TABLE
  2
BLOCK_RECORD
  5
1
330
0
100
AcDbSymbolTable
 70
    10
  0
BLOCK_RECORD
  5
1F
330
1
100
AcDbSymbolTableRecord
100
AcDbBlockTableRecord
  2
*Model_Space
340
22
  0
BLOCK_RECORD
  5
1B
330
1
100
AcDbSymbolTableRecord
100
AcDbBlockTableRecord
  2
*Paper_Space
340
1E
  0
BLOCK_RECORD
  5
23
330
1
100
AcDbSymbolTableRecord
100
AcDbBlockTableRecord
  2
*Paper_Space0
340
26
  0
BLOCK_RECORD
  5
96
330
1
100
AcDbSymbolTableRecord
100
AcDbBlockTableRecord
  2
*X1
340
0
102
{BLKREFS
331
9F
102
}
  0
BLOCK_RECORD
  5
A4
330
1
100
AcDbSymbolTableRecord
100
AcDbBlockTableRecord
  2
*X2
340
0
102
{BLKREFS
331
AD
102
}
  0
BLOCK_RECORD
  5
B4
330
1
100
AcDbSymbolTableRecord
100
AcDbBlockTableRecord
  2
Izolacja cieplna 12_49
340
0
102
{BLKREFS
331
F8
102
}
  0
BLOCK_RECORD
  5
F9
330
1
100
AcDbSymbolTableRecord
100
AcDbBlockTableRecord
  2
Izolacja cieplna 12_47
340
0
102
{BLKREFS
331
12D
102
}
  0
BLOCK_RECORD
  5
12E
330
1
100
AcDbSymbolTableRecord
100
AcDbBlockTableRecord
  2
Izolacja cieplna 12_46
340
0
102
{BLKREFS
331
15A
102
}
  0
BLOCK_RECORD
  5
15B
330
1
100
AcDbSymbolTableRecord
100
AcDbBlockTableRecord
  2
Symbol nachylenia 12_89
340
0
102
{BLKREFS
331
162
102
}
  0
BLOCK_RECORD
  5
165
330
1
100
AcDbSymbolTableRecord
100
AcDbBlockTableRecord
  2
Izolacja cieplna 12_17
340
0
102
{BLKREFS
331
181
102
}
  0
BLOCK_RECORD
  5
1C3
330
1
100
AcDbSymbolTableRecord
100
AcDbBlockTableRecord
  2
*X8
340
0
102
{BLKREFS
331
1E2
102
}
  0
BLOCK_RECORD
  5
20D
330
1
100
AcDbSymbolTableRecord
100
AcDbBlockTableRecord
  2
Bez nazwy_STORY_MARKER
340
0
  0
ENDTAB
  0
ENDSEC
  0
SECTION
  2
BLOCKS
  0
BLOCK
  5
20
330
1F
100
AcDbEntity
  8
0
100
AcDbBlockBegin
  2
*Model_Space
 70
     0
 10
0.0
 20
0.0
 30
0.0
  3
*Model_Space
  1

  0
ENDBLK
  5
21
330
1F
100
AcDbEntity
  8
0
100
AcDbBlockEnd
  0
BLOCK
  5
1C
330
1B
100
AcDbEntity
 67
     1
  8
0
100
AcDbBlockBegin
  2
*Paper_Space
 70
     0
 10
0.0
 20
0.0
 30
0.0
  3
*Paper_Space
  1

  0
ENDBLK
  5
1D
330
1B
100
AcDbEntity
 67
     1
  8
0
100
AcDbBlockEnd
  0
BLOCK
  5
24
330
23
100
AcDbEntity
  8
0
100
AcDbBlockBegin
  2
*Paper_Space0
 70
     0
 10
0.0
 20
0.0
 30
0.0
  3
*Paper_Space0
  1

  0
ENDBLK
  5
25
330
23
100
AcDbEntity
  8
0
100
AcDbBlockEnd
  0
BLOCK
  5
97
330
96
100
AcDbEntity
  8
0
100
AcDbBlockBegin
  2
*X1
 70
     1
 10
0.0
 20
0.0
 30
0.0
  3
*X1
  1

  0
HATCH
  5
99
330
96
100
AcDbEntity
  8
2D - Ogólne
  6
Continuous
370
    13
100
AcDbHatch
 10
0.0
 20
0.0
 30
0.0
210
0.0
220
0.0
230
1.0
  2
SOLID
 70
     1
 71
     0
 91
        1
 92
        2
 72
     0
 73
     1
 93
        4
 10
-1103.995725825629
 20
1900.000000134388
 10
-1114.554005738558
 20
1900.000000134388
 10
-1114.554005738558
 20
1875.000001083838
 10
-1103.995725825629
 20
1875.000001083838
 97
        0
 75
     0
 76
     1
 98
        0
  0
HATCH
  5
9B
330
96
100
AcDbEntity
  8
2D - Ogólne
  6
Continuous
370
    13
100
AcDbHatch
 10
0.0
 20
0.0
 30
0.0
210
0.0
220
0.0
230
1.0
  2
SOLID
 70
     1
 71
     0
 91
        1
 92
        2
 72
     0
 73
     1
 93
        4
 10
-1114.554005511207
 20
1975.000000607878
 10
-1103.99572540912
 20
1975.000000607878
 10
-1103.99572540912
 20
1979.049650211491
 10
-1114.554005511207
 20
1979.049650211491
 97
        0
 75
     0
 76
     1
 98
        0
  0
HATCH
  5
9C
330
96
100
AcDbEntity
  8
2D - Ogólne
  6
Continuous
370
    13
100
AcDbHatch
 10
0.0
 20
0.0
 30
0.0
210
0.0
220
0.0
230
1.0
  2
SOLID
 70
     1
 71
     0
 91
        1
 92
        2
 72
     0
 73
     1
 93
        4
 10
-1103.995727520911
 20
1824.999998939763
 10
-1114.554005403725
 20
1824.999998939763
 10
-1114.554005403725
 20
1818.884462266793
 10
-1103.995727520911
 20
1818.884462266793
 97
        0
 75
     0
 76
     1
 98
        0
  0
HATCH
  5
9D
330
96
100
AcDbEntity
  8
2D - Ogólne
  6
Continuous
370
    13
100
AcDbHatch
 10
0.0
 20
0.0
 30
0.0
210
0.0
220
0.0
230
1.0
  2
SOLID
 70
     1
 71
     0
 91
        1
 92
        2
 72
     0
 73
     1
 93
        4
 10
-1103.995725825629
 20
1924.999999184938
 10
-1114.554005738557
 20
1924.999999184938
 10
-1114.554005738557
 20
1900.000000134388
 10
-1103.995725825629
 20
1900.000000134388
 97
        0
 75
     0
 76
     1
 98
        0
  0
ENDBLK
  5
98
330
96
100
AcDbEntity
  8
0
100
AcDbBlockEnd
  0
BLOCK
  5
A5
330
A4
100
AcDbEntity
  8
0
100
AcDbBlockBegin
  2
*X2
 70
     1
 10
0.0
 20
0.0
 30
0.0
  3
*X2
  1

  0
HATCH
  5
A7
330
A4
100
AcDbEntity
  8
2D - Ogólne
  6
Continuous
370
    13
100
AcDbHatch
 10
0.0
 20
0.0
 30
0.0
210
0.0
220
0.0
230
1.0
  2
SOLID
 70
     1
 71
     0
 91
        1
 92
        2
 72
     0
 73
     1
 93
        4
 10
-956.708721116191
 20
1900.000001061959
 10
-967.2669987180204
 20
1900.000001061959
 10
-967.2669987180204
 20
1874.999998748571
 10
-956.708721116191
 20
1874.999998748571
 97
        0
 75
     0
 76
     1
 98
        0
  0
HATCH
  5
A8
330
A4
100
AcDbEntity
  8
2D - Ogólne
  6
Continuous
370
    13
100
AcDbHatch
 10
0.0
 20
0.0
 30
0.0
210
0.0
220
0.0
230
1.0
  2
SOLID
 70
     1
 71
     0
 91
        1
 92
        2
 72
     0
 73
     1
 93
        4
 10
-956.708721116191
 20
1999.99999843772
 10
-967.2669987180204
 20
1999.99999843772
 10
-967.2669987180204
 20
1975.000000083595
 10
-956.708721116191
 20
1975.000000083595
 97
        0
 75
     0
 76
     1
 98
        0
  0
HATCH
  5
A9
330
A4
100
AcDbEntity
  8
2D - Ogólne
  6
Continuous
370
    13
100
AcDbHatch
 10
0.0
 20
0.0
 30
0.0
210
0.0
220
0.0
230
1.0
  2
SOLID
 70
     1
 71
     0
 91
        1
 92
        2
 72
     0
 73
     1
 93
        4
 10
-956.7087202989114
 20
1824.999998445369
 10
-967.267001699262
 20
1824.999998445369
 10
-967.267001699262
 20
1805.386418418923
 10
-956.7087202989114
 20
1805.386418418923
 97
        0
 75
     0
 76
     1
 98
        0
  0
HATCH
  5
AA
330
A4
100
AcDbEntity
  8
2D - Ogólne
  6
Continuous
370
    13
100
AcDbHatch
 10
0.0
 20
0.0
 30
0.0
210
0.0
220
0.0
230
1.0
  2
SOLID
 70
     1
 71
     0
 91
        1
 92
        2
 72
     0
 73
     1
 93
        4
 10
-956.708721116191
 20
1924.999999416083
 10
-967.2669987180204
 20
1924.999999416083
 10
-967.2669987180204
 20
1900.000001061959
 10
-956.708721116191
 20
1900.000001061959
 97
        0
 75
     0
 76
     1
 98
        0
  0
HATCH
  5
AB
330
A4
100
AcDbEntity
  8
2D - Ogólne
  6
Continuous
370
    13
100
AcDbHatch
 10
0.0
 20
0.0
 30
0.0
210
0.0
220
0.0
230
1.0
  2
SOLID
 70
     1
 71
     0
 91
        1
 92
        2
 72
     0
 73
     1
 93
        4
 10
-956.708721116191
 20
2025.000000751107
 10
-967.2669987180204
 20
2025.000000751107
 10
-967.2669987180204
 20
1999.99999843772
 10
-956.708721116191
 20
1999.99999843772
 97
        0
 75
     0
 76
     1
 98
        0
  0
ENDBLK
  5
A6
330
A4
100
AcDbEntity
  8
0
100
AcDbBlockEnd
  0
BLOCK
  5
B5
330
B4
100
AcDbEntity
  8
0
100
AcDbBlockBegin
  2
Izolacja cieplna 12_49
 70
     0
 10
-715.2760627283834
 20
1796.942789906461
 30
0.0
  3
Izolacja cieplna 12_49
  1

  0
LINE
  5
B7
330
B4
100
AcDbEntity
  8
@__WIDOCZNE
  6
Continuous
370
    13
100
AcDbLine
 10
-701.207998642927
 20
1815.372431075883
 30
0.0
 11
-690.4102311908924
 21
1840.359905565468
 31
0.0
  0
LINE
  5
B8
330
B4
100
AcDbEntity
  8
@__WIDOCZNE
  6
Continuous
370
    13
100
AcDbLine
 10
-714.1859622287349
 20
1840.359905565468
 30
0.0
 11
-703.3882045077889
 21
1815.372431075883
 31
0.0
  0
LINE
  5
B9
330
B4
100
AcDbEntity
  8
@__WIDOCZNE
  6
Continuous
370
    13
100
AcDbLine
 10
-675.2515009469124
 20
1815.372431075883
 30
0.0
 11
-664.4537334948778
 21
1840.359905565468
 31
0.0
  0
LINE
  5
BA
330
B4
100
AcDbEntity
  8
@__WIDOCZNE
  6
Continuous
370
    13
100
AcDbLine
 10
-688.2294645327203
 20
1840.359905565468
 30
0.0
 11
-677.4317068117743
 21
1815.372431075883
 31
0.0
  0
LINE
  5
BB
330
B4
100
AcDbEntity
  8
@__WIDOCZNE
  6
Continuous
370
    13
100
AcDbLine
 10
-649.2950032508979
 20
1815.372431075883
 30
0.0
 11
-638.4972357988632
 21
1840.359905565468
 31
0.0
  0
LINE
  5
BC
330
B4
100
AcDbEntity
  8
@__WIDOCZNE
  6
Continuous
370
    13
100
AcDbLine
 10
-662.2729668367057
 20
1840.359905565468
 30
0.0
 11
-651.4752091157599
 21
1815.372431075883
 31
0.0
  0
LINE
  5
BD
330
B4
100
AcDbEntity
  8
@__WIDOCZNE
  6
Continuous
370
    13
100
AcDbLine
 10
-623.3385055548833
 20
1815.372431075883
 30
0.0
 11
-612.5407381028486
 21
1840.359905565468
 31
0.0
  0
LINE
  5
BE
330
B4
100
AcDbEntity
  8
@__WIDOCZNE
  6
Continuous
370
    13
100
AcDbLine
 10
-636.3164691406912
 20
1840.359905565468
 30
0.0
 11
-625.5187114197453
 21
1815.372431075883
 31
0.0
  0
LINE
  5
BF
330
B4
100
AcDbEntity
  8
@__WIDOCZNE
  6
Continuous
370
    13
100
AcDbLine
 10
-597.3820078588687
 20
1815.372431075883
 30
0.0
 11
-586.584240406834
 21
1840.359905565468
 31
0.0
  0
LINE
  5
C0
330
B4
100
AcDbEntity
  8
@__WIDOCZNE
  6
Continuous
370
    13
100
AcDbLine
 10
-610.3599714446766
 20
1840.359905565468
 30
0.0
 11
-599.5622137237307
 21
1815.372431075883
 31
0.0
  0
LINE
  5
C1
330
B4
100
AcDbEntity
  8
@__WIDOCZNE
  6
Continuous
370
    13
100
AcDbLine
 10
-571.4255101628543
 20
1815.372431075883
 30
0.0
 11
-560.6277427108196
 21
1840.359905565468
 31
0.0
  0
LINE
  5
C2
330
B4
100
AcDbEntity
  8
@__WIDOCZNE
  6
Continuous
370
    13
100
AcDbLine
 10
-584.4034737486621
 20
1840.359905565468
 30
0.0
 11
-573.6057160277162
 21
1815.372431075883
 31
0.0
  0
LINE
  5
C3
330
B4
100
AcDbEntity
  8
@__WIDOCZNE
  6
Continuous
370
    13
100
AcDbLine
 10
-545.4690124668397
 20
1815.372431075883
 30
0.0
 11
-534.671245014805
 21
1840.359905565468
 31
0.0
  0
LINE
  5
C4
330
B4
100
AcDbEntity
  8
@__WIDOCZNE
  6
Continuous
370
    13
100
AcDbLine
 10
-558.4469760526475
 20
1840.359905565468
 30
0.0
 11
-547.6492183317016
 21
1815.372431075883
 31
0.0
  0
LINE
  5
C5
330
B4
100
AcDbEntity
  8
@__WIDOCZNE
  6
Continuous
370
    13
100
AcDbLine
 10
-519.5125147708252
 20
1815.372431075883
 30
0.0
 11
-508.7147473187905
 21
1840.359905565468
 31
0.0
  0
LINE
  5
C6
330
B4
100
AcDbEntity
  8
@__WIDOCZNE
  6
Continuous
370
    13
100
AcDbLine
 10
-532.4904783566329
 20
1840.359905565468
 30
0.0
 11
-521.692720635687
 21
1815.372431075883
 31
0.0
  0
LINE
  5
C7
330
B4
100
AcDbEntity
  8
@__WIDOCZNE
  6
Continuous
370
    13
100
AcDbLine
 10
-493.5560170748105
 20
1815.372431075883
 30
0.0
 11
-482.7582496227759
 21
1840.359905565468
 31
0.0
  0
LINE
  5
C8
330
B4
100
AcDbEntity
  8
@__WIDOCZNE
  6
Continuous
370
    13
100
AcDbLine
 10
-506.5339806606184
 20
1840.359905565468
 30
0.0
 11
-495.7362229396725
 21
1815.372431075883
 31
0.0
  0
LINE
  5
C9
330
B4
100
AcDbEntity
  8
@__WIDOCZNE
  6
Continuous
370
    13
100
AcDbLine
 10
-467.5995193787961
 20
1815.372431075883
 30
0.0
 11
-456.8017519267614
 21
1840.359905565468
 31
0.0
  0
LINE
  5
CA
330
B4
100
AcDbEntity
  8
@__WIDOCZNE
  6
Continuous
370
    13
100
AcDbLine
 10
-480.5774829646039
 20
1840.359905565468
 30
0.0
 11
-469.7797252436579
 21
1815.372431075883
 31
0.0
  0
LINE
  5
CB
330
B4
100
AcDbEntity
  8
@__WIDOCZNE
  6
Continuous
370
    13
100
AcDbLine
 10
-441.6430216827815
 20
1815.372431075883
 30
0.0
 11
-430.8452542307469
 21
1840.359905565468
 31
0.0
  0
LINE
  5
CC
330
B4
100
AcDbEntity
  8
@__WIDOCZNE
  6
Continuous
370
    13
100
AcDbLine
 10
-454.6209852685893
 20
1840.359905565468
 30
0.0
 11
-443.8232275476434
 21
1815.372431075883
 31
0.0
  0
LINE
  5
CD
330
B4
100
AcDbEntity
  8
@__WIDOCZNE
  6
Continuous
370
    13
100
AcDbLine
 10
-415.686523986767
 20
1815.372431075883
 30
0.0
 11
-404.8887565347324
 21
1840.359905565468
 31
0.0
  0
LINE
  5
CE
330
B4
100
AcDbEntity
  8
@__WIDOCZNE
  6
Continuous
370
    13
100
AcDbLine
 10
-428.6644875725747
 20
1840.359905565468
 30
0.0
 11
-417.8667298516289
 21
1815.372431075883
 31
0.0
  0
LINE
  5
CF
330
B4
100
AcDbEntity
  8
@__WIDOCZNE
  6
Continuous
370
    13
100
AcDbLine
 10
-389.7300262907524
 20
1815.372431075883
 30
0.0
 11
-378.9322588387178
 21
1840.359905565468
 31
0.0
  0
LINE
  5
D0
330
B4
100
AcDbEntity
  8
@__WIDOCZNE
  6
Continuous
370
    13
100
AcDbLine
 10
-402.7079898765602
 20
1840.359905565468
 30
0.0
 11
-391.9102321556143
 21
1815.372431075883
 31
0.0
  0
LINE
  5
D1
330
B4
100
AcDbEntity
  8
@__WIDOCZNE
  6
Continuous
370
    13
100
AcDbLine
 10
-363.7735285947379
 20
1815.372431075883
 30
0.0
 11
-352.9757611427032
 21
1840.359905565468
 31
0.0
  0
LINE
  5
D2
330
B4
100
AcDbEntity
  8
@__WIDOCZNE
  6
Continuous
370
    13
100
AcDbLine
 10
-376.7514921805457
 20
1840.359905565468
 30
0.0
 11
-365.9537344595998
 21
1815.372431075883
 31
0.0
  0
LINE
  5
D3
330
B4
100
AcDbEntity
  8
@__WIDOCZNE
  6
Continuous
370
    13
100
AcDbLine
 10
-337.8170308987233
 20
1815.372431075883
 30
0.0
 11
-327.0192634466887
 21
1840.359905565468
 31
0.0
  0
LINE
  5
D4
330
B4
100
AcDbEntity
  8
@__WIDOCZNE
  6
Continuous
370
    13
100
AcDbLine
 10
-350.7949944845311
 20
1840.359905565468
 30
0.0
 11
-339.9972367635852
 21
1815.372431075883
 31
0.0
  0
LINE
  5
D5
330
B4
100
AcDbEntity
  8
@__WIDOCZNE
  6
Continuous
370
    13
100
AcDbLine
 10
-311.8605332027088
 20
1815.372431075883
 30
0.0
 11
-301.0627657506741
 21
1840.359905565468
 31
0.0
  0
LINE
  5
D6
330
B4
100
AcDbEntity
  8
@__WIDOCZNE
  6
Continuous
370
    13
100
AcDbLine
 10
-324.8384967885166
 20
1840.359905565468
 30
0.0
 11
-314.0407390675707
 21
1815.372431075883
 31
0.0
  0
ELLIPSE
  5
D7
330
B4
100
AcDbEntity
  8
@__WIDOCZNE
  6
Continuous
370
    13
100
AcDbEllipse
 10
-715.2760627283834
 20
1810.095832594504
 30
0.0
 11
8.053916568357308E-16
 21
13.15304392085091
 31
0.0
210
0.0
220
0.0
230
1.0
 40
0.9866892647118082
 41
3.141592653589793
 42
5.125182398198077
  0
ELLIPSE
  5
D8
330
B4
100
AcDbEntity
  8
@__WIDOCZNE
  6
Continuous
370
    13
100
AcDbEllipse
 10
-702.298089411446
 20
1845.63650897812
 30
0.0
 11
8.053916568357308E-16
 21
13.15304392085091
 31
0.0
210
0.0
220
0.0
230
1.0
 40
0.9866892647118082
 41
4.299595219146309
 42
8.266774944004343
  0
ELLIPSE
  5
D9
330
B4
100
AcDbEntity
  8
@__WIDOCZNE
  6
Continuous
370
    13
100
AcDbEllipse
 10
-689.3201306911662
 20
1810.095837525715
 30
0.0
 11
8.053916568357308E-16
 21
13.15304392085091
 31
0.0
210
0.0
220
0.0
230
1.0
 40
0.9866892647118082
 41
1.158003553206714
 42
5.12518274161604
  0
ELLIPSE
  5
DA
330
B4
100
AcDbEntity
  8
@__WIDOCZNE
  6
Continuous
370
    13
100
AcDbEllipse
 10
-676.3415917154315
 20
1845.63650897812
 30
0.0
 11
8.053916568357308E-16
 21
13.15304392085091
 31
0.0
210
0.0
220
0.0
230
1.0
 40
0.9866892647118082
 41
4.299595219146313
 42
8.266774944004347
  0
ELLIPSE
  5
DB
330
B4
100
AcDbEntity
  8
@__WIDOCZNE
  6
Continuous
370
    13
100
AcDbEllipse
 10
-663.3636329951516
 20
1810.095837525715
 30
0.0
 11
8.053916568357308E-16
 21
13.15304392085091
 31
0.0
210
0.0
220
0.0
230
1.0
 40
0.9866892647118082
 41
1.158003553206714
 42
5.12518274161604
  0
ELLIPSE
  5
DC
330
B4
100
AcDbEntity
  8
@__WIDOCZNE
  6
Continuous
370
    13
100
AcDbEllipse
 10
-650.3850940194169
 20
1845.63650897812
 30
0.0
 11
8.053916568357308E-16
 21
13.15304392085091
 31
0.0
210
0.0
220
0.0
230
1.0
 40
0.9866892647118082
 41
4.299595219146313
 42
8.266774944004347
  0
ELLIPSE
  5
DD
330
B4
100
AcDbEntity
  8
@__WIDOCZNE
  6
Continuous
370
    13
100
AcDbEllipse
 10
-637.4071352991372
 20
1810.095837525715
 30
0.0
 11
8.053916568357308E-16
 21
13.15304392085091
 31
0.0
210
0.0
220
0.0
230
1.0
 40
0.9866892647118082
 41
1.158003553206714
 42
5.12518274161604
  0
ELLIPSE
  5
DE
330
B4
100
AcDbEntity
  8
@__WIDOCZNE
  6
Continuous
370
    13
100
AcDbEllipse
 10
-624.4285963234023
 20
1845.63650897812
 30
0.0
 11
8.053916568357308E-16
 21
13.15304392085091
 31
0.0
210
0.0
220
0.0
230
1.0
 40
0.9866892647118082
 41
4.299595219146309
 42
8.266774944004343
  0
ELLIPSE
  5
DF
330
B4
100
AcDbEntity
  8
@__WIDOCZNE
  6
Continuous
370
    13
100
AcDbEllipse
 10
-611.4506376031226
 20
1810.095837525715
 30
0.0
 11
8.053916568357308E-16
 21
13.15304392085091
 31
0.0
210
0.0
220
0.0
230
1.0
 40
0.9866892647118082
 41
1.158003553206714
 42
5.12518274161604
  0
ELLIPSE
  5
E0
330
B4
100
AcDbEntity
  8
@__WIDOCZNE
  6
Continuous
370
    13
100
AcDbEllipse
 10
-598.4720986273878
 20
1845.63650897812
 30
0.0
 11
8.053916568357308E-16
 21
13.15304392085091
 31
0.0
210
0.0
220
0.0
230
1.0
 40
0.9866892647118082
 41
4.299595219146313
 42
8.266774944004347
  0
ELLIPSE
  5
E1
330
B4
100
AcDbEntity
  8
@__WIDOCZNE
  6
Continuous
370
    13
100
AcDbEllipse
 10
-585.4941399071081
 20
1810.095837525715
 30
0.0
 11
8.053916568357308E-16
 21
13.15304392085091
 31
0.0
210
0.0
220
0.0
230
1.0
 40
0.9866892647118082
 41
1.158003553206711
 42
5.125182741616037
  0
ELLIPSE
  5
E2
330
B4
100
AcDbEntity
  8
@__WIDOCZNE
  6
Continuous
370
    13
100
AcDbEllipse
 10
-572.5156009313732
 20
1845.63650897812
 30
0.0
 11
8.053916568357308E-16
 21
13.15304392085091
 31
0.0
210
0.0
220
0.0
230
1.0
 40
0.9866892647118082
 41
4.299595219146309
 42
8.266774944004343
  0
ELLIPSE
  5
E3
330
B4
100
AcDbEntity
  8
@__WIDOCZNE
  6
Continuous
370
    13
100
AcDbEllipse
 10
-559.5376422110935
 20
1810.095837525715
 30
0.0
 11
8.053916568357308E-16
 21
13.15304392085091
 31
0.0
210
0.0
220
0.0
230
1.0
 40
0.9866892647118082
 41
1.158003553206714
 42
5.12518274161604
  0
ELLIPSE
  5
E4
330
B4
100
AcDbEntity
  8
@__WIDOCZNE
  6
Continuous
370
    13
100
AcDbEllipse
 10
-546.5591032353587
 20
1845.63650897812
 30
0.0
 11
8.053916568357308E-16
 21
13.15304392085091
 31
0.0
210
0.0
220
0.0
230
1.0
 40
0.9866892647118082
 41
4.299595219146313
 42
8.266774944004347
  0
ELLIPSE
  5
E5
330
B4
100
AcDbEntity
  8
@__WIDOCZNE
  6
Continuous
370
    13
100
AcDbEllipse
 10
-533.5811445150789
 20
1810.095837525715
 30
0.0
 11
8.053916568357308E-16
 21
13.15304392085091
 31
0.0
210
0.0
220
0.0
230
1.0
 40
0.9866892647118082
 41
1.158003553206714
 42
5.125182741616044
  0
ELLIPSE
  5
E6
330
B4
100
AcDbEntity
  8
@__WIDOCZNE
  6
Continuous
370
    13
100
AcDbEllipse
 10
-520.6026055393442
 20
1845.63650897812
 30
0.0
 11
8.053916568357308E-16
 21
13.15304392085091
 31
0.0
210
0.0
220
0.0
230
1.0
 40
0.9866892647118082
 41
4.299595219146309
 42
8.266774944004343
  0
ELLIPSE
  5
E7
330
B4
100
AcDbEntity
  8
@__WIDOCZNE
  6
Continuous
370
    13
100
AcDbEllipse
 10
-507.6246468190644
 20
1810.095837525715
 30
0.0
 11
8.053916568357308E-16
 21
13.15304392085091
 31
0.0
210
0.0
220
0.0
230
1.0
 40
0.9866892647118082
 41
1.158003553206714
 42
5.12518274161604
  0
ELLIPSE
  5
E8
330
B4
100
AcDbEntity
  8
@__WIDOCZNE
  6
Continuous
370
    13
100
AcDbEllipse
 10
-494.6461078433296
 20
1845.63650897812
 30
0.0
 11
8.053916568357308E-16
 21
13.15304392085091
 31
0.0
210
0.0
220
0.0
230
1.0
 40
0.9866892647118082
 41
4.299595219146313
 42
8.266774944004347
  0
ELLIPSE
  5
E9
330
B4
100
AcDbEntity
  8
@__WIDOCZNE
  6
Continuous
370
    13
100
AcDbEllipse
 10
-481.6681491230498
 20
1810.095837525715
 30
0.0
 11
8.053916568357308E-16
 21
13.15304392085091
 31
0.0
210
0.0
220
0.0
230
1.0
 40
0.9866892647118082
 41
1.158003553206712
 42
5.12518274161604
  0
ELLIPSE
  5
EA
330
B4
100
AcDbEntity
  8
@__WIDOCZNE
  6
Continuous
370
    13
100
AcDbEllipse
 10
-468.689610147315
 20
1845.63650897812
 30
0.0
 11
8.053916568357308E-16
 21
13.15304392085091
 31
0.0
210
0.0
220
0.0
230
1.0
 40
0.9866892647118082
 41
4.299595219146309
 42
8.266774944004343
  0
ELLIPSE
  5
EB
330
B4
100
AcDbEntity
  8
@__WIDOCZNE
  6
Continuous
370
    13
100
AcDbEllipse
 10
-455.7116514270353
 20
1810.095837525715
 30
0.0
 11
8.053916568357308E-16
 21
13.15304392085091
 31
0.0
210
0.0
220
0.0
230
1.0
 40
0.9866892647118082
 41
1.158003553206714
 42
5.12518274161604
  0
ELLIPSE
  5
EC
330
B4
100
AcDbEntity
  8
@__WIDOCZNE
  6
Continuous
370
    13
100
AcDbEllipse
 10
-442.7331124513005
 20
1845.63650897812
 30
0.0
 11
8.053916568357308E-16
 21
13.15304392085091
 31
0.0
210
0.0
220
0.0
230
1.0
 40
0.9866892647118082
 41
4.299595219146311
 42
8.266774944004347
  0
ELLIPSE
  5
ED
330
B4
100
AcDbEntity
  8
@__WIDOCZNE
  6
Continuous
370
    13
100
AcDbEllipse
 10
-429.7551537310208
 20
1810.095837525715
 30
0.0
 11
8.053916568357308E-16
 21
13.15304392085091
 31
0.0
210
0.0
220
0.0
230
1.0
 40
0.9866892647118082
 41
1.158003553206714
 42
5.12518274161604
  0
ELLIPSE
  5
EE
330
B4
100
AcDbEntity
  8
@__WIDOCZNE
  6
Continuous
370
    13
100
AcDbEllipse
 10
-416.7766147552859
 20
1845.63650897812
 30
0.0
 11
8.053916568357308E-16
 21
13.15304392085091
 31
0.0
210
0.0
220
0.0
230
1.0
 40
0.9866892647118082
 41
4.299595219146309
 42
8.266774944004343
  0
ELLIPSE
  5
EF
330
B4
100
AcDbEntity
  8
@__WIDOCZNE
  6
Continuous
370
    13
100
AcDbEllipse
 10
-403.7986560350062
 20
1810.095837525715
 30
0.0
 11
8.053916568357308E-16
 21
13.15304392085091
 31
0.0
210
0.0
220
0.0
230
1.0
 40
0.9866892647118082
 41
1.158003553206714
 42
5.12518274161604
  0
ELLIPSE
  5
F0
330
B4
100
AcDbEntity
  8
@__WIDOCZNE
  6
Continuous
370
    13
100
AcDbEllipse
 10
-390.8201170592715
 20
1845.63650897812
 30
0.0
 11
8.053916568357308E-16
 21
13.15304392085091
 31
0.0
210
0.0
220
0.0
230
1.0
 40
0.9866892647118082
 41
4.299595219146311
 42
8.266774944004347
  0
ELLIPSE
  5
F1
330
B4
100
AcDbEntity
  8
@__WIDOCZNE
  6
Continuous
370
    13
100
AcDbEllipse
 10
-377.8421583389916
 20
1810.095837525715
 30
0.0
 11
8.053916568357308E-16
 21
13.15304392085091
 31
0.0
210
0.0
220
0.0
230
1.0
 40
0.9866892647118082
 41
1.158003553206714
 42
5.12518274161604
  0
ELLIPSE
  5
F2
330
B4
100
AcDbEntity
  8
@__WIDOCZNE
  6
Continuous
370
    13
100
AcDbEllipse
 10
-364.8636193632568
 20
1845.63650897812
 30
0.0
 11
8.053916568357308E-16
 21
13.15304392085091
 31
0.0
210
0.0
220
0.0
230
1.0
 40
0.9866892647118082
 41
4.299595219146309
 42
8.266774944004343
  0
ELLIPSE
  5
F3
330
B4
100
AcDbEntity
  8
@__WIDOCZNE
  6
Continuous
370
    13
100
AcDbEllipse
 10
-351.8856606429771
 20
1810.095837525715
 30
0.0
 11
8.053916568357308E-16
 21
13.15304392085091
 31
0.0
210
0.0
220
0.0
230
1.0
 40
0.9866892647118082
 41
1.158003553206714
 42
5.12518274161604
  0
ELLIPSE
  5
F4
330
B4
100
AcDbEntity
  8
@__WIDOCZNE
  6
Continuous
370
    13
100
AcDbEllipse
 10
-338.9071216672423
 20
1845.63650897812
 30
0.0
 11
8.053916568357308E-16
 21
13.15304392085091
 31
0.0
210
0.0
220
0.0
230
1.0
 40
0.9866892647118082
 41
4.299595219146311
 42
8.266774944004347
  0
ELLIPSE
  5
F5
330
B4
100
AcDbEntity
  8
@__WIDOCZNE
  6
Continuous
370
    13
100
AcDbEllipse
 10
-325.9291629469625
 20
1810.095837525715
 30
0.0
 11
8.053916568357308E-16
 21
13.15304392085091
 31
0.0
210
0.0
220
0.0
230
1.0
 40
0.9866892647118082
 41
1.158003553206714
 42
5.12518274161604
  0
ELLIPSE
  5
F6
330
B4
100
AcDbEntity
  8
@__WIDOCZNE
  6
Continuous
370
    13
100
AcDbEllipse
 10
-312.9506239712277
 20
1845.63650897812
 30
0.0
 11
8.053916568357308E-16
 21
13.15304392085091
 31
0.0
210
0.0
220
0.0
230
1.0
 40
0.9866892647118082
 41
4.299595219146309
 42
8.266774944004343
  0
ELLIPSE
  5
F7
330
B4
100
AcDbEntity
  8
@__WIDOCZNE
  6
Continuous
370
    13
100
AcDbEllipse
 10
-299.972665250948
 20
1810.095837525715
 30
0.0
 11
8.053916568357308E-16
 21
13.15304392085091
 31
0.0
210
0.0
220
0.0
230
1.0
 40
0.9866892647118082
 41
1.158003553206714
 42
3.141592653589793
  0
ENDBLK
  5
B6
330
B4
100
AcDbEntity
  8
0
100
AcDbBlockEnd
  0
BLOCK
  5
FA
330
F9
100
AcDbEntity
  8
0
100
AcDbBlockBegin
  2
Izolacja cieplna 12_47
 70
     0
 10
-957.7742371524151
 20
1979.000562498778
 30
0.0
  3
Izolacja cieplna 12_47
  1

  0
LINE
  5
FC
330
F9
100
AcDbEntity
  8
@__WIDOCZNE
  6
Continuous
370
    13
100
AcDbLine
 10
-1016.627564304034
 20
2026.344895950993
 30
0.0
 11
-1096.422715892132
 21
2062.683449691099
 31
0.0
  0
LINE
  5
FD
330
F9
100
AcDbEntity
  8
@__WIDOCZNE
  6
Continuous
370
    13
100
AcDbLine
 10
-1096.422715892132
 20
1982.669161194255
 30
0.0
 11
-1016.627564304034
 21
2019.007682185582
 31
0.0
  0
LINE
  5
FE
330
F9
100
AcDbEntity
  8
@__WIDOCZNE
  6
Continuous
370
    13
100
AcDbLine
 10
-1016.627564304034
 20
2113.698285493923
 30
0.0
 11
-1096.422715892132
 21
2150.036839234029
 31
0.0
  0
LINE
  5
FF
330
F9
100
AcDbEntity
  8
@__WIDOCZNE
  6
Continuous
370
    13
100
AcDbLine
 10
-1096.422715892132
 20
2070.022550737185
 30
0.0
 11
-1016.627564304034
 21
2106.361071728512
 31
0.0
  0
LINE
  5
100
330
F9
100
AcDbEntity
  8
@__WIDOCZNE
  6
Continuous
370
    13
100
AcDbLine
 10
-1016.627564304034
 20
2201.051675036853
 30
0.0
 11
-1096.422715892132
 21
2237.390228776959
 31
0.0
  0
LINE
  5
101
330
F9
100
AcDbEntity
  8
@__WIDOCZNE
  6
Continuous
370
    13
100
AcDbLine
 10
-1096.422715892132
 20
2157.375940280115
 30
0.0
 11
-1016.627564304034
 21
2193.714461271442
 31
0.0
  0
LINE
  5
102
330
F9
100
AcDbEntity
  8
@__WIDOCZNE
  6
Continuous
370
    13
100
AcDbLine
 10
-1016.627564304034
 20
2288.405064579783
 30
0.0
 11
-1096.422715892132
 21
2324.743618319889
 31
0.0
  0
LINE
  5
103
330
F9
100
AcDbEntity
  8
@__WIDOCZNE
  6
Continuous
370
    13
100
AcDbLine
 10
-1096.422715892132
 20
2244.729329823044
 30
0.0
 11
-1016.627564304034
 21
2281.067850814372
 31
0.0
  0
LINE
  5
104
330
F9
100
AcDbEntity
  8
@__WIDOCZNE
  6
Continuous
370
    13
100
AcDbLine
 10
-1016.627564304034
 20
2375.758454122713
 30
0.0
 11
-1096.422715892132
 21
2412.097007862819
 31
0.0
  0
LINE
  5
105
330
F9
100
AcDbEntity
  8
@__WIDOCZNE
  6
Continuous
370
    13
100
AcDbLine
 10
-1096.422715892132
 20
2332.082719365975
 30
0.0
 11
-1016.627564304034
 21
2368.421240357302
 31
0.0
  0
LINE
  5
106
330
F9
100
AcDbEntity
  8
@__WIDOCZNE
  6
Continuous
370
    13
100
AcDbLine
 10
-1016.627564304034
 20
2463.111843665643
 30
0.0
 11
-1096.422715892132
 21
2499.450397405749
 31
0.0
  0
LINE
  5
107
330
F9
100
AcDbEntity
  8
@__WIDOCZNE
  6
Continuous
370
    13
100
AcDbLine
 10
-1096.422715892132
 20
2419.436108908905
 30
0.0
 11
-1016.627564304034
 21
2455.774629900232
 31
0.0
  0
LINE
  5
108
330
F9
100
AcDbEntity
  8
@__WIDOCZNE
  6
Continuous
370
    13
100
AcDbLine
 10
-1016.627564304034
 20
2550.465233208573
 30
0.0
 11
-1096.422715892132
 21
2586.803786948679
 31
0.0
  0
LINE
  5
109
330
F9
100
AcDbEntity
  8
@__WIDOCZNE
  6
Continuous
370
    13
100
AcDbLine
 10
-1096.422715892132
 20
2506.789498451835
 30
0.0
 11
-1016.627564304034
 21
2543.128019443162
 31
0.0
  0
LINE
  5
10A
330
F9
100
AcDbEntity
  8
@__WIDOCZNE
  6
Continuous
370
    13
100
AcDbLine
 10
-1016.627564304034
 20
2637.818622751503
 30
0.0
 11
-1096.422715892132
 21
2674.157176491609
 31
0.0
  0
LINE
  5
10B
330
F9
100
AcDbEntity
  8
@__WIDOCZNE
  6
Continuous
370
    13
100
AcDbLine
 10
-1096.422715892132
 20
2594.142887994764
 30
0.0
 11
-1016.627564304034
 21
2630.481408986092
 31
0.0
  0
LINE
  5
10C
330
F9
100
AcDbEntity
  8
@__WIDOCZNE
  6
Continuous
370
    13
100
AcDbLine
 10
-1016.627564304034
 20
2725.172012294433
 30
0.0
 11
-1096.422715892132
 21
2761.510566034539
 31
0.0
  0
LINE
  5
10D
330
F9
100
AcDbEntity
  8
@__WIDOCZNE
  6
Continuous
370
    13
100
AcDbLine
 10
-1096.422715892132
 20
2681.496277537695
 30
0.0
 11
-1016.627564304034
 21
2717.834798529022
 31
0.0
  0
LINE
  5
10E
330
F9
100
AcDbEntity
  8
@__WIDOCZNE
  6
Continuous
370
    13
100
AcDbLine
 10
-1016.627564304034
 20
2812.525401837363
 30
0.0
 11
-1096.422715892132
 21
2848.863955577469
 31
0.0
  0
LINE
  5
10F
330
F9
100
AcDbEntity
  8
@__WIDOCZNE
  6
Continuous
370
    13
100
AcDbLine
 10
-1096.422715892132
 20
2768.849667080625
 30
0.0
 11
-1016.627564304034
 21
2805.188188071952
 31
0.0
  0
LINE
  5
110
330
F9
100
AcDbEntity
  8
@__WIDOCZNE
  6
Continuous
370
    13
100
AcDbLine
 10
-1016.627564304034
 20
2899.878791380293
 30
0.0
 11
-1096.422715892132
 21
2936.217345120399
 31
0.0
  0
LINE
  5
111
330
F9
100
AcDbEntity
  8
@__WIDOCZNE
  6
Continuous
370
    13
100
AcDbLine
 10
-1096.422715892132
 20
2856.203056623554
 30
0.0
 11
-1016.627564304034
 21
2892.541577614882
 31
0.0
  0
LINE
  5
112
330
F9
100
AcDbEntity
  8
@__WIDOCZNE
  6
Continuous
370
    13
100
AcDbLine
 10
-1016.627564304034
 20
2987.232180923223
 30
0.0
 11
-1096.422715892132
 21
3023.570734663329
 31
0.0
  0
LINE
  5
113
330
F9
100
AcDbEntity
  8
@__WIDOCZNE
  6
Continuous
370
    13
100
AcDbLine
 10
-1096.422715892132
 20
2943.556446166485
 30
0.0
 11
-1016.627564304034
 21
2979.894967157813
 31
0.0
  0
ELLIPSE
  5
114
330
F9
100
AcDbEntity
  8
@__WIDOCZNE
  6
Continuous
370
    13
100
AcDbEllipse
 10
-999.7772429213487
 20
1979.000562498778
 30
0.0
 11
2.674368190498266E-15
 21
43.67574703759917
 31
0.0
210
0.0
220
0.0
230
1.0
 40
0.9617010023808089
 41
4.71238898038469
 42
6.69597872499298
  0
ELLIPSE
  5
115
330
F9
100
AcDbEntity
  8
@__WIDOCZNE
  6
Continuous
370
    13
100
AcDbEllipse
 10
-1113.273053022374
 20
2022.676330004432
 30
0.0
 11
2.674368190498266E-15
 21
43.67574703759917
 31
0.0
210
0.0
220
0.0
230
1.0
 40
0.9617010023808089
 41
5.870391545941217
 42
9.837571270799234
  0
ELLIPSE
  5
116
330
F9
100
AcDbEntity
  8
@__WIDOCZNE
  6
Continuous
370
    13
100
AcDbEllipse
 10
-999.7772586687076
 20
2066.352048386836
 30
0.0
 11
2.674368190498266E-15
 21
43.67574703759917
 31
0.0
210
0.0
220
0.0
230
1.0
 40
0.9617010023808089
 41
2.728799880001598
 42
6.695979068410937
  0
ELLIPSE
  5
117
330
F9
100
AcDbEntity
  8
@__WIDOCZNE
  6
Continuous
370
    13
100
AcDbEllipse
 10
-1113.273053022374
 20
2110.029719547362
 30
0.0
 11
2.674368190498266E-15
 21
43.67574703759917
 31
0.0
210
0.0
220
0.0
230
1.0
 40
0.9617010023808089
 41
5.870391545941217
 42
9.83757127079923
  0
ELLIPSE
  5
118
330
F9
100
AcDbEntity
  8
@__WIDOCZNE
  6
Continuous
370
    13
100
AcDbEllipse
 10
-999.7772586687076
 20
2153.705437929767
 30
0.0
 11
2.674368190498266E-15
 21
43.67574703759917
 31
0.0
210
0.0
220
0.0
230
1.0
 40
0.9617010023808089
 41
2.728799880001603
 42
6.695979068410937
  0
ELLIPSE
  5
119
330
F9
100
AcDbEntity
  8
@__WIDOCZNE
  6
Continuous
370
    13
100
AcDbEllipse
 10
-1113.273053022374
 20
2197.383109090292
 30
0.0
 11
2.674368190498266E-15
 21
43.67574703759917
 31
0.0
210
0.0
220
0.0
230
1.0
 40
0.9617010023808089
 41
5.870391545941213
 42
9.83757127079923
  0
ELLIPSE
  5
11A
330
F9
100
AcDbEntity
  8
@__WIDOCZNE
  6
Continuous
370
    13
100
AcDbEllipse
 10
-999.7772586687076
 20
2241.058827472697
 30
0.0
 11
2.674368190498266E-15
 21
43.67574703759917
 31
0.0
210
0.0
220
0.0
230
1.0
 40
0.9617010023808089
 41
2.728799880001598
 42
6.695979068410932
  0
ELLIPSE
  5
11B
330
F9
100
AcDbEntity
  8
@__WIDOCZNE
  6
Continuous
370
    13
100
AcDbEllipse
 10
-1113.273053022374
 20
2284.736498633222
 30
0.0
 11
2.674368190498266E-15
 21
43.67574703759917
 31
0.0
210
0.0
220
0.0
230
1.0
 40
0.9617010023808089
 41
5.870391545941217
 42
9.83757127079923
  0
ELLIPSE
  5
11C
330
F9
100
AcDbEntity
  8
@__WIDOCZNE
  6
Continuous
370
    13
100
AcDbEllipse
 10
-999.7772586687076
 20
2328.412217015627
 30
0.0
 11
2.674368190498266E-15
 21
43.67574703759917
 31
0.0
210
0.0
220
0.0
230
1.0
 40
0.9617010023808089
 41
2.728799880001598
 42
6.695979068410937
  0
ELLIPSE
  5
11D
330
F9
100
AcDbEntity
  8
@__WIDOCZNE
  6
Continuous
370
    13
100
AcDbEllipse
 10
-1113.273053022374
 20
2372.089888176152
 30
0.0
 11
2.674368190498266E-15
 21
43.67574703759917
 31
0.0
210
0.0
220
0.0
230
1.0
 40
0.9617010023808089
 41
5.870391545941217
 42
9.83757127079923
  0
ELLIPSE
  5
11E
330
F9
100
AcDbEntity
  8
@__WIDOCZNE
  6
Continuous
370
    13
100
AcDbEllipse
 10
-999.7772586687076
 20
2415.765606558557
 30
0.0
 11
2.674368190498266E-15
 21
43.67574703759917
 31
0.0
210
0.0
220
0.0
230
1.0
 40
0.9617010023808089
 41
2.728799880001603
 42
6.695979068410937
  0
ELLIPSE
  5
11F
330
F9
100
AcDbEntity
  8
@__WIDOCZNE
  6
Continuous
370
    13
100
AcDbEllipse
 10
-1113.273053022374
 20
2459.443277719082
 30
0.0
 11
2.674368190498266E-15
 21
43.67574703759917
 31
0.0
210
0.0
220
0.0
230
1.0
 40
0.9617010023808089
 41
5.870391545941213
 42
9.83757127079923
  0
ELLIPSE
  5
120
330
F9
100
AcDbEntity
  8
@__WIDOCZNE
  6
Continuous
370
    13
100
AcDbEllipse
 10
-999.7772586687075
 20
2503.118996101487
 30
0.0
 11
2.674368190498266E-15
 21
43.67574703759917
 31
0.0
210
0.0
220
0.0
230
1.0
 40
0.9617010023808089
 41
2.728799880001601
 42
6.695979068410935
  0
ELLIPSE
  5
121
330
F9
100
AcDbEntity
  8
@__WIDOCZNE
  6
Continuous
370
    13
100
AcDbEllipse
 10
-1113.273053022374
 20
2546.796667262012
 30
0.0
 11
2.674368190498266E-15
 21
43.67574703759917
 31
0.0
210
0.0
220
0.0
230
1.0
 40
0.9617010023808089
 41
5.870391545941213
 42
9.83757127079923
  0
ELLIPSE
  5
122
330
F9
100
AcDbEntity
  8
@__WIDOCZNE
  6
Continuous
370
    13
100
AcDbEllipse
 10
-999.7772586687075
 20
2590.472385644417
 30
0.0
 11
2.674368190498266E-15
 21
43.67574703759917
 31
0.0
210
0.0
220
0.0
230
1.0
 40
0.9617010023808089
 41
2.728799880001601
 42
6.695979068410939
  0
ELLIPSE
  5
123
330
F9
100
AcDbEntity
  8
@__WIDOCZNE
  6
Continuous
370
    13
100
AcDbEllipse
 10
-1113.273053022374
 20
2634.150056804942
 30
0.0
 11
2.674368190498266E-15
 21
43.67574703759917
 31
0.0
210
0.0
220
0.0
230
1.0
 40
0.9617010023808089
 41
5.870391545941217
 42
9.83757127079923
  0
ELLIPSE
  5
124
330
F9
100
AcDbEntity
  8
@__WIDOCZNE
  6
Continuous
370
    13
100
AcDbEllipse
 10
-999.7772586687075
 20
2677.825775187347
 30
0.0
 11
2.674368190498266E-15
 21
43.67574703759917
 31
0.0
210
0.0
220
0.0
230
1.0
 40
0.9617010023808089
 41
2.728799880001604
 42
6.695979068410939
  0
ELLIPSE
  5
125
330
F9
100
AcDbEntity
  8
@__WIDOCZNE
  6
Continuous
370
    13
100
AcDbEllipse
 10
-1113.273053022374
 20
2721.503446347872
 30
0.0
 11
2.674368190498266E-15
 21
43.67574703759917
 31
0.0
210
0.0
220
0.0
230
1.0
 40
0.9617010023808089
 41
5.870391545941213
 42
9.83757127079923
  0
ELLIPSE
  5
126
330
F9
100
AcDbEntity
  8
@__WIDOCZNE
  6
Continuous
370
    13
100
AcDbEllipse
 10
-999.7772586687075
 20
2765.179164730277
 30
0.0
 11
2.674368190498266E-15
 21
43.67574703759917
 31
0.0
210
0.0
220
0.0
230
1.0
 40
0.9617010023808089
 41
2.728799880001601
 42
6.695979068410939
  0
ELLIPSE
  5
127
330
F9
100
AcDbEntity
  8
@__WIDOCZNE
  6
Continuous
370
    13
100
AcDbEllipse
 10
-1113.273053022374
 20
2808.856835890802
 30
0.0
 11
2.674368190498266E-15
 21
43.67574703759917
 31
0.0
210
0.0
220
0.0
230
1.0
 40
0.9617010023808089
 41
5.870391545941217
 42
9.83757127079923
  0
ELLIPSE
  5
128
330
F9
100
AcDbEntity
  8
@__WIDOCZNE
  6
Continuous
370
    13
100
AcDbEllipse
 10
-999.7772586687075
 20
2852.532554273207
 30
0.0
 11
2.674368190498266E-15
 21
43.67574703759917
 31
0.0
210
0.0
220
0.0
230
1.0
 40
0.9617010023808089
 41
2.728799880001604
 42
6.695979068410943
  0
ELLIPSE
  5
129
330
F9
100
AcDbEntity
  8
@__WIDOCZNE
  6
Continuous
370
    13
100
AcDbEllipse
 10
-1113.273053022374
 20
2896.210225433732
 30
0.0
 11
2.674368190498266E-15
 21
43.67574703759917
 31
0.0
210
0.0
220
0.0
230
1.0
 40
0.9617010023808089
 41
5.870391545941217
 42
9.83757127079923
  0
ELLIPSE
  5
12A
330
F9
100
AcDbEntity
  8
@__WIDOCZNE
  6
Continuous
370
    13
100
AcDbEllipse
 10
-999.7772586687075
 20
2939.885943816137
 30
0.0
 11
2.674368190498266E-15
 21
43.67574703759917
 31
0.0
210
0.0
220
0.0
230
1.0
 40
0.9617010023808089
 41
2.728799880001601
 42
6.695979068410935
  0
ELLIPSE
  5
12B
330
F9
100
AcDbEntity
  8
@__WIDOCZNE
  6
Continuous
370
    13
100
AcDbEllipse
 10
-1113.273053022374
 20
2983.563614976662
 30
0.0
 11
2.674368190498266E-15
 21
43.67574703759917
 31
0.0
210
0.0
220
0.0
230
1.0
 40
0.9617010023808089
 41
5.870391545941217
 42
9.83757127079923
  0
ELLIPSE
  5
12C
330
F9
100
AcDbEntity
  8
@__WIDOCZNE
  6
Continuous
370
    13
100
AcDbEllipse
 10
-999.7772586687075
 20
3027.239333359067
 30
0.0
 11
2.674368190498266E-15
 21
43.67574703759917
 31
0.0
210
0.0
220
0.0
230
1.0
 40
0.9617010023808089
 41
2.728799880001601
 42
4.71238898038469
  0
ENDBLK
  5
FB
330
F9
100
AcDbEntity
  8
0
100
AcDbBlockEnd
  0
BLOCK
  5
12F
330
12E
100
AcDbEntity
  8
0
100
AcDbBlockBegin
  2
Izolacja cieplna 12_46
 70
     0
 10
-1155.276058741447
 20
1634.844889213809
 30
0.0
  3
Izolacja cieplna 12_46
  1

  0
LINE
  5
131
330
12E
100
AcDbEntity
  8
@__WIDOCZNE
  6
Continuous
370
    13
100
AcDbLine
 10
-1095.677339595994
 20
1588.783753396805
 30
0.0
 11
-1014.871562610503
 21
1553.430102026765
 31
0.0
  0
LINE
  5
132
330
12E
100
AcDbEntity
  8
@__WIDOCZNE
  6
Continuous
370
    13
100
AcDbLine
 10
-1014.871562610503
 20
1631.275722421314
 30
0.0
 11
-1095.677339595994
 21
1595.922102912446
 31
0.0
  0
LINE
  5
133
330
12E
100
AcDbEntity
  8
@__WIDOCZNE
  6
Continuous
370
    13
100
AcDbLine
 10
-1095.677339595995
 20
1503.797947357871
 30
0.0
 11
-1014.871562610503
 21
1468.444295987832
 31
0.0
  0
LINE
  5
134
330
12E
100
AcDbEntity
  8
@__WIDOCZNE
  6
Continuous
370
    13
100
AcDbLine
 10
-1014.871562610503
 20
1546.289916382381
 30
0.0
 11
-1095.677339595995
 21
1510.936296873513
 31
0.0
  0
LINE
  5
135
330
12E
100
AcDbEntity
  8
@__WIDOCZNE
  6
Continuous
370
    13
100
AcDbLine
 10
-1095.677339595995
 20
1418.812141318937
 30
0.0
 11
-1014.871562610503
 21
1383.458489948898
 31
0.0
  0
LINE
  5
136
330
12E
100
AcDbEntity
  8
@__WIDOCZNE
  6
Continuous
370
    13
100
AcDbLine
 10
-1014.871562610503
 20
1461.304110343447
 30
0.0
 11
-1095.677339595995
 21
1425.950490834579
 31
0.0
  0
LINE
  5
137
330
12E
100
AcDbEntity
  8
@__WIDOCZNE
  6
Continuous
370
    13
100
AcDbLine
 10
-1095.677339595995
 20
1333.826335280004
 30
0.0
 11
-1014.871562610503
 21
1298.472683909964
 31
0.0
  0
LINE
  5
138
330
12E
100
AcDbEntity
  8
@__WIDOCZNE
  6
Continuous
370
    13
100
AcDbLine
 10
-1014.871562610503
 20
1376.318304304513
 30
0.0
 11
-1095.677339595995
 21
1340.964684795645
 31
0.0
  0
LINE
  5
139
330
12E
100
AcDbEntity
  8
@__WIDOCZNE
  6
Continuous
370
    13
100
AcDbLine
 10
-1095.677339595995
 20
1248.84052924107
 30
0.0
 11
-1014.871562610503
 21
1213.48687787103
 31
0.0
  0
LINE
  5
13A
330
12E
100
AcDbEntity
  8
@__WIDOCZNE
  6
Continuous
370
    13
100
AcDbLine
 10
-1014.871562610503
 20
1291.332498265579
 30
0.0
 11
-1095.677339595995
 21
1255.978878756712
 31
0.0
  0
LINE
  5
13B
330
12E
100
AcDbEntity
  8
@__WIDOCZNE
  6
Continuous
370
    13
100
AcDbLine
 10
-1095.677339595995
 20
1163.854723202136
 30
0.0
 11
-1014.871562610503
 21
1128.501071832097
 31
0.0
  0
LINE
  5
13C
330
12E
100
AcDbEntity
  8
@__WIDOCZNE
  6
Continuous
370
    13
100
AcDbLine
 10
-1014.871562610503
 20
1206.346692226646
 30
0.0
 11
-1095.677339595995
 21
1170.993072717778
 31
0.0
  0
LINE
  5
13D
330
12E
100
AcDbEntity
  8
@__WIDOCZNE
  6
Continuous
370
    13
100
AcDbLine
 10
-1095.677339595995
 20
1078.868917163202
 30
0.0
 11
-1014.871562610503
 21
1043.515265793163
 31
0.0
  0
LINE
  5
13E
330
12E
100
AcDbEntity
  8
@__WIDOCZNE
  6
Continuous
370
    13
100
AcDbLine
 10
-1014.871562610503
 20
1121.360886187712
 30
0.0
 11
-1095.677339595995
 21
1086.007266678844
 31
0.0
  0
LINE
  5
13F
330
12E
100
AcDbEntity
  8
@__WIDOCZNE
  6
Continuous
370
    13
100
AcDbLine
 10
-1095.677339595995
 20
993.8831111242685
 30
0.0
 11
-1014.871562610504
 21
958.5294597542292
 31
0.0
  0
LINE
  5
140
330
12E
100
AcDbEntity
  8
@__WIDOCZNE
  6
Continuous
370
    13
100
AcDbLine
 10
-1014.871562610503
 20
1036.375080148778
 30
0.0
 11
-1095.677339595995
 21
1001.02146063991
 31
0.0
  0
LINE
  5
141
330
12E
100
AcDbEntity
  8
@__WIDOCZNE
  6
Continuous
370
    13
100
AcDbLine
 10
-1095.677339595995
 20
908.8973050853348
 30
0.0
 11
-1014.871562610504
 21
873.5436537152954
 31
0.0
  0
LINE
  5
142
330
12E
100
AcDbEntity
  8
@__WIDOCZNE
  6
Continuous
370
    13
100
AcDbLine
 10
-1014.871562610504
 20
951.3892741098445
 30
0.0
 11
-1095.677339595995
 21
916.0356546009765
 31
0.0
  0
LINE
  5
143
330
12E
100
AcDbEntity
  8
@__WIDOCZNE
  6
Continuous
370
    13
100
AcDbLine
 10
-1095.677339595995
 20
823.911499046401
 30
0.0
 11
-1014.871562610504
 21
788.5578476763617
 31
0.0
  0
LINE
  5
144
330
12E
100
AcDbEntity
  8
@__WIDOCZNE
  6
Continuous
370
    13
100
AcDbLine
 10
-1014.871562610504
 20
866.4034680709108
 30
0.0
 11
-1095.677339595995
 21
831.0498485620428
 31
0.0
  0
ELLIPSE
  5
145
330
12E
100
AcDbEntity
  8
@__WIDOCZNE
  6
Continuous
370
    13
100
AcDbEllipse
 10
-1112.741074480686
 20
1634.844889213809
 30
0.0
 11
42.53498824747802
 21
-1.041806744180885E-14
 31
0.0
210
0.0
220
0.0
230
1.0
 40
0.9989888965123948
 41
3.141592653589793
 42
5.125182398198085
  0
ELLIPSE
  5
146
330
12E
100
AcDbEntity
  8
@__WIDOCZNE
  6
Continuous
370
    13
100
AcDbEllipse
 10
-997.8078117788077
 20
1592.352888327994
 30
0.0
 11
42.53498824747802
 21
-1.041806744180885E-14
 31
0.0
210
0.0
220
0.0
230
1.0
 40
0.9989888965123948
 41
4.29959521914632
 42
8.266774944004334
  0
ELLIPSE
  5
147
330
12E
100
AcDbEntity
  8
@__WIDOCZNE
  6
Continuous
370
    13
100
AcDbEllipse
 10
-1112.741058533883
 20
1549.860935234017
 30
0.0
 11
42.53498824747802
 21
-1.041806744180885E-14
 31
0.0
210
0.0
220
0.0
230
1.0
 40
0.9989888965123948
 41
1.158003553206697
 42
5.125182741616042
  0
ELLIPSE
  5
148
330
12E
100
AcDbEntity
  8
@__WIDOCZNE
  6
Continuous
370
    13
100
AcDbEllipse
 10
-997.8078117788077
 20
1507.367082289061
 30
0.0
 11
42.53498824747802
 21
-1.041806744180885E-14
 31
0.0
210
0.0
220
0.0
230
1.0
 40
0.9989888965123948
 41
4.29959521914632
 42
8.266774944004336
  0
ELLIPSE
  5
149
330
12E
100
AcDbEntity
  8
@__WIDOCZNE
  6
Continuous
370
    13
100
AcDbEllipse
 10
-1112.741058533883
 20
1464.875129195083
 30
0.0
 11
42.53498824747802
 21
-1.041806744180885E-14
 31
0.0
210
0.0
220
0.0
230
1.0
 40
0.9989888965123948
 41
1.1580035532067
 42
5.125182741616042
  0
ELLIPSE
  5
14A
330
12E
100
AcDbEntity
  8
@__WIDOCZNE
  6
Continuous
370
    13
100
AcDbEllipse
 10
-997.8078117788077
 20
1422.381276250127
 30
0.0
 11
42.53498824747802
 21
-1.041806744180885E-14
 31
0.0
210
0.0
220
0.0
230
1.0
 40
0.9989888965123948
 41
4.29959521914632
 42
8.266774944004334
  0
ELLIPSE
  5
14B
330
12E
100
AcDbEntity
  8
@__WIDOCZNE
  6
Continuous
370
    13
100
AcDbEllipse
 10
-1112.741058533883
 20
1379.889323156149
 30
0.0
 11
42.53498824747802
 21
-1.041806744180885E-14
 31
0.0
210
0.0
220
0.0
230
1.0
 40
0.9989888965123948
 41
1.158003553206702
 42
5.125182741616042
  0
ELLIPSE
  5
14C
330
12E
100
AcDbEntity
  8
@__WIDOCZNE
  6
Continuous
370
    13
100
AcDbEllipse
 10
-997.8078117788078
 20
1337.395470211193
 30
0.0
 11
42.53498824747802
 21
-1.041806744180885E-14
 31
0.0
210
0.0
220
0.0
230
1.0
 40
0.9989888965123948
 41
4.299595219146322
 42
8.266774944004332
  0
ELLIPSE
  5
14D
330
12E
100
AcDbEntity
  8
@__WIDOCZNE
  6
Continuous
370
    13
100
AcDbEllipse
 10
-1112.741058533883
 20
1294.903517117216
 30
0.0
 11
42.53498824747802
 21
-1.041806744180885E-14
 31
0.0
210
0.0
220
0.0
230
1.0
 40
0.9989888965123948
 41
1.158003553206702
 42
5.125182741616042
  0
ELLIPSE
  5
14E
330
12E
100
AcDbEntity
  8
@__WIDOCZNE
  6
Continuous
370
    13
100
AcDbEllipse
 10
-997.8078117788078
 20
1252.409664172259
 30
0.0
 11
42.53498824747802
 21
-1.041806744180885E-14
 31
0.0
210
0.0
220
0.0
230
1.0
 40
0.9989888965123948
 41
4.299595219146322
 42
8.266774944004332
  0
ELLIPSE
  5
14F
330
12E
100
AcDbEntity
  8
@__WIDOCZNE
  6
Continuous
370
    13
100
AcDbEllipse
 10
-1112.741058533883
 20
1209.917711078282
 30
0.0
 11
42.53498824747802
 21
-1.041806744180885E-14
 31
0.0
210
0.0
220
0.0
230
1.0
 40
0.9989888965123948
 41
1.158003553206702
 42
5.125182741616042
  0
ELLIPSE
  5
150
330
12E
100
AcDbEntity
  8
@__WIDOCZNE
  6
Continuous
370
    13
100
AcDbEllipse
 10
-997.8078117788078
 20
1167.423858133326
 30
0.0
 11
42.53498824747802
 21
-1.041806744180885E-14
 31
0.0
210
0.0
220
0.0
230
1.0
 40
0.9989888965123948
 41
4.299595219146322
 42
8.266774944004332
  0
ELLIPSE
  5
151
330
12E
100
AcDbEntity
  8
@__WIDOCZNE
  6
Continuous
370
    13
100
AcDbEllipse
 10
-1112.741058533883
 20
1124.931905039348
 30
0.0
 11
42.53498824747802
 21
-1.041806744180885E-14
 31
0.0
210
0.0
220
0.0
230
1.0
 40
0.9989888965123948
 41
1.158003553206704
 42
5.125182741616042
  0
ELLIPSE
  5
152
330
12E
100
AcDbEntity
  8
@__WIDOCZNE
  6
Continuous
370
    13
100
AcDbEllipse
 10
-997.8078117788078
 20
1082.438052094392
 30
0.0
 11
42.53498824747802
 21
-1.041806744180885E-14
 31
0.0
210
0.0
220
0.0
230
1.0
 40
0.9989888965123948
 41
4.299595219146324
 42
8.266774944004334
  0
ELLIPSE
  5
153
330
12E
100
AcDbEntity
  8
@__WIDOCZNE
  6
Continuous
370
    13
100
AcDbEllipse
 10
-1112.741058533883
 20
1039.946099000415
 30
0.0
 11
42.53498824747802
 21
-1.041806744180885E-14
 31
0.0
210
0.0
220
0.0
230
1.0
 40
0.9989888965123948
 41
1.1580035532067
 42
5.125182741616039
  0
ELLIPSE
  5
154
330
12E
100
AcDbEntity
  8
@__WIDOCZNE
  6
Continuous
370
    13
100
AcDbEllipse
 10
-997.8078117788078
 20
997.4522460554581
 30
0.0
 11
42.53498824747802
 21
-1.041806744180885E-14
 31
0.0
210
0.0
220
0.0
230
1.0
 40
0.9989888965123948
 41
4.299595219146314
 42
8.266774944004336
  0
ELLIPSE
  5
155
330
12E
100
AcDbEntity
  8
@__WIDOCZNE
  6
Continuous
370
    13
100
AcDbEllipse
 10
-1112.741058533883
 20
954.9602929614807
 30
0.0
 11
42.53498824747802
 21
-1.041806744180885E-14
 31
0.0
210
0.0
220
0.0
230
1.0
 40
0.9989888965123948
 41
1.158003553206702
 42
5.125182741616037
  0
ELLIPSE
  5
156
330
12E
100
AcDbEntity
  8
@__WIDOCZNE
  6
Continuous
370
    13
100
AcDbEllipse
 10
-997.8078117788078
 20
912.4664400165244
 30
0.0
 11
42.53498824747802
 21
-1.041806744180885E-14
 31
0.0
210
0.0
220
0.0
230
1.0
 40
0.9989888965123948
 41
4.299595219146314
 42
8.26677494400434
  0
ELLIPSE
  5
157
330
12E
100
AcDbEntity
  8
@__WIDOCZNE
  6
Continuous
370
    13
100
AcDbEllipse
 10
-1112.741058533883
 20
869.9744869225469
 30
0.0
 11
42.53498824747802
 21
-1.041806744180885E-14
 31
0.0
210
0.0
220
0.0
230
1.0
 40
0.9989888965123948
 41
1.158003553206702
 42
5.125182741616037
  0
ELLIPSE
  5
158
330
12E
100
AcDbEntity
  8
@__WIDOCZNE
  6
Continuous
370
    13
100
AcDbEllipse
 10
-997.8078117788078
 20
827.4806339775907
 30
0.0
 11
42.53498824747802
 21
-1.041806744180885E-14
 31
0.0
210
0.0
220
0.0
230
1.0
 40
0.9989888965123948
 41
4.299595219146314
 42
8.26677494400434
  0
ELLIPSE
  5
159
330
12E
100
AcDbEntity
  8
@__WIDOCZNE
  6
Continuous
370
    13
100
AcDbEllipse
 10
-1112.741058533883
 20
784.9886808836133
 30
0.0
 11
42.53498824747802
 21
-1.041806744180885E-14
 31
0.0
210
0.0
220
0.0
230
1.0
 40
0.9989888965123948
 41
1.158003553206702
 42
3.141592653589793
  0
ENDBLK
  5
130
330
12E
100
AcDbEntity
  8
0
100
AcDbBlockEnd
  0
BLOCK
  5
15C
330
15B
100
AcDbEntity
  8
0
100
AcDbBlockBegin
  2
Symbol nachylenia 12_89
 70
     2
 10
-1450.211484735834
 20
1847.37587839579
 30
0.0
  3
Symbol nachylenia 12_89
  1

  0
LINE
  5
15E
330
15B
100
AcDbEntity
  8
@__WIDOCZNE
  6
Continuous
370
    13
100
AcDbLine
 10
-1450.211484735834
 20
1847.37587839579
 30
0.0
 11
-1574.522538637676
 21
1845.031727093641
 31
0.0
  0
LINE
  5
15F
330
15B
100
AcDbEntity
  8
@__WIDOCZNE
  6
Continuous
370
    13
100
AcDbLine
 10
-1544.810677958556
 20
1860.594674596751
 30
0.0
 11
-1574.522538637676
 21
1845.031727093641
 31
0.0
  0
ATTDEF
  5
161
330
15B
100
AcDbEntity
  8
@__WIDOCZNE
370
    13
100
AcDbText
 10
-1530.289612169947
 20
1852.731059849109
 30
0.0
 40
20.0
  1
1,5%
 50
1.080306662119324
  7
GENERATED_STYLE_1
 11
-1530.178168589543
 21
1846.821173009473
 31
0.0
100
AcDbAttributeDefinition
  3
Tekst
  2
txt
 70
     0
 74
     1
  0
ENDBLK
  5
15D
330
15B
100
AcDbEntity
  8
0
100
AcDbBlockEnd
  0
BLOCK
  5
166
330
165
100
AcDbEntity
  8
0
100
AcDbBlockBegin
  2
Izolacja cieplna 12_17
 70
     0
 10
-695.2760631269373
 20
1857.662563389789
 30
0.0
  3
Izolacja cieplna 12_17
  1

  0
LINE
  5
168
330
165
100
AcDbEntity
  8
@__WIDOCZNE
  6
Continuous
370
    13
100
AcDbLine
 10
-701.2358937245696
 20
1862.238318482908
 30
0.0
 11
-709.3164154043768
 21
1865.750382339942
 31
0.0
  0
LINE
  5
169
330
165
100
AcDbEntity
  8
@__WIDOCZNE
  6
Continuous
370
    13
100
AcDbLine
 10
-709.3164154043768
 20
1858.017127662668
 30
0.0
 11
-701.2358937245696
 21
1861.529188354584
 31
0.0
  0
LINE
  5
16A
330
165
100
AcDbEntity
  8
@__WIDOCZNE
  6
Continuous
370
    13
100
AcDbLine
 10
-701.2358937245696
 20
1870.680885691204
 30
0.0
 11
-709.3164154043768
 21
1874.192949548238
 31
0.0
  0
LINE
  5
16B
330
165
100
AcDbEntity
  8
@__WIDOCZNE
  6
Continuous
370
    13
100
AcDbLine
 10
-709.3164154043768
 20
1866.459694870964
 30
0.0
 11
-701.2358937245696
 21
1869.97175556288
 31
0.0
  0
LINE
  5
16C
330
165
100
AcDbEntity
  8
@__WIDOCZNE
  6
Continuous
370
    13
100
AcDbLine
 10
-701.2358937245696
 20
1879.1234528995
 30
0.0
 11
-709.3164154043768
 21
1882.635516756534
 31
0.0
  0
LINE
  5
16D
330
165
100
AcDbEntity
  8
@__WIDOCZNE
  6
Continuous
370
    13
100
AcDbLine
 10
-709.3164154043768
 20
1874.90226207926
 30
0.0
 11
-701.2358937245696
 21
1878.414322771176
 31
0.0
  0
LINE
  5
16E
330
165
100
AcDbEntity
  8
@__WIDOCZNE
  6
Continuous
370
    13
100
AcDbLine
 10
-701.2358937245696
 20
1887.566020107796
 30
0.0
 11
-709.3164154043768
 21
1891.078083964829
 31
0.0
  0
LINE
  5
16F
330
165
100
AcDbEntity
  8
@__WIDOCZNE
  6
Continuous
370
    13
100
AcDbLine
 10
-709.3164154043768
 20
1883.344829287556
 30
0.0
 11
-701.2358937245696
 21
1886.856889979472
 31
0.0
  0
LINE
  5
170
330
165
100
AcDbEntity
  8
@__WIDOCZNE
  6
Continuous
370
    13
100
AcDbLine
 10
-701.2358937245696
 20
1896.008587316092
 30
0.0
 11
-709.3164154043768
 21
1899.520651173125
 31
0.0
  0
LINE
  5
171
330
165
100
AcDbEntity
  8
@__WIDOCZNE
  6
Continuous
370
    13
100
AcDbLine
 10
-709.3164154043768
 20
1891.787396495851
 30
0.0
 11
-701.2358937245696
 21
1895.299457187768
 31
0.0
  0
LINE
  5
172
330
165
100
AcDbEntity
  8
@__WIDOCZNE
  6
Continuous
370
    13
100
AcDbLine
 10
-701.2358937245696
 20
1904.451154524387
 30
0.0
 11
-709.3164154043768
 21
1907.963218381421
 31
0.0
  0
LINE
  5
173
330
165
100
AcDbEntity
  8
@__WIDOCZNE
  6
Continuous
370
    13
100
AcDbLine
 10
-709.3164154043768
 20
1900.229963704147
 30
0.0
 11
-701.2358937245696
 21
1903.742024396063
 31
0.0
  0
ELLIPSE
  5
174
330
165
100
AcDbEntity
  8
@__WIDOCZNE
  6
Continuous
370
    13
100
AcDbEllipse
 10
-699.5295320655634
 20
1857.662563389789
 30
0.0
 11
-4.253469337295165
 21
5.208997609189938E-16
 31
0.0
210
0.0
220
0.0
230
1.0
 40
0.9924115286675878
 41
3.141592653589793
 42
5.125182398198079
  0
ELLIPSE
  5
175
330
165
100
AcDbEntity
  8
@__WIDOCZNE
  6
Continuous
370
    13
100
AcDbEllipse
 10
-711.0227786580723
 20
1861.88375737516
 30
0.0
 11
-4.253469337295165
 21
5.208997609189938E-16
 31
0.0
210
0.0
220
0.0
230
1.0
 40
0.9924115286675878
 41
4.299595219146338
 42
8.266774944004384
  0
ELLIPSE
  5
176
330
165
100
AcDbEntity
  8
@__WIDOCZNE
  6
Continuous
370
    13
100
AcDbEllipse
 10
-699.5295336602326
 20
1866.104946612847
 30
0.0
 11
-4.253469337295165
 21
5.208997609189938E-16
 31
0.0
210
0.0
220
0.0
230
1.0
 40
0.9924115286675878
 41
1.158003553206696
 42
5.125182741616062
  0
ELLIPSE
  5
177
330
165
100
AcDbEntity
  8
@__WIDOCZNE
  6
Continuous
370
    13
100
AcDbEllipse
 10
-711.0227786580723
 20
1870.326324583456
 30
0.0
 11
-4.253469337295165
 21
5.208997609189938E-16
 31
0.0
210
0.0
220
0.0
230
1.0
 40
0.9924115286675878
 41
4.299595219146317
 42
8.266774944004363
  0
ELLIPSE
  5
178
330
165
100
AcDbEntity
  8
@__WIDOCZNE
  6
Continuous
370
    13
100
AcDbEllipse
 10
-699.5295336602326
 20
1874.547513821142
 30
0.0
 11
-4.253469337295165
 21
5.208997609189938E-16
 31
0.0
210
0.0
220
0.0
230
1.0
 40
0.9924115286675878
 41
1.158003553206696
 42
5.125182741616062
  0
ELLIPSE
  5
179
330
165
100
AcDbEntity
  8
@__WIDOCZNE
  6
Continuous
370
    13
100
AcDbEllipse
 10
-711.0227786580723
 20
1878.768891791751
 30
0.0
 11
-4.253469337295165
 21
5.208997609189938E-16
 31
0.0
210
0.0
220
0.0
230
1.0
 40
0.9924115286675878
 41
4.299595219146338
 42
8.266774944004384
  0
ELLIPSE
  5
17A
330
165
100
AcDbEntity
  8
@__WIDOCZNE
  6
Continuous
370
    13
100
AcDbEllipse
 10
-699.5295336602326
 20
1882.990081029438
 30
0.0
 11
-4.253469337295165
 21
5.208997609189938E-16
 31
0.0
210
0.0
220
0.0
230
1.0
 40
0.9924115286675878
 41
1.158003553206696
 42
5.125182741616041
  0
ELLIPSE
  5
17B
330
165
100
AcDbEntity
  8
@__WIDOCZNE
  6
Continuous
370
    13
100
AcDbEllipse
 10
-711.0227786580723
 20
1887.211459000047
 30
0.0
 11
-4.253469337295165
 21
5.208997609189938E-16
 31
0.0
210
0.0
220
0.0
230
1.0
 40
0.9924115286675878
 41
4.299595219146338
 42
8.266774944004384
  0
ELLIPSE
  5
17C
330
165
100
AcDbEntity
  8
@__WIDOCZNE
  6
Continuous
370
    13
100
AcDbEllipse
 10
-699.5295336602326
 20
1891.432648237734
 30
0.0
 11
-4.253469337295165
 21
5.208997609189938E-16
 31
0.0
210
0.0
220
0.0
230
1.0
 40
0.9924115286675878
 41
1.158003553206696
 42
5.125182741616062
  0
ELLIPSE
  5
17D
330
165
100
AcDbEntity
  8
@__WIDOCZNE
  6
Continuous
370
    13
100
AcDbEllipse
 10
-711.0227786580723
 20
1895.654026208343
 30
0.0
 11
-4.253469337295165
 21
5.208997609189938E-16
 31
0.0
210
0.0
220
0.0
230
1.0
 40
0.9924115286675878
 41
4.299595219146317
 42
8.266774944004363
  0
ELLIPSE
  5
17E
330
165
100
AcDbEntity
  8
@__WIDOCZNE
  6
Continuous
370
    13
100
AcDbEllipse
 10
-699.5295336602326
 20
1899.87521544603
 30
0.0
 11
-4.253469337295165
 21
5.208997609189938E-16
 31
0.0
210
0.0
220
0.0
230
1.0
 40
0.9924115286675878
 41
1.158003553206696
 42
5.125182741616062
  0
ELLIPSE
  5
17F
330
165
100
AcDbEntity
  8
@__WIDOCZNE
  6
Continuous
370
    13
100
AcDbEllipse
 10
-711.0227786580723
 20
1904.096593416639
 30
0.0
 11
-4.253469337295165
 21
5.208997609189938E-16
 31
0.0
210
0.0
220
0.0
230
1.0
 40
0.9924115286675878
 41
4.299595219146338
 42
8.266774944004384
  0
ELLIPSE
  5
180
330
165
100
AcDbEntity
  8
@__WIDOCZNE
  6
Continuous
370
    13
100
AcDbEllipse
 10
-699.5295336602326
 20
1908.317782654325
 30
0.0
 11
-4.253469337295165
 21
5.208997609189938E-16
 31
0.0
210
0.0
220
0.0
230
1.0
 40
0.9924115286675878
 41
1.158003553206696
 42
3.141592653589793
  0
ENDBLK
  5
167
330
165
100
AcDbEntity
  8
0
100
AcDbBlockEnd
  0
BLOCK
  5
1C4
330
1C3
100
AcDbEntity
  8
0
100
AcDbBlockBegin
  2
*X8
 70
     1
 10
0.0
 20
0.0
 30
0.0
  3
*X8
  1

  0
HATCH
  5
1C6
330
1C3
100
AcDbEntity
  8
2D - Ogólne
  6
Continuous
370
    13
100
AcDbHatch
 10
0.0
 20
0.0
 30
0.0
210
0.0
220
0.0
230
1.0
  2
SOLID
 70
     1
 71
     0
 91
        1
 92
        2
 72
     0
 73
     1
 93
        4
 10
-1800.000004090746
 20
1792.096014858891
 10
-1824.999994964218
 20
1791.653055462496
 10
-1824.999994964218
 20
1781.302238256661
 10
-1800.000004090746
 20
1781.745197653056
 97
        0
 75
     0
 76
     1
 98
        0
  0
HATCH
  5
1C7
330
1C3
100
AcDbEntity
  8
2D - Ogólne
  6
Continuous
370
    13
100
AcDbHatch
 10
0.0
 20
0.0
 30
0.0
210
0.0
220
0.0
230
1.0
  2
SOLID
 70
     1
 71
     0
 91
        1
 92
        2
 72
     0
 73
     1
 93
        4
 10
-1699.999999131616
 20
1793.867838622721
 10
-1725.000003826836
 20
1793.424879226326
 10
-1725.000003826836
 20
1783.074062020491
 10
-1699.999999131616
 20
1783.517021416886
 97
        0
 75
     0
 76
     1
 98
        0
  0
HATCH
  5
1C8
330
1C3
100
AcDbEntity
  8
2D - Ogólne
  6
Continuous
370
    13
100
AcDbHatch
 10
0.0
 20
0.0
 30
0.0
210
0.0
220
0.0
230
1.0
  2
SOLID
 70
     1
 71
     0
 91
        1
 92
        2
 72
     0
 73
     1
 93
        4
 10
-1599.999994172486
 20
1795.639676208299
 10
-1624.999998867705
 20
1795.196716811905
 10
-1624.999998867705
 20
1784.845899606069
 10
-1599.999994172486
 20
1785.288859002464
 97
        0
 75
     0
 76
     1
 98
        0
  0
HATCH
  5
1C9
330
1C3
100
AcDbEntity
  8
2D - Ogólne
  6
Continuous
370
    13
100
AcDbHatch
 10
0.0
 20
0.0
 30
0.0
210
0.0
220
0.0
230
1.0
  2
SOLID
 70
     1
 71
     0
 91
        1
 92
        2
 72
     0
 73
     1
 93
        4
 10
-1500.000003035104
 20
1797.411499972129
 10
-1524.999993908575
 20
1796.968540575735
 10
-1524.999993908575
 20
1786.6177233699
 10
-1500.000003035104
 20
1787.060682766294
 97
        0
 75
     0
 76
     1
 98
        0
  0
HATCH
  5
1CA
330
1C3
100
AcDbEntity
  8
2D - Ogólne
  6
Continuous
370
    13
100
AcDbHatch
 10
0.0
 20
0.0
 30
0.0
210
0.0
220
0.0
230
1.0
  2
SOLID
 70
     1
 71
     0
 91
        1
 92
        2
 72
     0
 73
     1
 93
        4
 10
-1399.999998075974
 20
1799.183337557708
 10
-1425.000002771193
 20
1798.740378161313
 10
-1425.000002771193
 20
1788.389560955478
 10
-1399.999998075974
 20
1788.832520351873
 97
        0
 75
     0
 76
     1
 98
        0
  0
HATCH
  5
1CB
330
1C3
100
AcDbEntity
  8
2D - Ogólne
  6
Continuous
370
    13
100
AcDbHatch
 10
0.0
 20
0.0
 30
0.0
210
0.0
220
0.0
230
1.0
  2
SOLID
 70
     1
 71
     0
 91
        1
 92
        2
 72
     0
 73
     1
 93
        4
 10
-1299.999993116843
 20
1799.999995568691
 10
-1324.999997812063
 20
1799.999995568691
 10
-1324.999997812063
 20
1790.161384719308
 10
-1299.999993116843
 20
1790.604344115702
 97
        0
 75
     0
 76
     1
 98
        0
  0
HATCH
  5
1CC
330
1C3
100
AcDbEntity
  8
2D - Ogólne
  6
Continuous
370
    13
100
AcDbHatch
 10
0.0
 20
0.0
 30
0.0
210
0.0
220
0.0
230
1.0
  2
SOLID
 70
     1
 71
     0
 91
        1
 92
        2
 72
     0
 73
     1
 93
        4
 10
-1200.000001979462
 20
1799.999995568691
 10
-1225.000006674681
 20
1799.999995568691
 10
-1225.000006674681
 20
1791.933222304886
 10
-1200.000001979462
 20
1792.376181701281
 97
        0
 75
     0
 76
     1
 98
        0
  0
HATCH
  5
1CD
330
1C3
100
AcDbEntity
  8
2D - Ogólne
  6
Continuous
370
    13
100
AcDbHatch
 10
0.0
 20
0.0
 30
0.0
210
0.0
220
0.0
230
1.0
  2
SOLID
 70
     1
 71
     0
 91
        1
 92
        2
 72
     0
 73
     1
 93
        4
 10
-1099.999997020331
 20
1799.999995568691
 10
-1125.000001715551
 20
1799.999995568691
 10
-1125.000001715551
 20
1793.705046068716
 10
-1099.999997020331
 20
1794.148005465111
 97
        0
 75
     0
 76
     1
 98
        0
  0
HATCH
  5
1CE
330
1C3
100
AcDbEntity
  8
2D - Ogólne
  6
Continuous
370
    13
100
AcDbHatch
 10
0.0
 20
0.0
 30
0.0
210
0.0
220
0.0
230
1.0
  2
SOLID
 70
     1
 71
     0
 91
        1
 92
        2
 72
     0
 73
     1
 93
        4
 10
-1000.000005882949
 20
1799.999995568691
 10
-1024.999996756421
 20
1799.999995568691
 10
-1024.999996756421
 20
1795.476883654295
 10
-1000.000005882949
 20
1795.919829228941
 97
        0
 75
     0
 76
     1
 98
        0
  0
HATCH
  5
1CF
330
1C3
100
AcDbEntity
  8
2D - Ogólne
  6
Continuous
370
    13
100
AcDbHatch
 10
0.0
 20
0.0
 30
0.0
210
0.0
220
0.0
230
1.0
  2
SOLID
 70
     1
 71
     0
 91
        1
 92
        2
 72
     0
 73
     1
 93
        4
 10
-1324.999997812063
 20
1800.51220871117
 10
-1324.999997812063
 20
1800.000002354717
 10
-1299.999993116843
 20
1800.000002354717
 10
-1299.999993116843
 20
1800.955168107564
 97
        0
 75
     0
 76
     1
 98
        0
  0
HATCH
  5
1D0
330
1C3
100
AcDbEntity
  8
2D - Ogólne
  6
Continuous
370
    13
100
AcDbHatch
 10
0.0
 20
0.0
 30
0.0
210
0.0
220
0.0
230
1.0
  2
SOLID
 70
     1
 71
     0
 91
        1
 92
        2
 72
     0
 73
     1
 93
        4
 10
-1225.000006674681
 20
1802.284032475
 10
-1225.000006674681
 20
1800.000002354717
 10
-1200.000001979462
 20
1800.000002354717
 10
-1200.000001979462
 20
1802.726991871394
 97
        0
 75
     0
 76
     1
 98
        0
  0
HATCH
  5
1D1
330
1C3
100
AcDbEntity
  8
2D - Ogólne
  6
Continuous
370
    13
100
AcDbHatch
 10
0.0
 20
0.0
 30
0.0
210
0.0
220
0.0
230
1.0
  2
SOLID
 70
     1
 71
     0
 91
        1
 92
        2
 72
     0
 73
     1
 93
        4
 10
-1125.000001715551
 20
1804.055870060578
 10
-1125.000001715551
 20
1800.000002354717
 10
-1099.999997020331
 20
1800.000002354717
 10
-1099.999997020331
 20
1804.498815635224
 97
        0
 75
     0
 76
     1
 98
        0
  0
HATCH
  5
1D2
330
1C3
100
AcDbEntity
  8
2D - Ogólne
  6
Continuous
370
    13
100
AcDbHatch
 10
0.0
 20
0.0
 30
0.0
210
0.0
220
0.0
230
1.0
  2
SOLID
 70
     1
 71
     0
 91
        1
 92
        2
 72
     0
 73
     1
 93
        4
 10
-1024.999996756421
 20
1805.827693824408
 10
-1024.999996756421
 20
1800.000002354717
 10
-1000.000005882949
 20
1800.000002354717
 10
-1000.000005882949
 20
1806.270653220803
 97
        0
 75
     0
 76
     1
 98
        0
  0
HATCH
  5
1D3
330
1C3
100
AcDbEntity
  8
2D - Ogólne
  6
Continuous
370
    13
100
AcDbHatch
 10
0.0
 20
0.0
 30
0.0
210
0.0
220
0.0
230
1.0
  2
SOLID
 70
     1
 71
     0
 91
        1
 92
        2
 72
     0
 73
     1
 93
        4
 10
-1882.647281577092
 20
1790.631648230306
 10
-1882.463941674037
 20
1780.284074204052
 10
-1875.000003989527
 20
1780.416316610126
 10
-1875.000003989527
 20
1790.7671431913
 97
        0
 75
     0
 76
     1
 98
        0
  0
HATCH
  5
1D4
330
1C3
100
AcDbEntity
  8
2D - Ogólne
  6
Continuous
370
    13
100
AcDbHatch
 10
0.0
 20
0.0
 30
0.0
210
0.0
220
0.0
230
1.0
  2
SOLID
 70
     1
 71
     0
 91
        1
 92
        2
 72
     0
 73
     1
 93
        4
 10
-1774.999999395527
 20
1792.538974255285
 10
-1800.000004090746
 20
1792.096014858891
 10
-1800.000004090746
 20
1781.745197653056
 10
-1774.999999395527
 20
1782.18815704945
 97
        0
 75
     0
 76
     1
 98
        0
  0
HATCH
  5
1D5
330
1C3
100
AcDbEntity
  8
2D - Ogólne
  6
Continuous
370
    13
100
AcDbHatch
 10
0.0
 20
0.0
 30
0.0
210
0.0
220
0.0
230
1.0
  2
SOLID
 70
     1
 71
     0
 91
        1
 92
        2
 72
     0
 73
     1
 93
        4
 10
-1674.999994436396
 20
1794.310798019116
 10
-1699.999999131616
 20
1793.867838622721
 10
-1699.999999131616
 20
1783.517021416886
 10
-1674.999994436396
 20
1783.95998081328
 97
        0
 75
     0
 76
     1
 98
        0
  0
HATCH
  5
1D6
330
1C3
100
AcDbEntity
  8
2D - Ogólne
  6
Continuous
370
    13
100
AcDbHatch
 10
0.0
 20
0.0
 30
0.0
210
0.0
220
0.0
230
1.0
  2
SOLID
 70
     1
 71
     0
 91
        1
 92
        2
 72
     0
 73
     1
 93
        4
 10
-1575.000003299015
 20
1796.082635604694
 10
-1599.999994172486
 20
1795.639676208299
 10
-1599.999994172486
 20
1785.288859002464
 10
-1575.000003299015
 20
1785.731818398859
 97
        0
 75
     0
 76
     1
 98
        0
  0
HATCH
  5
1D7
330
1C3
100
AcDbEntity
  8
2D - Ogólne
  6
Continuous
370
    13
100
AcDbHatch
 10
0.0
 20
0.0
 30
0.0
210
0.0
220
0.0
230
1.0
  2
SOLID
 70
     1
 71
     0
 91
        1
 92
        2
 72
     0
 73
     1
 93
        4
 10
-1474.999998339884
 20
1797.854459368524
 10
-1500.000003035104
 20
1797.411499972129
 10
-1500.000003035104
 20
1787.060682766294
 10
-1474.999998339884
 20
1787.503642162689
 97
        0
 75
     0
 76
     1
 98
        0
  0
HATCH
  5
1D8
330
1C3
100
AcDbEntity
  8
2D - Ogólne
  6
Continuous
370
    13
100
AcDbHatch
 10
0.0
 20
0.0
 30
0.0
210
0.0
220
0.0
230
1.0
  2
SOLID
 70
     1
 71
     0
 91
        1
 92
        2
 72
     0
 73
     1
 93
        4
 10
-1374.999993380754
 20
1799.626296954103
 10
-1399.999998075974
 20
1799.183337557708
 10
-1399.999998075974
 20
1788.832520351873
 10
-1374.999993380754
 20
1789.275465926519
 97
        0
 75
     0
 76
     1
 98
        0
  0
HATCH
  5
1D9
330
1C3
100
AcDbEntity
  8
2D - Ogólne
  6
Continuous
370
    13
100
AcDbHatch
 10
0.0
 20
0.0
 30
0.0
210
0.0
220
0.0
230
1.0
  2
SOLID
 70
     1
 71
     0
 91
        1
 92
        2
 72
     0
 73
     1
 93
        4
 10
-1275.000002243372
 20
1799.999995568691
 10
-1299.999993116843
 20
1799.999995568691
 10
-1299.999993116843
 20
1790.604344115702
 10
-1275.000002243372
 20
1791.047303512097
 97
        0
 75
     0
 76
     1
 98
        0
  0
HATCH
  5
1DA
330
1C3
100
AcDbEntity
  8
2D - Ogólne
  6
Continuous
370
    13
100
AcDbHatch
 10
0.0
 20
0.0
 30
0.0
210
0.0
220
0.0
230
1.0
  2
SOLID
 70
     1
 71
     0
 91
        1
 92
        2
 72
     0
 73
     1
 93
        4
 10
-1174.999997284242
 20
1799.999995568691
 10
-1200.000001979462
 20
1799.999995568691
 10
-1200.000001979462
 20
1792.376181701281
 10
-1174.999997284242
 20
1792.819127275927
 97
        0
 75
     0
 76
     1
 98
        0
  0
HATCH
  5
1DB
330
1C3
100
AcDbEntity
  8
2D - Ogólne
  6
Continuous
370
    13
100
AcDbHatch
 10
0.0
 20
0.0
 30
0.0
210
0.0
220
0.0
230
1.0
  2
SOLID
 70
     1
 71
     0
 91
        1
 92
        2
 72
     0
 73
     1
 93
        4
 10
-1075.00000614686
 20
1799.999995568691
 10
-1099.999997020331
 20
1799.999995568691
 10
-1099.999997020331
 20
1794.148005465111
 10
-1075.00000614686
 20
1794.590964861506
 97
        0
 75
     0
 76
     1
 98
        0
  0
HATCH
  5
1DC
330
1C3
100
AcDbEntity
  8
2D - Ogólne
  6
Continuous
370
    13
100
AcDbHatch
 10
0.0
 20
0.0
 30
0.0
210
0.0
220
0.0
230
1.0
  2
SOLID
 70
     1
 71
     0
 91
        1
 92
        2
 72
     0
 73
     1
 93
        4
 10
-975.0000011877297
 20
1799.999995568691
 10
-1000.000005882949
 20
1799.999995568691
 10
-1000.000005882949
 20
1795.919843050689
 10
-975.0000011877297
 20
1796.362788625336
 97
        0
 75
     0
 76
     1
 98
        0
  0
HATCH
  5
1DD
330
1C3
100
AcDbEntity
  8
2D - Ogólne
  6
Continuous
370
    13
100
AcDbHatch
 10
0.0
 20
0.0
 30
0.0
210
0.0
220
0.0
230
1.0
  2
SOLID
 70
     1
 71
     0
 91
        1
 92
        2
 72
     0
 73
     1
 93
        4
 10
-1299.999993116843
 20
1800.955168107564
 10
-1299.999993116843
 20
1800.000002354717
 10
-1275.000002243372
 20
1800.000002354717
 10
-1275.000002243372
 20
1801.398113682211
 97
        0
 75
     0
 76
     1
 98
        0
  0
HATCH
  5
1DE
330
1C3
100
AcDbEntity
  8
2D - Ogólne
  6
Continuous
370
    13
100
AcDbHatch
 10
0.0
 20
0.0
 30
0.0
210
0.0
220
0.0
230
1.0
  2
SOLID
 70
     1
 71
     0
 91
        1
 92
        2
 72
     0
 73
     1
 93
        4
 10
-1200.000001979462
 20
1802.726991871394
 10
-1200.000001979462
 20
1800.000002354717
 10
-1174.999997284242
 20
1800.000002354717
 10
-1174.999997284242
 20
1803.169951267789
 97
        0
 75
     0
 76
     1
 98
        0
  0
HATCH
  5
1DF
330
1C3
100
AcDbEntity
  8
2D - Ogólne
  6
Continuous
370
    13
100
AcDbHatch
 10
0.0
 20
0.0
 30
0.0
210
0.0
220
0.0
230
1.0
  2
SOLID
 70
     1
 71
     0
 91
        1
 92
        2
 72
     0
 73
     1
 93
        4
 10
-1099.999997020331
 20
1804.498815635224
 10
-1099.999997020331
 20
1800.000002354717
 10
-1075.00000614686
 20
1800.000002354717
 10
-1075.00000614686
 20
1804.941775031619
 97
        0
 75
     0
 76
     1
 98
        0
  0
HATCH
  5
1E0
330
1C3
100
AcDbEntity
  8
2D - Ogólne
  6
Continuous
370
    13
100
AcDbHatch
 10
0.0
 20
0.0
 30
0.0
210
0.0
220
0.0
230
1.0
  2
SOLID
 70
     1
 71
     0
 91
        1
 92
        2
 72
     0
 73
     1
 93
        4
 10
-1000.000005882949
 20
1806.270653220803
 10
-1000.000005882949
 20
1800.000002354717
 10
-975.0000011877297
 20
1800.000002354717
 10
-975.0000011877297
 20
1806.713598795449
 97
        0
 75
     0
 76
     1
 98
        0
  0
ENDBLK
  5
1C5
330
1C3
100
AcDbEntity
  8
0
100
AcDbBlockEnd
  0
BLOCK
  5
20E
330
20D
100
AcDbEntity
  8
0
100
AcDbBlockBegin
  2
Bez nazwy_STORY_MARKER
 70
     0
 10
0.0
 20
0.0
 30
0.0
  3
Bez nazwy_STORY_MARKER
  1

  0
ENDBLK
  5
20F
330
20D
100
AcDbEntity
  8
0
100
AcDbBlockEnd
  0
ENDSEC
  0
SECTION
  2
ENTITIES
  0
WIPEOUT
  5
5D
330
1F
100
AcDbEntity
  8
@__WIDOCZNE
  6
Wipeout_Contour
 62
   254
 48
7630.443689038113
370
     0
 92
      140
310
8C00000001000000840000000600000005000000DB4B4DB88DBF72C0291E8E80280B9D40000000000000000067306060355A86C0291E8E80280B9D40000000000000000067306060355A86C0F2C39300C6139C400000000000000000DB4B4DB88DBF72C0F2C39300C6139C400000000000000000DB4B4DB88DBF72C0291E8E
310
80280B9D400000000000000000
100
AcDbWipeout
 90
        0
 10
-715.2760627283832
 20
1796.943361576876
 30
0.0
 11
415.3039631362328
 21
0.0
 31
0.0
 12
0.0
 22
61.84619132209423
 32
0.0
 13
1.0
 23
1.0
340
0
 70
    15
280
     1
281
    50
282
    50
283
     0
360
0
 71
     2
 91
        5
 14
0.4999999999999999
 24
-0.4999999999999982
 14
-0.5000000000000001
 24
-0.4999999999999982
 14
-0.5000000000000001
 24
0.5000000000000019
 14
0.4999999999999999
 24
0.5000000000000019
 14
0.4999999999999999
 24
-0.4999999999999982
  0
LWPOLYLINE
  5
60
330
1F
100
AcDbEntity
  8
@__WIDOCZNE
  6
Continuous
370
    13
100
AcDbPolyline
 90
        4
 70
   129
 43
0.0
 10
-299.9720995921504
 20
1858.78955289897
 10
-715.2760627283832
 20
1858.78955289897
 10
-715.2760627283832
 20
1796.943361576876
 10
-299.9720995921504
 20
1796.943361576876
  0
HATCH
  5
61
330
1F
100
AcDbEntity
  8
@__WIDOCZNE
  6
Continuous
370
    13
100
AcDbHatch
 10
0.0
 20
0.0
 30
0.0
210
0.0
220
0.0
230
1.0
  2
Beton_zbrojony
 70
     0
 71
     1
 91
        1
 92
        2
 72
     0
 73
     1
 93
        4
 10
-1095.276062728393
 20
1634.844889213809
 10
-1095.276062728393
 20
1794.844889213808
 10
-1882.429980399002
 20
1780.001415337735
 10
-1882.429980399002
 20
1634.844889213809
 97
        1
330
62
 75
     0
 76
     2
 52
0.0
 41
1.0
 77
     0
 78
     2
 53
44.99999999999999
 43
0.0
 44
0.0
 45
-18.38477563650066
 46
18.38477563650066
 79
     0
 53
44.99999999999999
 43
-9.192387818250328
 44
9.19238781825033
 45
-18.38477563650066
 46
18.38477563650066
 79
     2
 49
19.49999928474426
 49
-6.49999976158142
 98
        0
  0
LWPOLYLINE
  5
62
102
{ACAD_REACTORS
330
61
102
}
330
1F
100
AcDbEntity
  8
@__WIDOCZNE
  6
Continuous
370
    50
100
AcDbPolyline
 90
        4
 70
   129
 43
0.0
 10
-1095.276062728393
 20
1634.844889213809
 10
-1095.276062728393
 20
1794.844889213808
 10
-1882.429980399002
 20
1780.001415337735
 10
-1882.429980399002
 20
1634.844889213809
  0
HATCH
  5
63
330
1F
100
AcDbEntity
  8
@__WIDOCZNE
  6
Continuous
370
    13
100
AcDbHatch
 10
0.0
 20
0.0
 30
0.0
210
0.0
220
0.0
230
1.0
  2
Izolacja_miękka
 70
     0
 71
     1
 91
        1
 92
        2
 72
     0
 73
     1
 93
        6
 10
-1095.276062728393
 20
1796.943361576876
 10
-955.2760627281651
 20
1796.943361576876
 10
-955.2760627281651
 20
1979.000562498778
 10
-1104.383066732347
 20
1979.000562498778
 10
-1104.383066732347
 20
1844.853778219583
 10
-1095.276062728393
 20
1844.853778219583
 97
        1
330
64
 75
     0
 76
     2
 52
0.0
 41
1.0
 77
     0
 78
     2
 53
60.00000000000001
 43
0.0
 44
0.0
 45
-12.99038105676658
 46
7.499999999999996
 79
     0
 53
120.0
 43
0.0
 44
0.0
 45
12.99038105676657
 46
7.500000000000008
 79
     0
 98
        0
  0
LWPOLYLINE
  5
64
102
{ACAD_REACTORS
330
63
102
}
330
1F
100
AcDbEntity
  8
@__WIDOCZNE
  6
Continuous
370
    13
100
AcDbPolyline
 90
        6
 70
   129
 43
0.0
 10
-1095.276062728393
 20
1796.943361576876
 10
-955.2760627281651
 20
1796.943361576876
 10
-955.2760627281651
 20
1979.000562498778
 10
-1104.383066732347
 20
1979.000562498778
 10
-1104.383066732347
 20
1844.853778219583
 10
-1095.276062728393
 20
1844.853778219583
  0
HATCH
  5
65
330
1F
100
AcDbEntity
  8
@__WIDOCZNE
  6
Continuous
370
    13
100
AcDbHatch
 10
0.0
 20
0.0
 30
0.0
210
0.0
220
0.0
230
1.0
  2
__Bloczki_ceramiczne
 70
     0
 71
     1
 91
        1
 92
        2
 72
     0
 73
     1
 93
        4
 10
-955.2760627281651
 20
1796.943361576876
 10
-715.2760627283834
 20
1796.943361576876
 10
-715.2760627283834
 20
3027.241237013938
 10
-955.2760627281651
 20
3027.241237013938
 97
        1
330
66
 75
     0
 76
     2
 52
0.0
 41
1.0
 77
     0
 78
     1
 53
45.0
 43
0.0
 44
0.0
 45
-12.72792172418307
 46
12.72792172418307
 79
     0
 98
        0
  0
LWPOLYLINE
  5
66
102
{ACAD_REACTORS
330
65
102
}
330
1F
100
AcDbEntity
  8
@__WIDOCZNE
  6
Continuous
370
    50
100
AcDbPolyline
 90
        4
 70
   129
 43
0.0
 10
-955.2760627281651
 20
1796.943361576876
 10
-715.2760627283834
 20
1796.943361576876
 10
-715.2760627283834
 20
3027.241237013938
 10
-955.2760627281651
 20
3027.241237013938
  0
HATCH
  5
67
330
1F
100
AcDbEntity
  8
@__WIDOCZNE
  6
Continuous
370
    13
100
AcDbHatch
 10
0.0
 20
0.0
 30
0.0
210
0.0
220
0.0
230
1.0
  2
Beton_zbrojony
 70
     0
 71
     1
 91
        1
 92
        2
 72
     0
 73
     1
 93
        6
 10
-955.2760627281651
 20
1516.943361576876
 10
-715.2760627283834
 20
1516.943361576876
 10
-715.2760627283834
 20
1556.943361576876
 10
-299.9720995921504
 20
1556.943361576875
 10
-299.9720995921504
 20
1796.943361576876
 10
-955.2760627281651
 20
1796.943361576876
 97
        1
330
68
 75
     0
 76
     2
 52
0.0
 41
1.0
 77
     0
 78
     2
 53
44.99999999999999
 43
0.0
 44
0.0
 45
-18.38477563650066
 46
18.38477563650066
 79
     0
 53
44.99999999999999
 43
-9.192387818250328
 44
9.19238781825033
 45
-18.38477563650066
 46
18.38477563650066
 79
     2
 49
19.49999928474426
 49
-6.49999976158142
 98
        0
  0
LWPOLYLINE
  5
68
102
{ACAD_REACTORS
330
67
102
}
330
1F
100
AcDbEntity
  8
@__WIDOCZNE
  6
Continuous
370
    50
100
AcDbPolyline
 90
        6
 70
   129
 43
0.0
 10
-955.2760627281651
 20
1516.943361576876
 10
-715.2760627283834
 20
1516.943361576876
 10
-715.2760627283834
 20
1556.943361576876
 10
-299.9720995921504
 20
1556.943361576875
 10
-299.9720995921504
 20
1796.943361576876
 10
-955.2760627281651
 20
1796.943361576876
  0
HATCH
  5
69
330
1F
100
AcDbEntity
  8
@__WIDOCZNE
  6
Continuous
370
    25
100
AcDbHatch
 10
0.0
 20
0.0
 30
0.0
210
0.0
220
0.0
230
1.0
  2
__Kropki_luz_n2_burzenie
 70
     0
 71
     1
 91
        1
 92
        2
 72
     0
 73
     1
 93
        6
 10
-1164.276062728165
 20
784.9868288244717
 10
-1155.276062728165
 20
784.9868288244717
 10
-1155.276062728165
 20
1014.622748833921
 10
-1155.276062728165
 20
1634.845215679756
 10
-1164.276062728165
 20
1634.845215679756
 10
-1164.276062728165
 20
1014.622748833921
 97
        1
330
6A
 75
     0
 76
     2
 52
0.0
 41
1.0
 77
     0
 78
     2
 53
45.0
 43
0.0
 44
35.0
 45
-11.13693180368812
 46
11.13693180368812
 79
     4
 49
0.0
 49
-10.5
 49
0.0
 49
-15.75
 53
110.0
 43
35.0
 44
35.0
 45
14.80015877737805
 46
5.386817257379289
 79
     4
 49
0.0
 49
-7.699999999999999
 49
0.0
 49
-13.3
 98
        0
  0
LWPOLYLINE
  5
6A
102
{ACAD_REACTORS
330
69
102
}
330
1F
100
AcDbEntity
  8
@__WIDOCZNE
  6
Continuous
370
    25
100
AcDbPolyline
 90
        6
 70
   129
 43
0.0
 10
-1164.276062728165
 20
784.9868288244717
 10
-1155.276062728165
 20
784.9868288244717
 10
-1155.276062728165
 20
1014.622748833921
 10
-1155.276062728165
 20
1634.845215679756
 10
-1164.276062728165
 20
1634.845215679756
 10
-1164.276062728165
 20
1014.622748833921
  0
HATCH
  5
6B
330
1F
100
AcDbEntity
  8
@__WIDOCZNE
  6
Continuous
370
    25
100
AcDbHatch
 10
0.0
 20
0.0
 30
0.0
210
0.0
220
0.0
230
1.0
  2
__Kropki_luz_n2_burzenie
 70
     0
 71
     1
 91
        1
 92
        2
 72
     0
 73
     1
 93
        4
 10
-715.2760627283832
 20
1928.789552898971
 10
-705.2760627283832
 20
1928.789552898971
 10
-705.2760627283832
 20
3027.241237013937
 10
-715.2760627283832
 20
3027.241237013937
 97
        1
330
6C
 75
     0
 76
     2
 52
0.0
 41
1.0
 77
     0
 78
     2
 53
45.0
 43
0.0
 44
35.0
 45
-11.13693180368812
 46
11.13693180368812
 79
     4
 49
0.0
 49
-10.5
 49
0.0
 49
-15.75
 53
110.0
 43
35.0
 44
35.0
 45
14.80015877737805
 46
5.386817257379289
 79
     4
 49
0.0
 49
-7.699999999999999
 49
0.0
 49
-13.3
 98
        0
  0
LWPOLYLINE
  5
6C
102
{ACAD_REACTORS
330
6B
102
}
330
1F
100
AcDbEntity
  8
@__WIDOCZNE
  6
Continuous
370
    25
100
AcDbPolyline
 90
        4
 70
   129
 43
0.0
 10
-715.2760627283832
 20
1928.789552898971
 10
-705.2760627283832
 20
1928.789552898971
 10
-705.2760627283832
 20
3027.241237013937
 10
-715.2760627283832
 20
3027.241237013937
  0
HATCH
  5
6D
330
1F
100
AcDbEntity
  8
@__WIDOCZNE
  6
Continuous
370
    25
100
AcDbHatch
 10
0.0
 20
0.0
 30
0.0
210
0.0
220
0.0
230
1.0
  2
__Kropki_luz_n2_burzenie
 70
     0
 71
     1
 91
        1
 92
        2
 72
     0
 73
     1
 93
        4
 10
-715.2760627283834
 20
784.9868288244717
 10
-705.2760627283834
 20
784.9868288244717
 10
-705.2760627283834
 20
1556.943361576876
 10
-715.2760627283834
 20
1556.943361576876
 97
        1
330
6E
 75
     0
 76
     2
 52
0.0
 41
1.0
 77
     0
 78
     2
 53
45.0
 43
0.0
 44
35.0
 45
-11.13693180368812
 46
11.13693180368812
 79
     4
 49
0.0
 49
-10.5
 49
0.0
 49
-15.75
 53
110.0
 43
35.0
 44
35.0
 45
14.80015877737805
 46
5.386817257379289
 79
     4
 49
0.0
 49
-7.699999999999999
 49
0.0
 49
-13.3
 98
        0
  0
LWPOLYLINE
  5
6E
102
{ACAD_REACTORS
330
6D
102
}
330
1F
100
AcDbEntity
  8
@__WIDOCZNE
  6
Continuous
370
    25
100
AcDbPolyline
 90
        4
 70
   129
 43
0.0
 10
-715.2760627283834
 20
784.9868288244717
 10
-705.2760627283834
 20
784.9868288244717
 10
-705.2760627283834
 20
1556.943361576876
 10
-715.2760627283834
 20
1556.943361576876
  0
HATCH
  5
6F
330
1F
100
AcDbEntity
  8
@__WIDOCZNE
  6
Continuous
370
    25
100
AcDbHatch
 10
0.0
 20
0.0
 30
0.0
210
0.0
220
0.0
230
1.0
  2
__Kropki_luz_n2_burzenie
 70
     0
 71
     1
 91
        1
 92
        2
 72
     0
 73
     1
 93
        4
 10
-1155.276062728165
 20
1979.000562498778
 10
-1155.276062728165
 20
3027.241237013938
 10
-1165.276062728165
 20
3027.241237013938
 10
-1165.276062728165
 20
1978.994017505772
 97
        1
330
70
 75
     0
 76
     2
 52
0.0
 41
1.0
 77
     0
 78
     2
 53
45.0
 43
0.0
 44
35.0
 45
-11.13693180368812
 46
11.13693180368812
 79
     4
 49
0.0
 49
-10.5
 49
0.0
 49
-15.75
 53
110.0
 43
35.0
 44
35.0
 45
14.80015877737805
 46
5.386817257379289
 79
     4
 49
0.0
 49
-7.699999999999999
 49
0.0
 49
-13.3
 98
        0
  0
LWPOLYLINE
  5
70
102
{ACAD_REACTORS
330
6F
102
}
330
1F
100
AcDbEntity
  8
@__WIDOCZNE
  6
Continuous
370
    25
100
AcDbPolyline
 90
        4
 70
   129
 43
0.0
 10
-1155.276062728165
 20
1979.000562498778
 10
-1155.276062728165
 20
3027.241237013938
 10
-1165.276062728165
 20
3027.241237013938
 10
-1165.276062728165
 20
1978.994017505772
  0
HATCH
  5
71
330
1F
100
AcDbEntity
  8
@__WIDOCZNE
  6
Continuous
370
    13
100
AcDbHatch
 10
0.0
 20
0.0
 30
0.0
210
0.0
220
0.0
230
1.0
  2
Izolacja_miękka
 70
     0
 71
     1
 91
        1
 92
        2
 72
     0
 73
     1
 93
        5
 10
-1092.82648495085
 20
1794.844889213808
 10
-1095.276062728393
 20
1794.844889213808
 10
-1095.276062728393
 20
1634.844889213809
 10
-955.2760627283923
 20
1634.844889213809
 10
-955.2760627283923
 20
1794.844889213808
 97
        1
330
72
 75
     0
 76
     2
 52
0.0
 41
1.0
 77
     0
 78
     2
 53
60.00000000000001
 43
0.0
 44
0.0
 45
-12.99038105676658
 46
7.499999999999996
 79
     0
 53
120.0
 43
0.0
 44
0.0
 45
12.99038105676657
 46
7.500000000000008
 79
     0
 98
        0
  0
LWPOLYLINE
  5
72
102
{ACAD_REACTORS
330
71
102
}
330
1F
100
AcDbEntity
  8
@__WIDOCZNE
  6
Continuous
370
    50
100
AcDbPolyline
 90
        5
 70
   129
 43
0.0
 10
-1092.82648495085
 20
1794.844889213808
 10
-1095.276062728393
 20
1794.844889213808
 10
-1095.276062728393
 20
1634.844889213809
 10
-955.2760627283923
 20
1634.844889213809
 10
-955.2760627283923
 20
1794.844889213808
  0
HATCH
  5
73
330
1F
100
AcDbEntity
  8
@__WIDOCZNE
  6
Continuous
370
    13
100
AcDbHatch
 10
0.0
 20
0.0
 30
0.0
210
0.0
220
0.0
230
1.0
  2
__kreski_n_1_gęsto
 70
     0
 71
     1
 91
        1
 92
        2
 72
     0
 73
     1
 93
        4
 10
-1882.429980399002
 20
1800.143497154933
 10
-1682.323132434442
 20
1803.916940573695
 10
-1682.605939299861
 20
1818.914274345963
 10
-1882.429980399002
 20
1815.146163856667
 97
        1
330
74
 75
     0
 76
     2
 52
0.0
 41
1.0
 77
     0
 78
     1
 53
45.0
 43
0.0
 44
0.0
 45
-7.071067811865475
 46
7.071067811865476
 79
     0
 98
        0
  0
LWPOLYLINE
  5
74
102
{ACAD_REACTORS
330
73
102
}
330
1F
100
AcDbEntity
  8
@__WIDOCZNE
  6
Continuous
370
    25
100
AcDbPolyline
 90
        4
 70
   129
 43
0.0
 10
-1882.429980399002
 20
1800.143497154933
 10
-1682.323132434442
 20
1803.916940573695
 10
-1682.605939299861
 20
1818.914274345963
 10
-1882.429980399002
 20
1815.146163856667
  0
HATCH
  5
75
330
1F
100
AcDbEntity
  8
@__WIDOCZNE
  6
Continuous
370
    25
100
AcDbHatch
 10
0.0
 20
0.0
 30
0.0
210
0.0
220
0.0
230
1.0
  2
__Kropki_luz_n2_burzenie
 70
     0
 71
     1
 91
        1
 92
        2
 72
     0
 73
     1
 93
        8
 10
-1120.120319856512
 20
1814.329907896591
 10
-1882.429980399002
 20
1799.954925726362
 10
-1882.429980399002
 20
1789.994900949797
 10
-1114.227323860693
 20
1804.233257186491
 10
-1114.227323860693
 20
1979.049649946316
 10
-1120.120319856512
 20
1979.049649946316
 10
-1120.120319856512
 20
1894.055776399319
 10
-1120.120319856512
 20
1857.968407066637
 97
        1
330
76
 75
     0
 76
     2
 52
0.0
 41
1.0
 77
     0
 78
     2
 53
45.0
 43
0.0
 44
35.0
 45
-11.13693180368812
 46
11.13693180368812
 79
     4
 49
0.0
 49
-10.5
 49
0.0
 49
-15.75
 53
110.0
 43
35.0
 44
35.0
 45
14.80015877737805
 46
5.386817257379289
 79
     4
 49
0.0
 49
-7.699999999999999
 49
0.0
 49
-13.3
 98
        0
  0
LWPOLYLINE
  5
76
102
{ACAD_REACTORS
330
75
102
}
330
1F
100
AcDbEntity
  8
@__WIDOCZNE
  6
Continuous
370
    25
100
AcDbPolyline
 90
        8
 70
   129
 43
0.0
 10
-1120.120319856512
 20
1814.329907896591
 10
-1882.429980399002
 20
1799.954925726362
 10
-1882.429980399002
 20
1789.994900949797
 10
-1114.227323860693
 20
1804.233257186491
 10
-1114.227323860693
 20
1979.049649946316
 10
-1120.120319856512
 20
1979.049649946316
 10
-1120.120319856512
 20
1894.055776399319
 10
-1120.120319856512
 20
1857.968407066637
  0
HATCH
  5
77
330
1F
100
AcDbEntity
  8
@__WIDOCZNE
  6
Continuous
370
    13
100
AcDbHatch
 10
0.0
 20
0.0
 30
0.0
210
0.0
220
0.0
230
1.0
  2
__kreski_n_1_gęsto
 70
     0
 71
     1
 91
        1
 92
        2
 72
     0
 73
     1
 93
        4
 10
-1412.36756987922
 20
1808.818959753307
 10
-1140.933564263193
 20
1813.937429573494
 10
-1140.933564263193
 20
1828.940096275225
 10
-1412.65037674464
 20
1823.816293525577
 97
        1
330
78
 75
     0
 76
     2
 52
0.0
 41
1.0
 77
     0
 78
     1
 53
45.0
 43
0.0
 44
0.0
 45
-7.071067811865475
 46
7.071067811865476
 79
     0
 98
        0
  0
LWPOLYLINE
  5
78
102
{ACAD_REACTORS
330
77
102
}
330
1F
100
AcDbEntity
  8
@__WIDOCZNE
  6
Continuous
370
    25
100
AcDbPolyline
 90
        4
 70
   129
 43
0.0
 10
-1412.36756987922
 20
1808.818959753307
 10
-1140.933564263193
 20
1813.937429573494
 10
-1140.933564263193
 20
1828.940096275225
 10
-1412.65037674464
 20
1823.816293525577
  0
HATCH
  5
79
330
1F
100
AcDbEntity
  8
@__WIDOCZNE
  6
Continuous
370
    13
100
AcDbHatch
 10
0.0
 20
0.0
 30
0.0
210
0.0
220
0.0
230
1.0
  2
__kreski_n_1_gęsto
 70
     0
 71
     1
 91
        1
 92
        2
 72
     0
 73
     1
 93
        4
 10
-1677.322260763813
 20
1803.917854283116
 10
-1417.3684753778
 20
1808.819839950395
 10
-1417.651282243219
 20
1823.817173722665
 10
-1677.605067629234
 20
1818.915188055386
 97
        1
330
7A
 75
     0
 76
     2
 52
0.0
 41
1.0
 77
     0
 78
     1
 53
45.0
 43
0.0
 44
0.0
 45
-7.071067811865475
 46
7.071067811865476
 79
     0
 98
        0
  0
LWPOLYLINE
  5
7A
102
{ACAD_REACTORS
330
79
102
}
330
1F
100
AcDbEntity
  8
@__WIDOCZNE
  6
Continuous
370
    25
100
AcDbPolyline
 90
        4
 70
   129
 43
0.0
 10
-1677.322260763813
 20
1803.917854283116
 10
-1417.3684753778
 20
1808.819839950395
 10
-1417.651282243219
 20
1823.817173722665
 10
-1677.605067629234
 20
1818.915188055386
  0
HATCH
  5
7B
330
1F
100
AcDbEntity
  8
@__WIDOCZNE
  6
Continuous
370
    13
100
AcDbHatch
 10
0.0
 20
0.0
 30
0.0
210
0.0
220
0.0
230
1.0
  2
__kreski_n_1_gęsto
 70
     0
 71
     1
 91
        1
 92
        2
 72
     0
 73
     1
 93
        4
 10
-1120.120319856512
 20
1834.952013926151
 10
-1120.120319856512
 20
1974.107687211121
 10
-1135.120319856512
 20
1974.107687211121
 10
-1135.120319856512
 20
1834.952013926151
 97
        1
330
7C
 75
     0
 76
     2
 52
0.0
 41
1.0
 77
     0
 78
     1
 53
45.0
 43
0.0
 44
0.0
 45
-7.071067811865475
 46
7.071067811865476
 79
     0
 98
        0
  0
LWPOLYLINE
  5
7C
102
{ACAD_REACTORS
330
7B
102
}
330
1F
100
AcDbEntity
  8
@__WIDOCZNE
  6
Continuous
370
    25
100
AcDbPolyline
 90
        4
 70
   129
 43
0.0
 10
-1120.120319856512
 20
1834.952013926151
 10
-1120.120319856512
 20
1974.107687211121
 10
-1135.120319856512
 20
1974.107687211121
 10
-1135.120319856512
 20
1834.952013926151
  0
HATCH
  5
7D
330
1F
100
AcDbEntity
  8
@__WIDOCZNE
  6
Continuous
 62
   142
370
    13
100
AcDbHatch
 10
0.0
 20
0.0
 30
0.0
210
0.0
220
0.0
230
1.0
  2
SOLID
 70
     1
 71
     1
 91
        1
 92
        2
 72
     1
 73
     1
 93
        6
 10
-1440.001988959916
 20
538.6686287311513
 42
0.0
 10
-1440.001988959916
 20
563.2468511068922
 42
0.0
 10
-1464.580211335656
 20
563.2468511068922
 42
0.414213562373095
 10
-1494.074078186545
 20
533.7529842560039
 42
0.0
 10
-1494.074078186545
 20
509.1747618802629
 42
0.0
 10
-1469.495855810804
 20
509.1747618802629
 42
0.414213562373095
 97
        1
330
7E
 75
     0
 76
     1
 98
        0
  0
LWPOLYLINE
  5
7E
102
{ACAD_REACTORS
330
7D
102
}
330
1F
100
AcDbEntity
  8
@__WIDOCZNE
  6
Continuous
 62
   142
370
    13
100
AcDbPolyline
 90
        6
 70
   129
 43
0.0
 10
-1440.001988959916
 20
538.6686287311513
 10
-1440.001988959916
 20
563.2468511068922
 10
-1464.580211335656
 20
563.2468511068922
 42
0.414213562373095
 10
-1494.074078186545
 20
533.7529842560039
 10
-1494.074078186545
 20
509.1747618802629
 10
-1469.495855810804
 20
509.1747618802629
 42
0.414213562373095
  0
HATCH
  5
7F
330
1F
100
AcDbEntity
  8
@__WIDOCZNE
  6
Continuous
370
    13
100
AcDbHatch
 10
0.0
 20
0.0
 30
0.0
210
0.0
220
0.0
230
1.0
  2
SOLID
 70
     1
 71
     1
 91
        3
 92
        2
 72
     1
 73
     1
 93
        8
 10
-1894.608978596419
 20
509.9897840005643
 42
0.0723831287448308
 10
-1930.280884078958
 20
509.685635463206
 42
0.0
 10
-1930.280884078958
 20
441.0549519830671
 42
0.0475754375093521
 10
-1910.990466674141
 20
438.9511735996827
 42
0.0
 10
-1908.221006603722
 20
438.9511735996827
 42
0.0201526900432898
 10
-1899.99792015914
 20
439.39441237806
 42
0.1117820670402823
 10
-1882.464957955006
 20
444.9329643112574
 42
0.5989391739264164
 10
-1888.283831342267
 20
477.8090353578357
 42
0.7144612958116017
 97
        1
330
80
 92
        2
 72
     1
 73
     1
 93
        4
 10
-1917.446624371064
 20
481.8783040106898
 42
0.018587651104709
 10
-1899.850094396254
 20
481.8952470736691
 42
0.8637728306683231
 10
-1900.363184084205
 20
500.1757958915392
 42
0.0363046036528515
 10
-1917.446624371064
 20
500.1757958915392
 42
0.0
 97
        1
330
81
 92
        2
 72
     1
 73
     1
 93
        4
 10
-1917.248213653418
 20
450.1256517495922
 42
0.0570602598095221
 10
-1899.107299369987
 20
450.3007248881617
 42
0.9504624262000833
 10
-1899.297593656557
 20
471.6317085574151
 42
0.0333151677067815
 10
-1917.248213653418
 20
471.6317085574151
 42
0.0
 97
        1
330
82
 75
     0
 76
     1
 98
        0
  0
LWPOLYLINE
  5
80
102
{ACAD_REACTORS
330
7F
102
}
330
1F
100
AcDbEntity
  8
@__WIDOCZNE
  6
Continuous
370
    13
100
AcDbPolyline
 90
        8
 70
   129
 43
0.0
 10
-1894.608978596419
 20
509.9897840005643
 42
0.0723831287448308
 10
-1930.280884078958
 20
509.685635463206
 10
-1930.280884078958
 20
441.0549519830671
 42
0.0475754375093521
 10
-1910.990466674141
 20
438.9511735996827
 10
-1908.221006603722
 20
438.9511735996827
 42
0.0201526900432898
 10
-1899.99792015914
 20
439.39441237806
 42
0.1117820670402823
 10
-1882.464957955006
 20
444.9329643112574
 42
0.5989391739264164
 10
-1888.283831342267
 20
477.8090353578357
 42
0.7144612958116017
  0
LWPOLYLINE
  5
81
102
{ACAD_REACTORS
330
7F
102
}
330
1F
100
AcDbEntity
  8
@__WIDOCZNE
  6
Continuous
370
    13
100
AcDbPolyline
 90
        4
 70
   129
 43
0.0
 10
-1917.446624371064
 20
481.8783040106898
 42
0.018587651104709
 10
-1899.850094396254
 20
481.8952470736691
 42
0.8637728306683231
 10
-1900.363184084205
 20
500.1757958915392
 42
0.0363046036528515
 10
-1917.446624371064
 20
500.1757958915392
  0
LWPOLYLINE
  5
82
102
{ACAD_REACTORS
330
7F
102
}
330
1F
100
AcDbEntity
  8
@__WIDOCZNE
  6
Continuous
370
    13
100
AcDbPolyline
 90
        4
 70
   129
 43
0.0
 10
-1917.248213653418
 20
450.1256517495922
 42
0.0570602598095221
 10
-1899.107299369987
 20
450.3007248881617
 42
0.9504624262000833
 10
-1899.297593656557
 20
471.6317085574151
 42
0.0333151677067815
 10
-1917.248213653418
 20
471.6317085574151
  0
HATCH
  5
83
330
1F
100
AcDbEntity
  8
@__WIDOCZNE
  6
Continuous
370
    13
100
AcDbHatch
 10
0.0
 20
0.0
 30
0.0
210
0.0
220
0.0
230
1.0
  2
SOLID
 70
     1
 71
     1
 91
        1
 92
        2
 72
     1
 73
     1
 93
       12
 10
-1779.40271444049
 20
494.2796073610556
 42
0.0
 10
-1795.324133915959
 20
494.2796073610556
 42
0.0
 10
-1795.324133915959
 20
509.7654159965252
 42
0.0
 10
-1807.603398609458
 20
507.2679384317447
 42
0.0
 10
-1807.603398609458
 20
456.2154273196086
 42
0.3686923280690939
 10
-1790.339247767995
 20
439.0107741805036
 42
0.0
 10
-1777.892755622337
 20
439.0537428829824
 42
0.0
 10
-1775.240251832525
 20
450.6584469634121
 42
0.0
 10
-1787.950667203237
 20
450.6584469634121
 42
-0.3159610186060354
 10
-1795.324133915959
 20
458.031913676135
 42
0.0
 10
-1795.324133915959
 20
482.8134706099469
 42
0.0
 10
-1779.40271444049
 20
482.8134706099469
 42
0.0
 97
        1
330
84
 75
     0
 76
     1
 98
        0
  0
LWPOLYLINE
  5
84
102
{ACAD_REACTORS
330
83
102
}
330
1F
100
AcDbEntity
  8
@__WIDOCZNE
  6
Continuous
370
    13
100
AcDbPolyline
 90
       12
 70
   129
 43
0.0
 10
-1779.40271444049
 20
494.2796073610556
 10
-1795.324133915959
 20
494.2796073610556
 10
-1795.324133915959
 20
509.7654159965252
 10
-1807.603398609458
 20
507.2679384317447
 10
-1807.603398609458
 20
456.2154273196086
 42
0.3686923280690939
 10
-1790.339247767995
 20
439.0107741805036
 10
-1777.892755622337
 20
439.0537428829824
 10
-1775.240251832525
 20
450.6584469634121
 10
-1787.950667203237
 20
450.6584469634121
 42
-0.3159610186060354
 10
-1795.324133915959
 20
458.031913676135
 10
-1795.324133915959
 20
482.8134706099469
 10
-1779.40271444049
 20
482.8134706099469
  0
HATCH
  5
85
330
1F
100
AcDbEntity
  8
@__WIDOCZNE
  6
Continuous
370
    13
100
AcDbHatch
 10
0.0
 20
0.0
 30
0.0
210
0.0
220
0.0
230
1.0
  2
SOLID
 70
     1
 71
     1
 91
        2
 92
        2
 72
     1
 73
     1
 93
       14
 10
-1745.378945529238
 20
482.4790427373575
 42
-0.387209016979461
 10
-1737.643449429657
 20
474.362618708182
 42
0.0
 10
-1737.574328139302
 20
471.29242447845
 42
0.1185067504646354
 10
-1755.348438172751
 20
471.4525460980934
 42
0.2642193030162518
 10
-1768.065550204988
 20
461.3581062250962
 42
0.1757337626801403
 10
-1768.080926769487
 20
450.1807352791929
 42
0.2604621029539542
 10
-1755.804478884416
 20
439.2609715072855
 42
0.0083652857947627
 10
-1752.260288367527
 20
438.9511735996827
 42
0.0
 10
-1737.288899371438
 20
438.9511735996827
 42
0.028992295246684
 10
-1725.069614284467
 20
440.5291400663647
 42
0.0
 10
-1725.696508768956
 20
475.1947331734183
 42
0.4278697545607686
 10
-1743.114318429231
 20
493.5940883685899
 42
0.0
 10
-1760.567750622603
 20
493.6673575324211
 42
0.0
 10
-1763.32956552609
 20
482.4790427373575
 42
0.0
 97
        1
330
86
 92
        2
 72
     1
 73
     1
 93
        6
 10
-1737.464524662476
 20
462.7876415261547
 42
0.1273826308893613
 10
-1751.046762368617
 20
463.137243863508
 42
0.2091253650713026
 10
-1756.41470184461
 20
458.041646634251
 42
0.067218802794298
 10
-1756.351643396618
 20
454.1341080269643
 42
0.2977682718343915
 10
-1750.83129020558
 20
448.4590678256251
 42
0.0710664823309622
 10
-1737.464524662476
 20
448.4851983925939
 42
0.0
 97
        1
330
87
 75
     0
 76
     1
 98
        0
  0
LWPOLYLINE
  5
86
102
{ACAD_REACTORS
330
85
102
}
330
1F
100
AcDbEntity
  8
@__WIDOCZNE
  6
Continuous
370
    13
100
AcDbPolyline
 90
       14
 70
   129
 43
0.0
 10
-1745.378945529238
 20
482.4790427373575
 42
-0.387209016979461
 10
-1737.643449429657
 20
474.362618708182
 10
-1737.574328139302
 20
471.29242447845
 42
0.1185067504646354
 10
-1755.348438172751
 20
471.4525460980934
 42
0.2642193030162518
 10
-1768.065550204988
 20
461.3581062250962
 42
0.1757337626801403
 10
-1768.080926769487
 20
450.1807352791929
 42
0.2604621029539542
 10
-1755.804478884416
 20
439.2609715072855
 42
0.0083652857947627
 10
-1752.260288367527
 20
438.9511735996827
 10
-1737.288899371438
 20
438.9511735996827
 42
0.028992295246684
 10
-1725.069614284467
 20
440.5291400663647
 10
-1725.696508768956
 20
475.1947331734183
 42
0.4278697545607686
 10
-1743.114318429231
 20
493.5940883685899
 10
-1760.567750622603
 20
493.6673575324211
 10
-1763.32956552609
 20
482.4790427373575
  0
LWPOLYLINE
  5
87
102
{ACAD_REACTORS
330
85
102
}
330
1F
100
AcDbEntity
  8
@__WIDOCZNE
  6
Continuous
370
    13
100
AcDbPolyline
 90
        6
 70
   129
 43
0.0
 10
-1737.464524662476
 20
462.7876415261547
 42
0.1273826308893613
 10
-1751.046762368617
 20
463.137243863508
 42
0.2091253650713026
 10
-1756.41470184461
 20
458.041646634251
 42
0.067218802794298
 10
-1756.351643396618
 20
454.1341080269643
 42
0.2977682718343915
 10
-1750.83129020558
 20
448.4590678256251
 42
0.0710664823309622
 10
-1737.464524662476
 20
448.4851983925939
  0
HATCH
  5
88
330
1F
100
AcDbEntity
  8
@__WIDOCZNE
  6
Continuous
370
    13
100
AcDbHatch
 10
0.0
 20
0.0
 30
0.0
210
0.0
220
0.0
230
1.0
  2
SOLID
 70
     1
 71
     1
 91
        1
 92
        2
 72
     1
 73
     1
 93
       26
 10
-1704.198388356196
 20
493.8458433183357
 42
0.0863077155126181
 10
-1715.782746252502
 20
491.0073591905004
 42
0.0
 10
-1715.782746252502
 20
438.9511735996827
 42
0.0
 10
-1702.785044453011
 20
438.9511735996827
 42
0.0
 10
-1702.785044453011
 20
482.5376389123399
 42
-0.12168371550613
 10
-1693.122265044222
 20
483.4900696107696
 42
-0.3861329478031837
 10
-1685.237625678685
 20
474.3073948906506
 42
0.0
 10
-1685.237625678685
 20
438.9511735996827
 42
0.0
 10
-1672.750237854788
 20
438.9511735996827
 42
0.0
 10
-1672.932143332499
 20
473.1533074919707
 42
0.0
 10
-1672.750237854788
 20
473.1570588092258
 42
0.0799288732000265
 10
-1674.003794302233
 20
480.2617178730071
 42
0.0
 10
-1672.73910069438
 20
481.0438318213326
 42
-0.1916235362829357
 10
-1661.562754209956
 20
483.2192186581257
 42
-0.3589776600930252
 10
-1654.78340979552
 20
475.1113156639051
 42
0.0
 10
-1654.777166722257
 20
438.9511735996827
 42
0.0
 10
-1642.868830936786
 20
438.9511735996827
 42
0.0
 10
-1642.874123468252
 20
477.6192016153804
 42
0.3475935087177212
 10
-1657.36666058763
 20
494.2796073610556
 42
0.0
 10
-1667.170892658721
 20
494.2796073610556
 42
0.0002381544695914
 10
-1667.238346976976
 20
494.2748602292835
 42
0.1173548723086789
 10
-1673.239100483088
 20
492.5401660351423
 42
0.1053500657717058
 10
-1679.449964778137
 20
488.6374410712489
 42
0.1560368886834541
 10
-1688.651553086188
 20
493.9576635614913
 42
0.0158994515272265
 10
-1693.078612422363
 20
494.2796073610556
 42
0.0
 10
-1698.77336181702
 20
494.2796073610556
 42
0.0194967579096993
 97
        1
330
89
 75
     0
 76
     1
 98
        0
  0
LWPOLYLINE
  5
89
102
{ACAD_REACTORS
330
88
102
}
330
1F
100
AcDbEntity
  8
@__WIDOCZNE
  6
Continuous
370
    13
100
AcDbPolyline
 90
       26
 70
   129
 43
0.0
 10
-1704.198388356196
 20
493.8458433183357
 42
0.0863077155126181
 10
-1715.782746252502
 20
491.0073591905004
 10
-1715.782746252502
 20
438.9511735996827
 10
-1702.785044453011
 20
438.9511735996827
 10
-1702.785044453011
 20
482.5376389123399
 42
-0.12168371550613
 10
-1693.122265044222
 20
483.4900696107696
 42
-0.3861329478031837
 10
-1685.237625678685
 20
474.3073948906506
 10
-1685.237625678685
 20
438.9511735996827
 10
-1672.750237854788
 20
438.9511735996827
 10
-1672.932143332499
 20
473.1533074919707
 10
-1672.750237854788
 20
473.1570588092258
 42
0.0799288732000265
 10
-1674.003794302233
 20
480.2617178730071
 10
-1672.73910069438
 20
481.0438318213326
 42
-0.1916235362829357
 10
-1661.562754209956
 20
483.2192186581257
 42
-0.3589776600930252
 10
-1654.78340979552
 20
475.1113156639051
 10
-1654.777166722257
 20
438.9511735996827
 10
-1642.868830936786
 20
438.9511735996827
 10
-1642.874123468252
 20
477.6192016153804
 42
0.3475935087177212
 10
-1657.36666058763
 20
494.2796073610556
 10
-1667.170892658721
 20
494.2796073610556
 42
0.0002381544695914
 10
-1667.238346976976
 20
494.2748602292835
 42
0.1173548723086789
 10
-1673.239100483088
 20
492.5401660351423
 42
0.1053500657717058
 10
-1679.449964778137
 20
488.6374410712489
 42
0.1560368886834541
 10
-1688.651553086188
 20
493.9576635614913
 42
0.0158994515272265
 10
-1693.078612422363
 20
494.2796073610556
 10
-1698.77336181702
 20
494.2796073610556
 42
0.0194967579096993
  0
HATCH
  5
8A
330
1F
100
AcDbEntity
  8
@__WIDOCZNE
  6
Continuous
370
    13
100
AcDbHatch
 10
0.0
 20
0.0
 30
0.0
210
0.0
220
0.0
230
1.0
  2
SOLID
 70
     1
 71
     1
 91
        2
 92
        2
 72
     1
 73
     1
 93
       14
 10
-1614.164290040024
 20
493.0344568680625
 42
0.2809658966461606
 10
-1632.559778033305
 20
474.0040190268797
 42
0.1091159824470767
 10
-1632.545983001144
 20
457.0352121533408
 42
0.2766399819923606
 10
-1614.066078512207
 20
439.6923715295682
 42
0.0392105095801167
 10
-1608.998548032178
 20
438.9733670953
 42
0.0
 10
-1591.383049920814
 20
438.9511735996827
 42
0.0
 10
-1589.184423721429
 20
449.8256567290373
 42
0.0
 10
-1607.586468273167
 20
449.8256567290373
 42
-0.1667294674755062
 10
-1615.5643146777
 20
452.5620079427129
 42
-0.081638462027361
 10
-1619.662035927927
 20
457.8317530386127
 42
-0.0661503038161424
 10
-1620.215334957533
 20
461.3705614671304
 42
0.0
 10
-1585.042525920222
 20
461.3705614671304
 42
0.0
 10
-1585.042525920222
 20
472.6092105086377
 42
0.3105787245802772
 10
-1601.826375949016
 20
493.0619326133112
 42
0.1083142208160692
 97
        1
330
8B
 92
        2
 72
     1
 73
     1
 93
        5
 10
-1605.160813196457
 20
483.668095801167
 42
0.1431069476368757
 10
-1611.105556534525
 20
483.8790511659117
 42
0.3279495498710064
 10
-1620.210690757235
 20
471.4692354700916
 42
0.0
 10
-1596.837795763235
 20
471.4692354700916
 42
0.0
 10
-1596.837795763235
 20
472.4248097594057
 42
0.3298596086471468
 97
        1
330
8C
 75
     0
 76
     1
 98
        0
  0
LWPOLYLINE
  5
8B
102
{ACAD_REACTORS
330
8A
102
}
330
1F
100
AcDbEntity
  8
@__WIDOCZNE
  6
Continuous
370
    13
100
AcDbPolyline
 90
       14
 70
   129
 43
0.0
 10
-1614.164290040024
 20
493.0344568680625
 42
0.2809658966461606
 10
-1632.559778033305
 20
474.0040190268797
 42
0.1091159824470767
 10
-1632.545983001144
 20
457.0352121533408
 42
0.2766399819923606
 10
-1614.066078512207
 20
439.6923715295682
 42
0.0392105095801167
 10
-1608.998548032178
 20
438.9733670953
 10
-1591.383049920814
 20
438.9511735996827
 10
-1589.184423721429
 20
449.8256567290373
 10
-1607.586468273167
 20
449.8256567290373
 42
-0.1667294674755062
 10
-1615.5643146777
 20
452.5620079427129
 42
-0.081638462027361
 10
-1619.662035927927
 20
457.8317530386127
 42
-0.0661503038161424
 10
-1620.215334957533
 20
461.3705614671304
 10
-1585.042525920222
 20
461.3705614671304
 10
-1585.042525920222
 20
472.6092105086377
 42
0.3105787245802772
 10
-1601.826375949016
 20
493.0619326133112
 42
0.1083142208160692
  0
LWPOLYLINE
  5
8C
102
{ACAD_REACTORS
330
8A
102
}
330
1F
100
AcDbEntity
  8
@__WIDOCZNE
  6
Continuous
370
    13
100
AcDbPolyline
 90
        5
 70
   129
 43
0.0
 10
-1605.160813196457
 20
483.668095801167
 42
0.1431069476368757
 10
-1611.105556534525
 20
483.8790511659117
 42
0.3279495498710064
 10
-1620.210690757235
 20
471.4692354700916
 10
-1596.837795763235
 20
471.4692354700916
 10
-1596.837795763235
 20
472.4248097594057
 42
0.3298596086471468
  0
HATCH
  5
8D
330
1F
100
AcDbEntity
  8
@__WIDOCZNE
  6
Continuous
370
    13
100
AcDbHatch
 10
0.0
 20
0.0
 30
0.0
210
0.0
220
0.0
230
1.0
  2
SOLID
 70
     1
 71
     1
 91
        1
 92
        2
 72
     1
 73
     1
 93
       13
 10
-1547.553218627897
 20
493.9228903084818
 42
0.0175531184166386
 10
-1553.169542088316
 20
494.2796073610556
 42
0.0
 10
-1557.711161373943
 20
494.2796073610556
 42
0.0177750747803509
 10
-1563.398296898193
 20
493.9158586701524
 42
0.0683229953867364
 10
-1576.0391826836
 20
491.422271938496
 42
0.0
 10
-1576.0391826836
 20
438.9511735996827
 42
0.0
 10
-1563.542212098793
 20
438.9511735996827
 42
0.0
 10
-1563.542212098793
 20
482.5821128046208
 42
-0.0958663550348273
 10
-1551.360549851644
 20
483.1376236152327
 42
-0.3633763851128492
 10
-1544.00503724245
 20
474.3529676045874
 42
0.0
 10
-1544.00503724245
 20
438.9511735996827
 42
0.0
 10
-1531.834896717402
 20
438.9511735996827
 42
0.0
 10
-1531.834896717402
 20
476.2461502028004
 42
0.3803017440747632
 97
        1
330
8E
 75
     0
 76
     1
 98
        0
  0
LWPOLYLINE
  5
8E
102
{ACAD_REACTORS
330
8D
102
}
330
1F
100
AcDbEntity
  8
@__WIDOCZNE
  6
Continuous
370
    13
100
AcDbPolyline
 90
       13
 70
   129
 43
0.0
 10
-1547.553218627897
 20
493.9228903084818
 42
0.0175531184166386
 10
-1553.169542088316
 20
494.2796073610556
 10
-1557.711161373943
 20
494.2796073610556
 42
0.0177750747803509
 10
-1563.398296898193
 20
493.9158586701524
 42
0.0683229953867364
 10
-1576.0391826836
 20
491.422271938496
 10
-1576.0391826836
 20
438.9511735996827
 10
-1563.542212098793
 20
438.9511735996827
 10
-1563.542212098793
 20
482.5821128046208
 42
-0.0958663550348273
 10
-1551.360549851644
 20
483.1376236152327
 42
-0.3633763851128492
 10
-1544.00503724245
 20
474.3529676045874
 10
-1544.00503724245
 20
438.9511735996827
 10
-1531.834896717402
 20
438.9511735996827
 10
-1531.834896717402
 20
476.2461502028004
 42
0.3803017440747632
  0
HATCH
  5
8F
330
1F
100
AcDbEntity
  8
@__WIDOCZNE
  6
Continuous
370
    13
100
AcDbHatch
 10
0.0
 20
0.0
 30
0.0
210
0.0
220
0.0
230
1.0
  2
SOLID
 70
     1
 71
     1
 91
        1
 92
        2
 72
     1
 73
     1
 93
       12
 10
-1522.352887578065
 20
456.2154273196086
 42
0.3564817226562251
 10
-1505.088736736603
 20
439.0107741805036
 42
0.0
 10
-1492.642244590944
 20
439.0537428829824
 42
0.0
 10
-1489.989740801132
 20
450.6584469634121
 42
0.0
 10
-1502.700156171844
 20
450.6584469634121
 42
-0.3014632934563285
 10
-1510.073622884566
 20
458.031913676135
 42
0.0
 10
-1510.073622884566
 20
482.8134706099469
 42
0.0
 10
-1494.152203409097
 20
482.8134706099469
 42
0.0
 10
-1494.152203409097
 20
494.2796073610556
 42
0.0
 10
-1510.073622884566
 20
494.2796073610556
 42
0.0
 10
-1510.073622884566
 20
509.7654159965252
 42
0.0
 10
-1522.352887578065
 20
507.2679384317447
 42
0.0
 97
        1
330
90
 75
     0
 76
     1
 98
        0
  0
LWPOLYLINE
  5
90
102
{ACAD_REACTORS
330
8F
102
}
330
1F
100
AcDbEntity
  8
@__WIDOCZNE
  6
Continuous
370
    13
100
AcDbPolyline
 90
       12
 70
   129
 43
0.0
 10
-1522.352887578065
 20
456.2154273196086
 42
0.3564817226562251
 10
-1505.088736736603
 20
439.0107741805036
 10
-1492.642244590944
 20
439.0537428829824
 10
-1489.989740801132
 20
450.6584469634121
 10
-1502.700156171844
 20
450.6584469634121
 42
-0.3014632934563285
 10
-1510.073622884566
 20
458.031913676135
 10
-1510.073622884566
 20
482.8134706099469
 10
-1494.152203409097
 20
482.8134706099469
 10
-1494.152203409097
 20
494.2796073610556
 10
-1510.073622884566
 20
494.2796073610556
 10
-1510.073622884566
 20
509.7654159965252
 10
-1522.352887578065
 20
507.2679384317447
  0
HATCH
  5
91
330
1F
100
AcDbEntity
  8
@__WIDOCZNE
  6
Continuous
370
    13
100
AcDbHatch
 10
0.0
 20
0.0
 30
0.0
210
0.0
220
0.0
230
1.0
  2
SOLID
 70
     1
 71
     1
 91
        2
 92
        2
 72
     1
 73
     1
 93
        9
 10
-1848.353175529132
 20
493.8047595224397
 42
0.2820479307333718
 10
-1867.197331750688
 20
474.7523498424837
 42
0.0886832537999132
 10
-1867.163046105806
 20
457.4522086081061
 42
0.2508564250541997
 10
-1849.731031447699
 20
438.9511735996827
 42
0.0
 10
-1834.716311145267
 20
438.9511735996827
 42
0.2670900430231695
 10
-1817.07116219828
 20
459.1331740407398
 42
0.1207336614180937
 10
-1817.027114476575
 20
473.8218323759835
 42
0.3094451166888095
 10
-1835.711720033201
 20
493.7702245942781
 42
0.0268897328129527
 10
-1839.056832065551
 20
494.2796073610556
 42
0.074328415179198
 97
        1
330
92
 92
        2
 72
     1
 73
     1
 93
        8
 10
-1854.789955882416
 20
472.1409750012342
 42
0.0948073731652809
 10
-1854.886012577468
 20
460.9222157958766
 42
0.0590800675341869
 10
-1853.794519113519
 20
457.1907448309152
 42
0.6394418664691048
 10
-1830.873453923095
 20
456.4944706469618
 42
0.0835238969854629
 10
-1829.438696118692
 20
461.1879760272963
 42
0.0916297819744675
 10
-1829.666234472701
 20
472.7074852609559
 42
0.2559732989582162
 10
-1838.078277064552
 20
483.1369015395925
 42
0.1954327814670101
 10
-1846.631108014911
 20
482.7883681140837
 42
0.2505066079508973
 97
        1
330
93
 75
     0
 76
     1
 98
        0
  0
LWPOLYLINE
  5
92
102
{ACAD_REACTORS
330
91
102
}
330
1F
100
AcDbEntity
  8
@__WIDOCZNE
  6
Continuous
370
    13
100
AcDbPolyline
 90
        9
 70
   129
 43
0.0
 10
-1848.353175529132
 20
493.8047595224397
 42
0.2820479307333718
 10
-1867.197331750688
 20
474.7523498424837
 42
0.0886832537999132
 10
-1867.163046105806
 20
457.4522086081061
 42
0.2508564250541997
 10
-1849.731031447699
 20
438.9511735996827
 10
-1834.716311145267
 20
438.9511735996827
 42
0.2670900430231695
 10
-1817.07116219828
 20
459.1331740407398
 42
0.1207336614180937
 10
-1817.027114476575
 20
473.8218323759835
 42
0.3094451166888095
 10
-1835.711720033201
 20
493.7702245942781
 42
0.0268897328129527
 10
-1839.056832065551
 20
494.2796073610556
 42
0.074328415179198
  0
LWPOLYLINE
  5
93
102
{ACAD_REACTORS
330
91
102
}
330
1F
100
AcDbEntity
  8
@__WIDOCZNE
  6
Continuous
370
    13
100
AcDbPolyline
 90
        8
 70
   129
 43
0.0
 10
-1854.789955882416
 20
472.1409750012342
 42
0.0948073731652809
 10
-1854.886012577468
 20
460.9222157958766
 42
0.0590800675341869
 10
-1853.794519113519
 20
457.1907448309152
 42
0.6394418664691048
 10
-1830.873453923095
 20
456.4944706469618
 42
0.0835238969854629
 10
-1829.438696118692
 20
461.1879760272963
 42
0.0916297819744675
 10
-1829.666234472701
 20
472.7074852609559
 42
0.2559732989582162
 10
-1838.078277064552
 20
483.1369015395925
 42
0.1954327814670101
 10
-1846.631108014911
 20
482.7883681140837
 42
0.2505066079508973
  0
HATCH
  5
94
330
1F
100
AcDbEntity
  8
@__WIDOCZNE
  6
Continuous
370
    13
100
AcDbHatch
 10
0.0
 20
0.0
 30
0.0
210
0.0
220
0.0
230
1.0
  2
Cegła_zwykła
 70
     0
 71
     1
 91
        1
 92
        2
 72
     0
 73
     1
 93
        4
 10
-710.0307926723085
 20
1928.789552898971
 10
-710.0307926723085
 20
1908.78955289897
 10
-300.0311619633398
 20
1908.78955289897
 10
-300.0311619633398
 20
1928.789552898971
 97
        1
330
95
 75
     0
 76
     2
 52
0.0
 41
1.0
 77
     0
 78
     1
 53
135.0
 43
-333.4134881098132
 44
1918.78955289897
 45
9.19238781825033
 46
9.192387818250328
 79
     0
 98
        0
  0
LWPOLYLINE
  5
95
102
{ACAD_REACTORS
330
94
102
}
330
1F
100
AcDbEntity
  8
@__WIDOCZNE
  6
Continuous
370
    25
100
AcDbPolyline
 90
        4
 70
   129
 43
0.0
 10
-710.0307926723085
 20
1928.789552898971
 10
-710.0307926723085
 20
1908.78955289897
 10
-300.0311619633398
 20
1908.78955289897
 10
-300.0311619633398
 20
1928.789552898971
  0
WIPEOUT
  5
9E
330
1F
100
AcDbEntity
  8
2D - Ogólne
  6
Wipeout_Contour
 62
   254
 48
8798.416272702483
370
     0
 92
      140
310
8C00000001000000840000000600000005000000D7DAB89FFB3F91C0980953B0896B9C400000000000000000D7DAB89FFB3F91C0B27E6FD732EC9E4000000000000000007ECD4D4D376A91C0B27E6FD732EC9E4000000000000000007ECD4D4D376A91C0980953B0896B9C400000000000000000D7DAB89FFB3F91C0980953
310
B0896B9C400000000000000000
100
AcDbWipeout
 90
        0
 10
-1114.55400582854
 20
1818.884461686574
 30
0.0
 11
10.55827934962304
 21
0.0
 31
0.0
 12
0.0
 22
160.1651882597421
 32
0.0
 13
1.0
 23
1.0
340
0
 70
    15
280
     1
281
    50
282
    50
283
     0
360
0
 71
     2
 91
        5
 14
0.4999999999999892
 24
0.5
 14
0.4999999999999892
 24
-0.5
 14
-0.5000000000000108
 24
-0.5
 14
-0.5000000000000108
 24
0.5
 14
0.4999999999999892
 24
0.5
  0
INSERT
  5
9F
330
1F
100
AcDbEntity
  8
2D - Ogólne
  6
Continuous
370
    13
100
AcDbBlockReference
  2
*X1
 10
0.0
 20
0.0
 30
0.0
  0
LINE
  5
A0
330
1F
100
AcDbEntity
  8
2D - Ogólne
  6
Continuous
370
    13
100
AcDbLine
 10
-1103.995726478917
 20
1818.884461686574
 30
0.0
 11
-1103.995726478917
 21
1979.049649946316
 31
0.0
  0
LINE
  5
A1
330
1F
100
AcDbEntity
  8
2D - Ogólne
  6
Continuous
370
    13
100
AcDbLine
 10
-1103.995726478917
 20
1979.049649946316
 30
0.0
 11
-1114.55400582854
 21
1979.049649946316
 31
0.0
  0
LINE
  5
A2
330
1F
100
AcDbEntity
  8
2D - Ogólne
  6
Continuous
370
    13
100
AcDbLine
 10
-1114.55400582854
 20
1979.049649946316
 30
0.0
 11
-1114.55400582854
 21
1818.884461686574
 31
0.0
  0
LINE
  5
A3
330
1F
100
AcDbEntity
  8
2D - Ogólne
  6
Continuous
370
    13
100
AcDbLine
 10
-1114.55400582854
 20
1818.884461686574
 30
0.0
 11
-1103.995726478917
 21
1818.884461686574
 31
0.0
  0
WIPEOUT
  5
AC
330
1F
100
AcDbEntity
  8
2D - Ogólne
  6
Wipeout_Contour
 62
   254
 48
8658.646920485542
370
     0
 92
      140
310
8C0000000100000084000000060000000500000077D8E175ABE58DC0B04459B18B359C40000000000000000077D8E175ABE58DC05EA970F52C2EA0400000000000000000C5BD0BD1223A8EC05EA970F52C2EA0400000000000000000C5BD0BD1223A8EC0B04459B18B359C40000000000000000077D8E175ABE58DC0B04459
310
B18B359C400000000000000000
100
AcDbWipeout
 90
        0
 10
-967.2670002858437
 20
1805.386418719118
 30
0.0
 11
10.55827934962304
 21
0.0
 31
0.0
 12
0.0
 22
265.7013913401197
 32
0.0
 13
1.0
 23
1.0
340
0
 70
    15
280
     1
281
    50
282
    50
283
     0
360
0
 71
     2
 91
        5
 14
0.5
 24
0.5
 14
0.5
 24
-0.5
 14
-0.5
 24
-0.5
 14
-0.5
 24
0.5
 14
0.5
 24
0.5
  0
INSERT
  5
AD
330
1F
100
AcDbEntity
  8
2D - Ogólne
  6
Continuous
370
    13
100
AcDbBlockReference
  2
*X2
 10
0.0
 20
0.0
 30
0.0
  0
LINE
  5
AE
330
1F
100
AcDbEntity
  8
2D - Ogólne
  6
Continuous
370
    13
100
AcDbLine
 10
-956.7087209362206
 20
1805.386418719118
 30
0.0
 11
-956.7087209362206
 21
2071.087810059237
 31
0.0
  0
LINE
  5
AF
330
1F
100
AcDbEntity
  8
2D - Ogólne
  6
Continuous
370
    13
100
AcDbLine
 10
-956.7087209362206
 20
2071.087810059237
 30
0.0
 11
-967.2670002858437
 21
2071.087810059237
 31
0.0
  0
LINE
  5
B0
330
1F
100
AcDbEntity
  8
2D - Ogólne
  6
Continuous
370
    13
100
AcDbLine
 10
-967.2670002858437
 20
2071.087810059237
 30
0.0
 11
-967.2670002858437
 21
1805.386418719118
 31
0.0
  0
LINE
  5
B1
330
1F
100
AcDbEntity
  8
2D - Ogólne
  6
Continuous
370
    13
100
AcDbLine
 10
-967.2670002858437
 20
1805.386418719118
 30
0.0
 11
-956.7087209362206
 21
1805.386418719118
 31
0.0
  0
HATCH
  5
B2
330
1F
100
AcDbEntity
  8
@__WIDOCZNE
  6
Continuous
370
    13
100
AcDbHatch
 10
0.0
 20
0.0
 30
0.0
210
0.0
220
0.0
230
1.0
  2
SOLID
 70
     1
 71
     0
 91
        1
 92
        2
 72
     1
 73
     1
 93
        6
 10
-1137.578867767383
 20
1803.83299041583
 42
0.0
 10
-1137.578867767383
 20
1808.789198418381
 42
0.0
 10
-1122.70190529932
 20
1809.586217495827
 42
0.3768331258301952
 10
-1114.55400582854
 20
1818.884461686574
 42
0.0
 10
-1103.995726478917
 20
1818.884461686574
 42
-0.2590151044633122
 10
-1112.102910809957
 20
1804.284380966894
 42
0.0
 97
        0
 75
     0
 76
     1
 98
        0
  0
HATCH
  5
B3
330
1F
100
AcDbEntity
  8
@__WIDOCZNE
  6
Continuous
370
    13
100
AcDbHatch
 10
0.0
 20
0.0
 30
0.0
210
0.0
220
0.0
230
1.0
  2
SOLID
 70
     1
 71
     0
 91
        1
 92
        2
 72
     0
 73
     1
 93
        4
 10
-1181.174111635475
 20
1802.992422876525
 10
-1181.174111635475
 20
1806.515343348685
 10
-1230.888415790779
 20
1803.897214621019
 10
-1230.888415790779
 20
1802.179704206713
 97
        0
 75
     0
 76
     1
 98
        0
  0
INSERT
  5
F8
330
1F
100
AcDbEntity
  8
@__WIDOCZNE
  6
Continuous
 62
     4
370
    13
100
AcDbBlockReference
  2
Izolacja cieplna 12_49
 10
-715.2760627283834
 20
1796.942789906461
 30
0.0
  0
INSERT
  5
12D
330
1F
100
AcDbEntity
  8
@__WIDOCZNE
  6
Continuous
 62
     4
370
    13
100
AcDbBlockReference
  2
Izolacja cieplna 12_47
 10
-957.7742371524151
 20
1979.000562498778
 30
0.0
  0
INSERT
  5
15A
330
1F
100
AcDbEntity
  8
@__WIDOCZNE
  6
Continuous
 62
     4
370
    13
100
AcDbBlockReference
  2
Izolacja cieplna 12_46
 10
-1155.276058741447
 20
1634.844889213809
 30
0.0
  0
INSERT
  5
162
330
1F
100
AcDbEntity
  8
@__WIDOCZNE
  6
Continuous
 62
     4
370
    13
100
AcDbBlockReference
 66
     1
  2
Symbol nachylenia 12_89
 10
-1450.211484735834
 20
1847.37587839579
 30
0.0
  0
ATTRIB
  5
163
330
162
100
AcDbEntity
  8
@__WIDOCZNE
  6
Continuous
370
    13
100
AcDbText
 10
-1530.289612169947
 20
1852.731059849109
 30
0.0
 40
20.0
  1
1,5%
 50
1.080306662119324
  7
GENERATED_STYLE_1
 11
-1530.178168589543
 21
1846.821173009473
 31
0.0
100
AcDbAttribute
  2
txt
 70
     0
 74
     1
  0
SEQEND
  5
164
330
162
100
AcDbEntity
  8
@__WIDOCZNE
  6
Continuous
 62
     4
370
    13
  0
INSERT
  5
181
330
1F
100
AcDbEntity
  8
@__WIDOCZNE
  6
Continuous
370
    13
100
AcDbBlockReference
  2
Izolacja cieplna 12_17
 10
-695.2760631269373
 20
1857.662563389789
 30
0.0
  0
LINE
  5
183
330
1F
100
AcDbEntity
  8
@__WIDOCZNE
  6
Przerywana gęsta
370
    13
100
AcDbLine
 10
-1889.092800551083
 20
1828.940096275225
 30
0.0
 11
-1140.933564263193
 21
1828.940096275225
 31
0.0
  0
LINE
  5
184
330
1F
100
AcDbEntity
  8
@__WIDOCZNE
  6
Przerywana gęsta
370
    13
100
AcDbLine
 10
-1889.092800551083
 20
1978.940096275225
 30
0.0
 11
-1159.745478944645
 21
1978.940096275225
 31
0.0
  0
LINE
  5
185
330
1F
100
AcDbEntity
  8
@__WIDOCZNE
  6
Przerywana gęsta
 62
   255
370
     0
100
AcDbLine
 10
-1930.000000000318
 20
631.8181818181814
 30
0.0
 11
-1930.000000000318
 21
3281.818181818182
 31
0.0
  0
LINE
  5
186
330
1F
100
AcDbEntity
  8
@__WIDOCZNE
  6
Continuous
370
    13
100
AcDbLine
 10
-1105.276062728393
 20
1979.049649946316
 30
0.0
 11
-1105.276062728393
 21
1861.291781750424
 31
0.0
  0
LINE
  5
187
330
1F
100
AcDbEntity
  8
@__WIDOCZNE
  6
Continuous
370
    13
100
AcDbLine
 10
-1135.120319856512
 20
1834.952013926151
 30
0.0
 11
-1135.120319856512
 21
1979.000562498778
 31
0.0
  0
LINE
  5
188
330
1F
100
AcDbEntity
  8
@__WIDOCZNE
  6
Continuous
370
    13
100
AcDbLine
 10
-1120.120319856512
 20
1959.904030221377
 30
0.0
 11
-1120.120319856512
 21
1979.000562498778
 31
0.0
  0
LINE
  5
189
330
1F
100
AcDbEntity
  8
@__WIDOCZNE
  6
Continuous
370
    13
100
AcDbLine
 10
-1852.2745477528
 20
1815.731526272744
 30
0.0
 11
-1140.93350226242
 21
1828.936756409587
 31
0.0
  0
LINE
  5
18A
330
1F
100
AcDbEntity
  8
@__WIDOCZNE
  6
Continuous
370
    13
100
AcDbLine
 10
-1280.037104314119
 20
1801.308873186167
 30
0.0
 11
-1122.601793903909
 21
1809.599965980029
 31
0.0
  0
LINE
  5
18B
330
1F
100
AcDbEntity
  8
@__WIDOCZNE
  6
Continuous
370
    13
100
AcDbLine
 10
-1137.666601732456
 20
1808.784593218842
 30
0.0
 11
-1137.578867767383
 21
1803.83299041583
 31
0.0
  0
LWPOLYLINE
  5
18C
330
1F
100
AcDbEntity
  8
@__WIDOCZNE
  6
Continuous
370
    13
100
AcDbPolyline
 90
        2
 70
   129
 43
0.0
 10
-150.0000000001365
 20
421.8181818181839
 10
-1414.269721801409
 20
421.8181818181839
  0
LWPOLYLINE
  5
18D
330
1F
100
AcDbEntity
  8
@__WIDOCZNE
  6
Continuous
370
    13
100
AcDbPolyline
 90
        4
 70
   129
 43
0.0
 10
-1950.000000000318
 20
581.8181818181831
 10
-1950.000000000318
 20
361.8181818181833
 10
-150.0000000001365
 20
361.8181818181843
 10
-150.0000000001365
 20
581.818181818184
  0
LWPOLYLINE
  5
18E
330
1F
100
AcDbEntity
  8
@__WIDOCZNE
  6
Continuous
370
    13
100
AcDbPolyline
 90
        2
 70
   128
 43
0.0
 10
-290.0000000000092
 20
531.8181818181841
 10
-290.0000000000092
 20
581.818181818184
  0
LWPOLYLINE
  5
18F
330
1F
100
AcDbEntity
  8
@__WIDOCZNE
  6
Continuous
370
    13
100
AcDbPolyline
 90
        2
 70
   128
 43
0.0
 10
-150.0000000001365
 20
531.8181818181841
 10
-460.0000000000819
 20
531.8181818181841
  0
LWPOLYLINE
  5
190
330
1F
100
AcDbEntity
  8
@__WIDOCZNE
  6
Continuous
370
    13
100
AcDbPolyline
 90
        2
 70
   128
 43
0.0
 10
-460.0000000000819
 20
421.8181818181839
 10
-460.0000000000819
 20
581.818181818184
  0
LWPOLYLINE
  5
191
330
1F
100
AcDbEntity
  8
@__WIDOCZNE
  6
Continuous
370
    13
100
AcDbPolyline
 90
        4
 70
   129
 43
0.0
 10
-1950.000000000318
 20
3231.818181818185
 10
-149.9999999999091
 20
3231.818181818185
 10
-149.9999999999091
 20
581.818181818184
 10
-1950.000000000318
 20
581.818181818184
  0
LWPOLYLINE
  5
192
330
1F
100
AcDbEntity
  8
@__WIDOCZNE
  6
Continuous
370
    13
100
AcDbPolyline
 90
        4
 70
   129
 43
0.0
 10
-100.0
 20
311.8181818181844
 10
-2200.000000000363
 20
311.8181818181844
 10
-2200.000000000363
 20
3281.818181818184
 10
-100.0
 20
3281.818181818184
  0
LWPOLYLINE
  5
193
330
1F
100
AcDbEntity
  8
@__WIDOCZNE
  6
Continuous
370
   100
100
AcDbPolyline
 90
        8
 70
   128
 43
0.0
 10
-1125.276062728166
 20
1746.943361576876
 10
-355.2760627281651
 20
1746.943361576876
 10
-948.3845855115278
 20
1746.943361576876
 10
-1100.527303471311
 20
1664.847244670166
 42
-0.5677978680865117
 10
-1115.276062728166
 20
1673.64777224074
 10
-1115.276062728166
 20
1736.943361576877
 42
0.414213562373095
 10
-1125.276062728166
 20
1746.943361576876
 10
-1665.276062728167
 20
1746.943361576876
  0
LINE
  5
194
330
1F
100
AcDbEntity
  8
@__WIDOCZNE
  6
Continuous
 62
   104
370
    13
100
AcDbLine
 10
-1137.793079818892
 20
1830.80350718978
 30
0.0
 11
-1165.670453773589
 21
1838.713192014766
 31
0.0
  0
LINE
  5
195
330
1F
100
AcDbEntity
  8
@__WIDOCZNE
  6
Continuous
 62
   104
370
    13
100
AcDbLine
 10
-1137.793079818892
 20
1830.80350718978
 30
0.0
 11
-1157.98074919276
 21
1851.592184345674
 31
0.0
  0
LINE
  5
196
330
1F
100
AcDbEntity
  8
@__WIDOCZNE
  6
Continuous
 62
   104
370
    13
100
AcDbLine
 10
-1165.670453773589
 20
1838.713192014766
 30
0.0
 11
-1157.98074919276
 21
1851.592184345674
 31
0.0
  0
HATCH
  5
197
330
1F
100
AcDbEntity
  8
@__WIDOCZNE
  6
Continuous
 62
   104
370
    13
100
AcDbHatch
 10
0.0
 20
0.0
 30
0.0
210
0.0
220
0.0
230
1.0
  2
SOLID
 70
     1
 71
     0
 91
        1
 92
        2
 72
     0
 73
     1
 93
        3
 10
-1137.793079818892
 20
1830.80350718978
 10
-1165.670453773589
 20
1838.713192014766
 10
-1157.98074919276
 20
1851.592184345674
 97
        0
 75
     0
 76
     1
 98
        0
  0
LWPOLYLINE
  5
198
330
1F
100
AcDbEntity
  8
@__WIDOCZNE
  6
Continuous
 62
   104
370
    25
100
AcDbPolyline
 90
        3
 70
   128
 43
0.0
 10
-1850.183941487926
 20
1996.956072655318
 10
-1416.071340563316
 20
1996.956072655318
 10
-1161.825601483175
 20
1845.15268818022
  0
LINE
  5
199
330
1F
100
AcDbEntity
  8
@__WIDOCZNE
  6
Continuous
 62
   104
370
    13
100
AcDbLine
 10
-1155.149484363573
 20
1809.968625558922
 30
0.0
 11
-1183.091773609102
 21
1817.645836273746
 31
0.0
  0
LINE
  5
19A
330
1F
100
AcDbEntity
  8
@__WIDOCZNE
  6
Continuous
 62
   104
370
    13
100
AcDbLine
 10
-1155.149484363573
 20
1809.968625558922
 30
0.0
 11
-1175.509609101748
 21
1830.588431893769
 31
0.0
  0
LINE
  5
19B
330
1F
100
AcDbEntity
  8
@__WIDOCZNE
  6
Continuous
 62
   104
370
    13
100
AcDbLine
 10
-1183.091773609102
 20
1817.645836273746
 30
0.0
 11
-1175.509609101748
 21
1830.588431893769
 31
0.0
  0
HATCH
  5
19C
330
1F
100
AcDbEntity
  8
@__WIDOCZNE
  6
Continuous
 62
   104
370
    13
100
AcDbHatch
 10
0.0
 20
0.0
 30
0.0
210
0.0
220
0.0
230
1.0
  2
SOLID
 70
     1
 71
     0
 91
        1
 92
        2
 72
     0
 73
     1
 93
        3
 10
-1155.149484363573
 20
1809.968625558922
 10
-1183.091773609102
 20
1817.645836273746
 10
-1175.509609101748
 20
1830.588431893769
 97
        0
 75
     0
 76
     1
 98
        0
  0
LWPOLYLINE
  5
19D
330
1F
100
AcDbEntity
  8
@__WIDOCZNE
  6
Continuous
 62
   104
370
    25
100
AcDbPolyline
 90
        3
 70
   128
 43
0.0
 10
-1852.530619902388
 20
1913.104933874494
 10
-1331.200997223215
 20
1913.104933874494
 10
-1179.300691355425
 20
1824.117134083758
  0
LWPOLYLINE
  5
19E
330
1F
100
AcDbEntity
  8
@__WIDOCZNE
  6
Continuous
370
    25
100
AcDbPolyline
 90
        5
 70
   129
 43
0.0
 10
-1120.120319856512
 20
1834.952013926151
 10
-1120.120319856512
 20
1814.329907896591
 10
-1140.933564263193
 20
1813.937429573494
 10
-1140.933564263193
 20
1828.940096275225
 42
0.2356960809156293
 10
-1135.120319856512
 20
1834.952013926151
  0
LINE
  5
19F
330
1F
100
AcDbEntity
  8
@__WIDOCZNE
  6
Continuous
 62
   104
370
    13
100
AcDbLine
 10
-1114.227323860693
 20
1893.621130538337
 30
0.0
 11
-1142.021807507081
 21
1901.817335237543
 31
0.0
  0
LINE
  5
1A0
330
1F
100
AcDbEntity
  8
@__WIDOCZNE
  6
Continuous
 62
   104
370
    13
100
AcDbLine
 10
-1114.227323860693
 20
1893.621130538337
 30
0.0
 11
-1134.199948162367
 21
1914.616496006574
 31
0.0
  0
LINE
  5
1A1
330
1F
100
AcDbEntity
  8
@__WIDOCZNE
  6
Continuous
 62
   104
370
    13
100
AcDbLine
 10
-1142.021807507081
 20
1901.817335237543
 30
0.0
 11
-1134.199948162367
 21
1914.616496006574
 31
0.0
  0
HATCH
  5
1A2
330
1F
100
AcDbEntity
  8
@__WIDOCZNE
  6
Continuous
 62
   104
370
    13
100
AcDbHatch
 10
0.0
 20
0.0
 30
0.0
210
0.0
220
0.0
230
1.0
  2
SOLID
 70
     1
 71
     0
 91
        1
 92
        2
 72
     0
 73
     1
 93
        3
 10
-1114.227323860693
 20
1893.621130538337
 10
-1142.021807507081
 20
1901.817335237543
 10
-1134.199948162367
 20
1914.616496006574
 97
        0
 75
     0
 76
     1
 98
        0
  0
LWPOLYLINE
  5
1A3
330
1F
100
AcDbEntity
  8
@__WIDOCZNE
  6
Continuous
 62
   104
370
    25
100
AcDbPolyline
 90
        3
 70
   128
 43
0.0
 10
-1850.183941487926
 20
2044.10263999619
 10
-1360.465072129457
 20
2044.10263999619
 10
-1138.110877834724
 20
1908.216915622058
  0
LWPOLYLINE
  5
1A4
330
1F
100
AcDbEntity
  8
@__WIDOCZNE
  6
Continuous
370
    13
100
AcDbPolyline
 90
        2
 70
   128
 43
0.0
 10
-1414.269721801409
 20
581.8181818181831
 10
-1414.269721801409
 20
361.8181818181825
  0
LWPOLYLINE
  5
1A5
330
1F
100
AcDbEntity
  8
0
  6
Continuous
370
    25
100
AcDbPolyline
 90
        4
 70
   129
 43
0.0
 10
-705.2760627283833
 20
2028.789552898971
 10
-690.2760627283833
 20
2021.688295576978
 10
-690.2760627283833
 20
1928.789552898971
 10
-705.2760627283833
 20
1928.789552898971
  0
LWPOLYLINE
  5
1A6
330
1F
100
AcDbEntity
  8
@__WIDOCZNE
  6
Continuous
370
    13
100
AcDbPolyline
 90
        6
 70
   129
 43
0.0
 10
-1103.995726478917
 20
1818.884461686574
 42
-0.406126463529379
 10
-1120.719621729764
 20
1801.690953149061
 10
-1142.463884517685
 20
1801.088704655164
 10
-1264.883614944139
 20
1802.106908812291
 10
-1123.927850724409
 20
1809.505747104284
 42
0.414213562373095
 10
-1114.54913614212
 20
1818.884461686574
  0
CIRCLE
  5
1A7
330
1F
100
AcDbEntity
  8
@__WIDOCZNE
  6
Continuous
370
    25
100
AcDbCircle
 10
-1128.403356876963
 20
1822.456750504657
 30
0.0
 40
8.283037020451365
  0
MTEXT
  5
1A8
330
1F
100
AcDbEntity
  8
@__WIDOCZNE
  6
Continuous
370
    13
100
AcDbMText
 10
-459.8744154123031
 20
527.8181949166554
 30
0.0
 40
15.0
 41
0.0
 71
     1
 72
     1
  1
{ nr rys:}
  7
GENERATED_STYLE_1
 73
     1
 44
1.0
  0
MTEXT
  5
1A9
330
1F
100
AcDbEntity
  8
@__WIDOCZNE
  6
Continuous
370
    13
100
AcDbMText
 10
-434.2857142860793
 20
568.3896103896119
 30
0.0
 40
15.0
 41
0.0
 71
     2
 72
     1
  1
{ data:}
  7
GENERATED_STYLE_1
 73
     1
 44
1.0
  0
MTEXT
  5
1AA
330
1F
100
AcDbEntity
  8
@__WIDOCZNE
  6
Continuous
370
    13
100
AcDbMText
 10
-260.4285714287926
 20
568.3896103896128
 30
0.0
 40
15.0
 41
0.0
 71
     2
 72
     1
  1
{ skala:}
  7
GENERATED_STYLE_1
 73
     1
 44
1.0
  0
MTEXT
  5
1AB
330
1F
100
AcDbEntity
  8
@__WIDOCZNE
  6
Continuous
370
    13
100
AcDbMText
 10
-228.5716592712769
 20
538.2553404943426
 30
0.0
 40
20.0
 41
0.0
 71
     7
 72
     1
  1
{1:10  }
  7
GENERATED_STYLE_1
 73
     1
 44
1.0
  0
MTEXT
  5
1AC
330
1F
100
AcDbEntity
  8
@__WIDOCZNE
  6
Continuous
370
    13
100
AcDbMText
 10
-1850.183941487926
 20
2467.663385140754
 30
0.0
 40
20.0
 41
0.0
 71
     7
 72
     1
  1
{SYTEM OCIEPLEŃ Z TERMOIZOLACJĄ}
  7
GENERATED_STYLE_1
 73
     1
 44
1.0
  0
MTEXT
  5
1AE
330
1F
100
AcDbEntity
  8
@__WIDOCZNE
  6
Continuous
370
    13
100
AcDbMText
 10
-1381.263566690571
 20
493.1921091195528
 30
0.0
 40
29.99999999999998
 41
0.0
 71
     4
 72
     1
  1
{IZOLACJA BALKONU Z TERMOŁĄCZNIKIEM; \PŚCIANA 2-WARSTWOWA\PZ UŻYCIEM BOTAMENT RD1 / RD2}
  7
GENERATED_STYLE_2
 73
     1
 44
0.802388686805812
  0
MTEXT
  5
1AF
330
1F
100
AcDbEntity
  8
@__WIDOCZNE
  6
Continuous
 62
    20
370
     0
100
AcDbMText
 10
-160.0000000003548
 20
437.6104196518815
 30
0.0
 40
30.00000000000001
 41
0.0
 71
     9
 72
     1
  1
{\P\C256;\H1.333333x;03.22-01.}
  7
GENERATED_STYLE_2
 73
     1
 44
1.068159463616948
  0
MTEXT
  5
1B0
330
1F
100
AcDbEntity
  8
@__WIDOCZNE
  6
Continuous
 62
   104
370
    13
100
AcDbMText
 10
-1850.183941487926
 20
2058.569835916438
 30
0.0
 40
20.0
 41
0.0
 71
     4
 72
     1
  1
{BOTAMENT RD1 / RD2, 2mm }
  7
GENERATED_STYLE_2
 73
     1
 44
1.0
  0
WIPEOUT
  5
1B1
330
1F
100
AcDbEntity
  8
@__WIDOCZNE
  6
Wipeout_Contour
 62
   104
 48
10723.98188900886
370
    13
 92
      140
310
8C00000001000000840000000600000005000000144C285BBCE89CC0FD1E8B25B80CA140000000000000000097B161CE586495C0FD1E8B25B80CA140000000000000000097B161CE586495C042ED31A42550A0400000000000000000144C285BBCE89CC042ED31A42550A0400000000000000000144C285BBCE89CC0FD1E8B
310
25B80CA1400000000000000000
100
AcDbWipeout
 90
        0
 10
-1850.183941487926
 20
2088.073518333637
 30
0.0
 11
481.0972167045395
 21
0.0
 31
0.0
 12
0.0
 22
94.28614310009061
 32
0.0
 13
1.0
 23
1.0
340
0
 70
    15
280
     1
281
    50
282
    50
283
     0
360
0
 71
     2
 91
        5
 14
-0.4999999999999998
 24
-0.4999999999999976
 14
0.5000000000000002
 24
-0.4999999999999976
 14
0.5000000000000002
 24
0.5000000000000024
 14
-0.4999999999999998
 24
0.5000000000000024
 14
-0.4999999999999998
 24
-0.4999999999999976
  0
MTEXT
  5
1B2
330
1F
100
AcDbEntity
  8
@__WIDOCZNE
  6
Continuous
 62
   104
370
    13
100
AcDbMText
 10
-1850.183941487926
 20
2136.172014515115
 30
0.0
 40
19.99999999999999
 41
0.0
 71
     4
 72
     1
  1
\A1;{\fArial|b1|i0|c238|p38;BOTAMENT PB Portalband \P\fArial|b0|i0|c238|p38;TAŚMA USZCZELNIAJĄCA\P\C102;WKLEJONA\C104; W BOTAMENT RD1 / RD2}
  7
GENERATED_STYLE_2
 73
     1
 44
0.8684621903142776
  0
WIPEOUT
  5
1B3
330
1F
100
AcDbEntity
  8
@__WIDOCZNE
  6
Wipeout_Contour
 62
   104
 48
10510.63822717961
370
    13
 92
      140
310
8C00000001000000840000000600000005000000144C285BBCE89CC0ABC05AB21CB69F4000000000000000008602DF84AEAF97C0ABC05AB21CB69F4000000000000000008602DF84AEAF97C0AD526EBF65389F400000000000000000144C285BBCE89CC0AD526EBF65389F400000000000000000144C285BBCE89CC0ABC05A
310
B21CB69F400000000000000000
100
AcDbWipeout
 90
        0
 10
-1850.183941487926
 20
1998.099363063618
 30
0.0
 11
334.2635127497811
 21
0.0
 31
0.0
 12
0.0
 22
31.42866105481471
 32
0.0
 13
1.0
 23
1.0
340
0
 70
    15
280
     1
281
    50
282
    50
283
     0
360
0
 71
     2
 91
        5
 14
-0.5
 24
-0.5
 14
0.5
 24
-0.5
 14
0.5
 24
0.5
 14
-0.5
 24
0.5
 14
-0.5
 24
-0.5
  0
MTEXT
  5
1B4
330
1F
100
AcDbEntity
  8
@__WIDOCZNE
  6
Continuous
 62
   104
370
    13
100
AcDbMText
 10
-1850.183941487926
 20
2014.606595547004
 30
0.0
 40
20.0
 41
0.0
 71
     4
 72
     1
  1
{BOTAMENT SUPAX S3/S5}
  7
GENERATED_STYLE_2
 73
     1
 44
1.0
  0
MTEXT
  5
1B5
330
1F
100
AcDbEntity
  8
@__WIDOCZNE
  6
Continuous
 62
   104
370
    13
100
AcDbMText
 10
-1852.530619902388
 20
1910.87996809421
 30
0.0
 40
19.99999999999999
 41
0.0
 71
     4
 72
     1
  1
\A1;{\fArial|b1|i0|c238|p38;BOTAMENT SB78    \P\fArial|b0|i0|c238|p38;SYSTEMOWA TAŚMA USZCZELNIAJĄCA}
  7
GENERATED_STYLE_2
 73
     1
 44
0.810153929246557
  0
WIPEOUT
  5
1B7
330
1F
100
AcDbEntity
  8
@__WIDOCZNE
  6
Wipeout_Contour
 48
10753.54983483389
370
    13
 92
      140
310
8C000000010000008400000006000000050000002E688F4BD6E79DC017268A32001A9D4000000000000000002E688F4BD6E79DC0B5F85963AE619E40000000000000000072DDD25A1F6A9DC0B5F85963AE619E40000000000000000072DDD25A1F6A9DC017268A32001A9D4000000000000000002E688F4BD6E79DC017268A
310
32001A9D400000000000000000
100
AcDbWipeout
 90
        0
 10
-1913.959272614225
 20
1862.500192793441
 30
0.0
 11
31.42865271183746
 21
0.0
 31
0.0
 12
0.0
 22
81.92010807726865
 32
0.0
 13
1.0
 23
1.0
340
0
 70
    15
280
     1
281
    50
282
    50
283
     0
360
0
 71
     2
 91
        5
 14
-0.5
 24
0.5
 14
-0.5
 24
-0.5
 14
0.5
 24
-0.5
 14
0.5
 24
0.5
 14
-0.5
 24
0.5
  0
MTEXT
  5
1B8
330
1F
100
AcDbEntity
  8
@__WIDOCZNE
  6
Continuous
370
    13
100
AcDbMText
 10
-1888.967844042796
 20
1903.460246832075
 30
0.0
 40
20.0
 41
0.0
 71
     8
 72
     1
  1
{\U+226515cm}
  7
GENERATED_STYLE_3
 11
6.123233995736766E-17
 21
1.0
 31
0.0
 73
     1
 44
1.0
  0
MTEXT
  5
1B9
330
1F
100
AcDbEntity
  8
@__WIDOCZNE
  6
Continuous
370
    13
100
AcDbMText
 10
-406.114364425544
 20
538.2553851548251
 30
0.0
 40
20.0
 41
0.0
 71
     7
 72
     1
  1
{2020.05. }
  7
GENERATED_STYLE_1
 73
     1
 44
1.0
  0
MTEXT
  5
1BA
330
1F
100
AcDbEntity
  8
@__WIDOCZNE
  6
Continuous
370
    13
100
AcDbMText
 10
-1404.000000000042
 20
390.2326985341594
 30
0.0
 40
15.0
 41
0.0
 71
     4
 72
     1
  1
{Rysunek nie wyczerpuje wszystkich aspektów technicznych zagadnienia, a jego integralną częścią są karty techniczne \Pposzczególnych produktów. Szczegółowych informacji udzielają technicy zastosowań i doradcy handlowo-techniczni Botament. }
  7
GENERATED_STYLE_1
 73
     1
 44
0.9278263558916978
  0
MTEXT
  5
1BB
330
1F
100
AcDbEntity
  8
@__WIDOCZNE
  6
Continuous
370
    13
100
AcDbMText
 10
-1682.384354501804
 20
392.0877518646949
 30
0.0
 40
15.0
 41
0.0
 71
     5
 72
     1
  1
{ ul. Prądzyńskiego 20, 63-000 Środa Wlkp., botament.pl\P +48 606-318-643, 61-286-45-17, technik@botament.pl  }
  7
GENERATED_STYLE_1
 73
     1
 44
0.9181612291118323
  0
WIPEOUT
  5
1BC
330
1F
100
AcDbEntity
  8
@__WIDOCZNE
  6
Wipeout_Contour
 48
8196.40629768451
370
    13
 92
      140
310
8C00000001000000840000000600000005000000DE45140C44949CC0214FDF4CAB4598400000000000000000740CF820658092C0214FDF4CAB4598400000000000000000740CF820658092C02D7B29F9176192400000000000000000DE45140C44949CC02D7B29F9176192400000000000000000DE45140C44949CC0214FDF
310
4CAB4598400000000000000000
100
AcDbWipeout
 90
        0
 10
-1829.066452328457
 20
1176.273411415237
 30
0.0
 11
644.9676937494319
 21
0.0
 31
0.0
 12
0.0
 22
377.1438740168205
 32
0.0
 13
1.0
 23
1.0
340
0
 70
    15
280
     1
281
    50
282
    50
283
     0
360
0
 71
     2
 91
        5
 14
-0.5
 24
-0.5
 14
0.5
 24
-0.5
 14
0.5
 24
0.5
 14
-0.5
 24
0.5
 14
-0.5
 24
-0.5
  0
MTEXT
  5
1BD
330
1F
100
AcDbEntity
  8
@__WIDOCZNE
  6
Continuous
370
    13
100
AcDbMText
 10
-1829.066452328457
 20
1365.981661151146
 30
0.0
 40
19.99999999999999
 41
644.967693749432
 71
     4
 72
     1
  3
\A1;{\fArial|b1|i0|c238|p38;BALKON ŻELBETOWY Z TERMOŁĄCZNKIEM\PZBROJENIA \P\fArial|b0|i0|c238|p38;• PŁYTKI ANTYPOŚLIZG., MROZOODPORNE \P• WYPEŁNIENIE SPOIN -ZAPRAWA ELASTYCZNA\P  \fArial|b1|i0|c238|p38;\C102;BOTAMENT M30\fArial|b0|i0|c238|p38;\C256;
  3
 lub \fArial|b1|i0|c238|p38;\C102;MULTIFUGE BASE\P\fArial|b0|i0|c238|p38;\C256;• ROZPŁYWNA ZAPRAWA KLEJOWA DO PŁYTEK \fArial|b1|i0|c238|p38;\C102;BOTAMENT M29 / M29HP\P\fArial|b0|i0|c238|p38;\C256;• HYDROIZOLACJA PODPŁYTKOWA\P\fArial|b1|i0|c238|p38;
  1
\C102;  BOTAMENT RD1 / RD2\P\fArial|b0|i0|c238|p38;\C256;• PŁYTA ŻEBETOWA Z TERMOŁĄCZNIKIEM, \P  O SPADKU 1,5%, LUB PŁYTA POZIOMA \P  Z WARSTWĄ SPADKOWĄ \fArial|b1|i0|c238|p38;\C102;BOTAMENT M100}
  7
GENERATED_STYLE_2
 73
     1
 44
0.8367182389363031
  0
WIPEOUT
  5
1BE
330
1F
100
AcDbEntity
  8
@__WIDOCZNE
  6
Wipeout_Contour
 62
   254
 48
5768.537378874463
370
     0
 92
      140
310
8C00000001000000840000000600000005000000B930606035DA8DC0D9BE8206E5878840000000000000000069306060355A86C0D9BE8206E5878840000000000000000069306060355A86C0F1C39300C6B397400000000000000000B930606035DA8DC0F1C39300C6B397400000000000000000B930606035DA8DC0D9BE82
310
06E58788400000000000000000
100
AcDbWipeout
 90
        0
 10
-955.2760627283925
 20
784.9868288244717
 30
0.0
 11
240.0000000000091
 21
0.0
 31
0.0
 12
0.0
 22
731.9565327524043
 32
0.0
 13
1.0
 23
1.0
340
0
 70
    15
280
     1
281
    50
282
    50
283
     0
360
0
 71
     2
 91
        5
 14
-0.5
 24
0.5000000000000001
 14
0.5
 24
0.5000000000000001
 14
0.5
 24
-0.4999999999999999
 14
-0.5
 24
-0.4999999999999999
 14
-0.5
 24
0.5000000000000001
  0
HATCH
  5
1BF
330
1F
100
AcDbEntity
  8
@__WIDOCZNE
  6
Continuous
370
    13
100
AcDbHatch
 10
0.0
 20
0.0
 30
0.0
210
0.0
220
0.0
230
1.0
  2
__Beton_n_2_średnio
 70
     0
 71
     1
 91
        1
 92
        2
 72
     0
 73
     1
 93
        4
 10
-955.2760627283925
 20
784.9868288244717
 10
-715.2760627283834
 20
784.9868288244717
 10
-715.2760627283834
 20
1516.943361576876
 10
-955.2760627283925
 20
1516.943361576876
 97
        1
330
1C0
 75
     0
 76
     2
 52
0.0
 41
1.0
 77
     0
 78
     2
 53
44.99999999999999
 43
0.0
 44
0.0
 45
-18.38477631085023
 46
18.38477631085023
 79
     2
 49
19.5
 49
-6.499999999999999
 53
44.99999999999999
 43
0.0000000000000018
 44
18.38477631085023
 45
-18.38477631085023
 46
18.38477631085023
 79
     2
 49
19.5
 49
-6.499999999999999
 98
        0
  0
LWPOLYLINE
  5
1C0
102
{ACAD_REACTORS
330
1BF
102
}
330
1F
100
AcDbEntity
  8
@__WIDOCZNE
  6
Continuous
370
    50
100
AcDbPolyline
 90
        4
 70
   129
 43
0.0
 10
-955.2760627283925
 20
784.9868288244717
 10
-715.2760627283834
 20
784.9868288244717
 10
-715.2760627283834
 20
1516.943361576876
 10
-955.2760627283925
 20
1516.943361576876
  0
MTEXT
  5
1C1
330
1F
100
AcDbEntity
  8
@__WIDOCZNE
  6
Continuous
370
    13
100
AcDbMText
 10
161.6027280269008
 20
221.2371768252258
 30
0.0
 40
20.0
 41
0.0
 71
     9
 72
     1
  1
{s.15_druk:2020-05-26 }
  7
GENERATED_STYLE_1
 73
     1
 44
1.0
  0
MTEXT
  5
1C2
330
1F
100
AcDbEntity
  8
@__WIDOCZNE
  6
Continuous
370
    13
100
AcDbMText
 10
-1950.917176825543
 20
811.8298267622806
 30
0.0
 40
20.0
 41
0.0
 71
     9
 72
     1
  1
{druk:2020-05-26, rys. od 181200 DE }
  7
GENERATED_STYLE_1
 11
6.123233995736766E-17
 21
1.0
 31
0.0
 73
     1
 44
1.0
  0
WIPEOUT
  5
1E1
330
1F
100
AcDbEntity
  8
2D - Ogólne
  6
Wipeout_Contour
 62
   254
 48
9268.065049758301
370
     0
 92
      140
310
8C0000000100000084000000060000000500000010E8BB14DB699DC087FCCDE522D19B400000000000000000BAD038CEB0D88DC0BA6C61CEDC129C4000000000000000005877D94928DA8DC069D02BB7403C9C400000000000000000603B8CD2966A9DC0356098CE86FA9B40000000000000000010E8BB14DB699DC087FCCD
310
E522D19B400000000000000000
100
AcDbWipeout
 90
        0
 10
-1882.647287551044
 20
1780.284079760111
 30
0.0
 11
927.5609567139188
 21
0.0
 31
0.0
 12
0.0
 22
26.77911898236971
 32
0.0
 13
1.0
 23
1.0
340
0
 70
    15
280
     1
281
    50
282
    50
283
     0
360
0
 71
     2
 91
        5
 14
-0.4998023404626435
 24
0.5
 14
0.4999999999999999
 24
-0.1135956631017265
 14
0.4998023404626435
 24
-0.5
 14
-0.5000000000000001
 24
0.113595663101735
 14
-0.4998023404626435
 24
0.5
  0
INSERT
  5
1E2
330
1F
100
AcDbEntity
  8
2D - Ogólne
  6
Continuous
370
    13
100
AcDbBlockReference
  2
*X8
 10
0.0
 20
0.0
 30
0.0
  0
LINE
  5
1E3
330
1F
100
AcDbEntity
  8
2D - Ogólne
  6
Continuous
370
    13
100
AcDbLine
 10
-1882.46394628147
 20
1780.284079760111
 30
0.0
 11
-955.0863308371256
 21
1796.715631029378
 31
0.0
  0
LINE
  5
1E4
330
1F
100
AcDbEntity
  8
2D - Ogólne
  6
Continuous
370
    13
100
AcDbLine
 10
-955.0863308371256
 20
1796.715631029378
 30
0.0
 11
-955.2696721066995
 21
1807.063198742481
 31
0.0
  0
LINE
  5
1E5
330
1F
100
AcDbEntity
  8
2D - Ogólne
  6
Continuous
370
    13
100
AcDbLine
 10
-955.2696721066995
 20
1807.063198742481
 30
0.0
 11
-1882.647287551044
 21
1790.631647473213
 31
0.0
  0
LINE
  5
1E6
330
1F
100
AcDbEntity
  8
2D - Ogólne
  6
Continuous
370
    13
100
AcDbLine
 10
-1882.647287551044
 20
1790.631647473213
 30
0.0
 11
-1882.46394628147
 21
1780.284079760111
 31
0.0
  0
WIPEOUT
  5
1E7
330
1F
100
AcDbEntity
  8
@__WIDOCZNE
  6
Wipeout_Contour
 62
   254
 48
7830.41342952445
370
     0
 92
      140
310
8C00000001000000840000000600000005000000EDEA196CABB185C02C1E8E8028D39D400000000000000000EDEA196CABB185C0291E8E80280B9D400000000000000000DB4B4DB88DBF72C0291E8E80280B9D400000000000000000DB4B4DB88DBF72C02C1E8E8028D39D400000000000000000EDEA196CABB185C02C1E8E
310
8028D39D400000000000000000
100
AcDbWipeout
 90
        0
 10
-694.2087022805041
 20
1858.78955289897
 30
0.0
 11
394.2366026883537
 21
0.0
 31
0.0
 12
0.0
 22
50.00000000000068
 32
0.0
 13
1.0
 23
1.0
340
0
 70
    15
280
     1
281
    50
282
    50
283
     0
360
0
 71
     2
 91
        5
 14
-0.5000000000000001
 24
-0.5000000000000022
 14
-0.5000000000000001
 24
0.4999999999999977
 14
0.4999999999999999
 24
0.4999999999999977
 14
0.4999999999999999
 24
-0.5000000000000022
 14
-0.5000000000000001
 24
-0.5000000000000022
  0
HATCH
  5
1E8
330
1F
100
AcDbEntity
  8
@__WIDOCZNE
  6
Continuous
370
    13
100
AcDbHatch
 10
0.0
 20
0.0
 30
0.0
210
0.0
220
0.0
230
1.0
  2
__Beton_n_2_średnio
 70
     0
 71
     1
 91
        1
 92
        2
 72
     0
 73
     1
 93
        4
 10
-694.2087022805041
 20
1908.789552898971
 10
-694.2087022805041
 20
1858.78955289897
 10
-299.9720995921504
 20
1858.78955289897
 10
-299.9720995921504
 20
1908.789552898971
 97
        1
330
1E9
 75
     0
 76
     2
 52
0.0
 41
1.0
 77
     0
 78
     2
 53
44.99999999999999
 43
0.0
 44
0.0
 45
-18.38477631085023
 46
18.38477631085023
 79
     2
 49
19.5
 49
-6.499999999999999
 53
44.99999999999999
 43
0.0000000000000018
 44
18.38477631085023
 45
-18.38477631085023
 46
18.38477631085023
 79
     2
 49
19.5
 49
-6.499999999999999
 98
        0
  0
LWPOLYLINE
  5
1E9
102
{ACAD_REACTORS
330
1E8
102
}
330
1F
100
AcDbEntity
  8
@__WIDOCZNE
  6
Continuous
370
    25
100
AcDbPolyline
 90
        4
 70
   129
 43
0.0
 10
-694.2087022805041
 20
1908.789552898971
 10
-694.2087022805041
 20
1858.78955289897
 10
-299.9720995921504
 20
1858.78955289897
 10
-299.9720995921504
 20
1908.789552898971
  0
WIPEOUT
  5
1EA
330
1F
100
AcDbEntity
  8
@__WIDOCZNE
  6
Wipeout_Contour
 62
   254
 48
7085.803878790224
370
     0
 92
      140
310
8C000000010000008400000006000000050000005591FEAD06E072C0EEC39300C62B984000000000000000005591FEAD06A072C0EEC39300C62B984000000000000000005591FEAD06A072C05D16EC2C6B609E4000000000000000005591FEAD06E072C05D16EC2C6B609E4000000000000000005591FEAD06E072C0EEC393
310
00C62B98400000000000000000
100
AcDbWipeout
 90
        0
 10
-302.0016307777453
 20
1546.943361576875
 30
0.0
 11
4.0
 21
0.0
 31
0.0
 12
0.0
 22
397.1613019752801
 32
0.0
 13
1.0
 23
1.0
340
0
 70
    15
280
     1
281
    50
282
    50
283
     0
360
0
 71
     2
 91
        5
 14
-0.5
 24
0.5000000000000003
 14
0.5
 24
0.5000000000000003
 14
0.5
 24
-0.4999999999999997
 14
-0.5
 24
-0.4999999999999997
 14
-0.5
 24
0.5000000000000003
  0
WIPEOUT
  5
1EB
330
1F
100
AcDbEntity
  8
@__WIDOCZNE
  6
Wipeout_Contour
 62
   254
 48
10212.44250629435
370
     0
 92
      140
310
8C00000001000000840000000600000005000000251C1E49A3739DC03758A32A616399400000000000000000E0ADC674885F9DC03758A32A616399400000000000000000E0ADC674885F9DC0AF707B05B7769C400000000000000000251C1E49A3739DC0AF707B05B7769C400000000000000000251C1E49A3739DC03758A3
310
2A616399400000000000000000
100
AcDbWipeout
 90
        0
 10
-1884.909458609073
 20
1624.844889213809
 30
0.0
 11
5.026200643639868
 21
0.0
 31
0.0
 12
0.0
 22
196.833842636579
 32
0.0
 13
1.0
 23
1.0
340
0
 70
    15
280
     1
281
    50
282
    50
283
     0
360
0
 71
     2
 91
        5
 14
-0.5000000000000226
 24
0.5
 14
0.4999999999999774
 24
0.5
 14
0.4999999999999774
 24
-0.5
 14
-0.5000000000000226
 24
-0.5
 14
-0.5000000000000226
 24
0.5
  0
WIPEOUT
  5
1EC
330
1F
100
AcDbEntity
  8
@__WIDOCZNE
  6
Wipeout_Contour
 62
   254
 48
4925.988012743593
370
     0
 92
      140
310
8C0000000100000084000000060000000500000089AC15B1D96192C01C1CAA8BA8978840000000000000000089AC15B1D96192C0201CAA8BA877884000000000000000006930606035BA85C0201CAA8BA877884000000000000000006930606035BA85C01C1CAA8BA8978840000000000000000089AC15B1D96192C01C1CAA
310
8BA89788400000000000000000
100
AcDbWipeout
 90
        0
 10
-1176.462589586883
 20
782.9572976388772
 30
0.0
 11
481.1865268584999
 21
0.0
 31
0.0
 12
0.0
 22
3.999999999999545
 32
0.0
 13
1.0
 23
1.0
340
0
 70
    15
280
     1
281
    50
282
    50
283
     0
360
0
 71
     2
 91
        5
 14
-0.4999999999999999
 24
-0.5
 14
-0.4999999999999999
 24
0.5
 14
0.5000000000000001
 24
0.5
 14
0.5000000000000001
 24
-0.5
 14
-0.4999999999999999
 24
-0.5
  0
WIPEOUT
  5
1ED
330
1F
100
AcDbEntity
  8
@__WIDOCZNE
  6
Wipeout_Contour
 62
   254
 48
12706.91608185902
370
     0
 92
      140
310
8C00000001000000840000000600000005000000741430B01A5D92C0E6FA6A837BACA7400000000000000000741430B01A5D92C0E5FA6A837BA0A74000000000000000006930606035BA85C0E5FA6A837BA0A74000000000000000006930606035BA85C0E6FA6A837BACA7400000000000000000741430B01A5D92C0E6FA6A
310
837BACA7400000000000000000
100
AcDbWipeout
 90
        0
 10
-1175.276062728165
 20
3024.241237013938
 30
0.0
 11
479.9999999997816
 21
0.0
 31
0.0
 12
0.0
 22
6.000000000000455
 32
0.0
 13
1.0
 23
1.0
340
0
 70
    15
280
     1
281
    50
282
    50
283
     0
360
0
 71
     2
 91
        5
 14
-0.5000000000000001
 24
-0.4999999999999621
 14
-0.5000000000000001
 24
0.5000000000000379
 14
0.4999999999999999
 24
0.5000000000000379
 14
0.4999999999999999
 24
-0.4999999999999621
 14
-0.5000000000000001
 24
-0.4999999999999621
  0
LINE
  5
1EF
330
1F
100
AcDbEntity
  8
@__WIDOCZNE
  6
Kropki i Kreski
370
    25
100
AcDbLine
 10
-835.276062728274
 20
776.2657594742204
 30
0.0
 11
-835.276062728274
 21
3151.069946810865
 31
0.0
  0
LINE
  5
1F0
330
1F
100
AcDbEntity
  8
@__WIDOCZNE
  6
Continuous
370
    25
100
AcDbLine
 10
-1850.183941487926
 20
2467.116338050583
 30
0.0
 11
-1193.266437728165
 21
2467.116338050583
 31
0.0
  0
LINE
  5
1F1
330
1F
100
AcDbEntity
  8
@__WIDOCZNE
  6
Continuous
370
    25
100
AcDbLine
 10
-1165.276062728165
 20
2467.116338050583
 30
0.0
 11
-1193.266437728165
 21
2459.616338050583
 31
0.0
  0
LINE
  5
1F2
330
1F
100
AcDbEntity
  8
@__WIDOCZNE
  6
Continuous
370
    25
100
AcDbLine
 10
-1165.276062728165
 20
2467.116338050583
 30
0.0
 11
-1193.266437728165
 21
2474.616338050583
 31
0.0
  0
LINE
  5
1F3
330
1F
100
AcDbEntity
  8
@__WIDOCZNE
  6
Continuous
370
    25
100
AcDbLine
 10
-1193.266437728165
 20
2459.616338050583
 30
0.0
 11
-1193.266437728165
 21
2474.616338050583
 31
0.0
  0
HATCH
  5
1F4
330
1F
100
AcDbEntity
  8
@__WIDOCZNE
  6
Continuous
370
    25
100
AcDbHatch
 10
0.0
 20
0.0
 30
0.0
210
0.0
220
0.0
230
1.0
  2
SOLID
 70
     1
 71
     0
 91
        1
 92
        2
 72
     0
 73
     1
 93
        3
 10
-1165.276062728165
 20
2467.116338050583
 10
-1193.266437728165
 20
2459.616338050583
 10
-1193.266437728165
 20
2474.616338050583
 97
        0
 75
     0
 76
     1
 98
        0
  0
LINE
  5
1F5
330
1F
100
AcDbEntity
  8
@__WIDOCZNE
  6
Przerywana gęsta
370
    50
100
AcDbLine
 10
-300.0311619633398
 20
1944.104663552155
 30
0.0
 11
-300.0311619633403
 21
1546.943361576875
 31
0.0
  0
LINE
  5
1F6
330
1F
100
AcDbEntity
  8
@__WIDOCZNE
  6
Continuous
370
    13
100
AcDbLine
 10
-1882.530619902388
 20
1846.455241621
 30
0.0
 11
-1882.530619902388
 21
1960.279846275225
 31
0.0
  0
LINE
  5
1F7
330
1F
100
AcDbEntity
  8
@__WIDOCZNE
  6
Continuous
370
    13
100
AcDbLine
 10
-1882.530619902388
 20
1827.794991621
 30
0.0
 11
-1887.530619902387
 21
1846.455241621
 31
0.0
  0
LINE
  5
1F8
330
1F
100
AcDbEntity
  8
@__WIDOCZNE
  6
Continuous
370
    13
100
AcDbLine
 10
-1882.530619902388
 20
1827.794991621
 30
0.0
 11
-1877.530619902388
 21
1846.455241621
 31
0.0
  0
LINE
  5
1F9
330
1F
100
AcDbEntity
  8
@__WIDOCZNE
  6
Continuous
370
    13
100
AcDbLine
 10
-1887.530619902387
 20
1846.455241621
 30
0.0
 11
-1877.530619902388
 21
1846.455241621
 31
0.0
  0
HATCH
  5
1FA
330
1F
100
AcDbEntity
  8
@__WIDOCZNE
  6
Continuous
370
    13
100
AcDbHatch
 10
0.0
 20
0.0
 30
0.0
210
0.0
220
0.0
230
1.0
  2
SOLID
 70
     1
 71
     0
 91
        1
 92
        2
 72
     0
 73
     1
 93
        3
 10
-1882.530619902388
 20
1827.794991621
 10
-1887.530619902387
 20
1846.455241621
 10
-1877.530619902388
 20
1846.455241621
 97
        0
 75
     0
 76
     1
 98
        0
  0
LINE
  5
1FB
330
1F
100
AcDbEntity
  8
@__WIDOCZNE
  6
Continuous
370
    13
100
AcDbLine
 10
-1882.530619902388
 20
1978.940096275225
 30
0.0
 11
-1877.530619902388
 21
1960.279846275225
 31
0.0
  0
LINE
  5
1FC
330
1F
100
AcDbEntity
  8
@__WIDOCZNE
  6
Continuous
370
    13
100
AcDbLine
 10
-1882.530619902388
 20
1978.940096275225
 30
0.0
 11
-1887.530619902387
 21
1960.279846275225
 31
0.0
  0
LINE
  5
1FD
330
1F
100
AcDbEntity
  8
@__WIDOCZNE
  6
Continuous
370
    13
100
AcDbLine
 10
-1877.530619902388
 20
1960.279846275225
 30
0.0
 11
-1887.530619902387
 21
1960.279846275225
 31
0.0
  0
HATCH
  5
1FE
330
1F
100
AcDbEntity
  8
@__WIDOCZNE
  6
Continuous
370
    13
100
AcDbHatch
 10
0.0
 20
0.0
 30
0.0
210
0.0
220
0.0
230
1.0
  2
SOLID
 70
     1
 71
     0
 91
        1
 92
        2
 72
     0
 73
     1
 93
        3
 10
-1882.530619902388
 20
1978.940096275225
 10
-1877.530619902388
 20
1960.279846275225
 10
-1887.530619902387
 20
1960.279846275225
 97
        0
 75
     0
 76
     1
 98
        0
  0
LINE
  5
1FF
330
1F
100
AcDbEntity
  8
@__WIDOCZNE
  6
Przerywana gęsta
370
    50
100
AcDbLine
 10
-1882.429980399002
 20
1821.641565134277
 30
0.0
 11
-1882.429980399003
 21
1624.844889213809
 31
0.0
  0
LINE
  5
200
330
1F
100
AcDbEntity
  8
@__WIDOCZNE
  6
Przerywana gęsta
370
    50
100
AcDbLine
 10
-695.2760627283834
 20
784.9868288244717
 30
0.0
 11
-1177.44741354584
 21
784.9868288244717
 31
0.0
  0
LINE
  5
201
330
1F
100
AcDbEntity
  8
@__WIDOCZNE
  6
Przerywana gęsta
370
    50
100
AcDbLine
 10
-695.2760627283834
 20
3027.241237013937
 30
0.0
 11
-1175.276062728165
 21
3027.241237013938
 31
0.0
  0
LINE
  5
202
330
1F
100
AcDbEntity
  8
@__WIDOCZNE
  6
Continuous
370
    50
100
AcDbLine
 10
-665.2760627283834
 20
2314.944008983491
 30
0.0
 11
-665.2760627283834
 21
1521.27589719768
 31
0.0
  0
LINE
  5
203
330
1F
100
AcDbEntity
  8
@__WIDOCZNE
  6
Continuous
370
    50
100
AcDbLine
 10
-1839.066452328457
 20
1853.884625799955
 30
0.0
 11
-1839.066452328457
 21
1160.27370169144
 31
0.0
  0
LWPOLYLINE
  5
204
330
1F
100
AcDbEntity
  8
@__WIDOCZNE
  6
Continuous
 62
   102
370
    50
100
AcDbPolyline
 90
        4
 70
   128
 43
0.0
 10
-1115.185443212832
 20
1866.030327405256
 10
-1115.185443212832
 20
1821.6146284099
 42
-0.4043672603225679
 10
-1123.809275873369
 20
1810.797595471187
 10
-1181.475194677069
 20
1809.272292547107
  0
LWPOLYLINE
  5
205
330
1F
100
AcDbEntity
  8
@__WIDOCZNE
  6
Continuous
 62
   102
370
    50
100
AcDbPolyline
 90
        3
 70
   128
 43
0.0
 10
-1256.966430791063
 20
1800.115150113814
 10
-965.2661617256786
 20
1805.561718269347
 10
-965.2661617256786
 20
1972.701889078124
  0
LWPOLYLINE
  5
206
330
1F
100
AcDbEntity
  8
@__WIDOCZNE
  6
Continuous
370
    50
100
AcDbPolyline
 90
       11
 70
   128
 43
0.0
 10
-959.2760627281651
 20
2079.049649946316
 10
-959.2760627281651
 20
2029.098737393854
 10
-883.4074787158919
 20
2029.098737393854
 10
-969.7652160386112
 20
2029.098737393854
 10
-959.2760627281651
 20
2029.098737393854
 10
-959.2760627281651
 20
1979.049649946316
 10
-1155.276062728165
 20
1979.049649946316
 10
-1155.276062728165
 20
2019.049649946316
 10
-1155.276062728165
 20
1979.049649946316
 10
-1165.276062728165
 20
1979.049649946316
 10
-1165.276062728165
 20
1963.994017505773
  0
LINE
  5
207
330
1F
100
AcDbEntity
  8
@__WIDOCZNE
  6
Continuous
 62
   104
370
    13
100
AcDbLine
 10
-964.1984589870638
 20
1921.16358314616
 30
0.0
 11
-991.9869830125597
 21
1929.379970741999
 31
0.0
  0
LINE
  5
208
330
1F
100
AcDbEntity
  8
@__WIDOCZNE
  6
Continuous
 62
   104
370
    13
100
AcDbLine
 10
-964.1984589870638
 20
1921.16358314616
 30
0.0
 11
-984.1558306557624
 21
1942.173447703506
 31
0.0
  0
LINE
  5
209
330
1F
100
AcDbEntity
  8
@__WIDOCZNE
  6
Continuous
 62
   104
370
    13
100
AcDbLine
 10
-991.9869830125597
 20
1929.379970741999
 30
0.0
 11
-984.1558306557624
 21
1942.173447703506
 31
0.0
  0
HATCH
  5
20A
330
1F
100
AcDbEntity
  8
@__WIDOCZNE
  6
Continuous
 62
   104
370
    13
100
AcDbHatch
 10
0.0
 20
0.0
 30
0.0
210
0.0
220
0.0
230
1.0
  2
SOLID
 70
     1
 71
     0
 91
        1
 92
        2
 72
     0
 73
     1
 93
        3
 10
-964.1984589870638
 20
1921.16358314616
 10
-991.9869830125597
 20
1929.379970741999
 10
-984.1558306557624
 20
1942.173447703506
 97
        0
 75
     0
 76
     1
 98
        0
  0
LWPOLYLINE
  5
20B
330
1F
100
AcDbEntity
  8
@__WIDOCZNE
  6
Continuous
 62
   104
370
    25
100
AcDbPolyline
 90
        3
 70
   128
 43
0.0
 10
-1850.183941487926
 20
2152.274599474203
 10
-1341.756362119547
 20
2152.274599474203
 10
-988.071406834161
 20
1935.776709222753
  0
MTEXT
  5
20C
330
1F
100
AcDbEntity
  8
@__WIDOCZNE
  6
Continuous
370
    13
100
AcDbMText
 10
-655.2760627283833
 20
2038.19855221136
 30
0.0
 40
20.0
 41
515.2760627284742
 71
     7
 72
     1
  1
\A1;{\fArial|b1|i0|c238|p38;PODŁOGA NAD POMIESZCZENIEM \P\fArial|b0|i0|c238|p38;• POSADZKA\P• JASTRYCH CEMENTOWY\P• WARSTWA ROZDZIELAJĄCA -\P  FOLIA PE\P• IZOLACJA TERMO-AKUST. -STYROPIAN EPS\P• WARSTWA NOŚNA -STROP ŻELBETOWY}
  7
GENERATED_STYLE_2
 73
     1
 44
0.9032576809406473
  0
ENDSEC
  0
SECTION
  2
OBJECTS
  0
DICTIONARY
  5
C
330
0
100
AcDbDictionary
281
     1
  3
ACAD_GROUP
350
D
  3
ACAD_LAYOUT
350
1A
  3
ACAD_MLEADERSTYLE
350
215
  3
ACAD_MLINESTYLE
350
17
  3
ACAD_PLOTSETTINGS
350
19
  3
ACAD_PLOTSTYLENAME
350
E
  3
ACAD_SCALELIST
350
3B
  3
ACAD_TABLESTYLE
350
214
  3
ACAD_VISUALSTYLE
350
2A
  3
AcDbVariableDictionary
350
212
  3
WATERMARKS
350
210
  0
DICTIONARY
  5
D
102
{ACAD_REACTORS
330
C
102
}
330
C
100
AcDbDictionary
281
     1
  0
DICTIONARY
  5
1A
102
{ACAD_REACTORS
330
C
102
}
330
C
100
AcDbDictionary
281
     1
  3
Layout1
350
1E
  3
Layout2
350
26
  3
Model
350
22
  0
DICTIONARY
  5
215
102
{ACAD_REACTORS
330
C
102
}
330
C
100
AcDbDictionary
281
     1
  0
DICTIONARY
  5
17
102
{ACAD_REACTORS
330
C
102
}
330
C
100
AcDbDictionary
281
     1
  3
Standard
350
18
  0
DICTIONARY
  5
19
102
{ACAD_REACTORS
330
C
102
}
330
C
100
AcDbDictionary
281
     1
  0
ACDBDICTIONARYWDFLT
  5
E
102
{ACAD_REACTORS
330
C
102
}
330
C
100
AcDbDictionary
281
     1
  3
Normal
350
F
100
AcDbDictionaryWithDefault
340
F
  0
DICTIONARY
  5
3B
102
{ACAD_REACTORS
330
C
102
}
330
C
100
AcDbDictionary
281
     1
  3
A0
350
3C
  3
A1
350
3D
  3
A2
350
3E
  3
A3
350
3F
  3
A4
350
40
  3
A5
350
41
  3
A6
350
42
  3
A7
350
43
  3
A8
350
44
  3
A9
350
45
  3
B0
350
46
  3
B1
350
47
  3
B2
350
48
  3
B3
350
49
  3
B4
350
4A
  3
B5
350
4B
  3
B6
350
4C
  3
B7
350
4D
  3
B8
350
4E
  3
B9
350
4F
  3
C0
350
50
  3
C1
350
51
  3
C2
350
52
  3
C3
350
53
  3
C4
350
54
  3
C5
350
55
  3
C6
350
56
  3
C7
350
57
  3
C8
350
58
  3
C9
350
59
  3
D0
350
5A
  3
D1
350
5B
  3
D2
350
5C
  0
DICTIONARY
  5
214
102
{ACAD_REACTORS
330
C
102
}
330
C
100
AcDbDictionary
281
     1
  0
DICTIONARY
  5
2A
102
{ACAD_REACTORS
330
C
102
}
330
C
100
AcDbDictionary
281
     1
  3
2dWireframe
350
2F
  3
3D Hidden
350
31
  3
3dWireframe
350
30
  3
Basic
350
32
  3
Brighten
350
36
  3
ColorChange
350
3A
  3
Conceptual
350
34
  3
Dim
350
35
  3
Facepattern
350
39
  3
Flat
350
2B
  3
FlatWithEdges
350
2C
  3
Gouraud
350
2D
  3
GouraudWithEdges
350
2E
  3
Linepattern
350
38
  3
Realistic
350
33
  3
Thicken
350
37
  0
DICTIONARY
  5
212
102
{ACAD_REACTORS
330
C
102
}
330
C
100
AcDbDictionary
281
     1
  3
CANNOSCALE
350
213
  0
DICTIONARY
  5
210
102
{ACAD_REACTORS
330
C
102
}
330
C
100
AcDbDictionary
281
     1
  3
AC_WATERMARK
350
211
  0
LAYOUT
  5
1E
102
{ACAD_REACTORS
330
1A
102
}
330
1A
100
AcDbPlotSettings
  1

  2
none_device
  4

  6

 40
0.0
 41
0.0
 42
0.0
 43
0.0
 44
0.0
 45
0.0
 46
0.0
 47
0.0
 48
0.0
 49
0.0
140
0.0
141
0.0
142
1.0
143
1.0
 70
   688
 72
     0
 73
     0
 74
     5
  7

 75
    16
147
1.0
148
0.0
149
0.0
100
AcDbLayout
  1
Layout1
 70
     1
 71
     1
 10
0.0
 20
0.0
 11
12.0
 21
9.0
 12
0.0
 22
0.0
 32
0.0
 14
1.000000000000000E+20
 24
1.000000000000000E+20
 34
1.000000000000000E+20
 15
-1.000000000000000E+20
 25
-1.000000000000000E+20
 35
-1.000000000000000E+20
146
0.0
 13
0.0
 23
0.0
 33
0.0
 16
1.0
 26
0.0
 36
0.0
 17
0.0
 27
1.0
 37
0.0
 76
     0
330
1B
  0
LAYOUT
  5
26
102
{ACAD_REACTORS
330
1A
102
}
330
1A
100
AcDbPlotSettings
  1

  2
none_device
  4

  6

 40
0.0
 41
0.0
 42
0.0
 43
0.0
 44
0.0
 45
0.0
 46
0.0
 47
0.0
 48
0.0
 49
0.0
140
0.0
141
0.0
142
1.0
143
1.0
 70
   688
 72
     0
 73
     0
 74
     5
  7

 75
    16
147
1.0
148
0.0
149
0.0
100
AcDbLayout
  1
Layout2
 70
     1
 71
     2
 10
0.0
 20
0.0
 11
0.0
 21
0.0
 12
0.0
 22
0.0
 32
0.0
 14
0.0
 24
0.0
 34
0.0
 15
0.0
 25
0.0
 35
0.0
146
0.0
 13
0.0
 23
0.0
 33
0.0
 16
1.0
 26
0.0
 36
0.0
 17
0.0
 27
1.0
 37
0.0
 76
     0
330
23
  0
LAYOUT
  5
22
102
{ACAD_REACTORS
330
1A
102
}
330
1A
100
AcDbPlotSettings
  1

  2
none_device
  4

  6

 40
0.0
 41
0.0
 42
0.0
 43
0.0
 44
0.0
 45
0.0
 46
0.0
 47
0.0
 48
0.0
 49
0.0
140
0.0
141
0.0
142
1.0
143
1.0
 70
  1712
 72
     0
 73
     0
 74
     0
  7

 75
     0
147
1.0
148
0.0
149
0.0
100
AcDbLayout
  1
Model
 70
     1
 71
     0
 10
0.0
 20
0.0
 11
12.0
 21
9.0
 12
0.0
 22
0.0
 32
0.0
 14
1.000000000000000E+20
 24
1.000000000000000E+20
 34
1.000000000000000E+20
 15
-1.000000000000000E+20
 25
-1.000000000000000E+20
 35
-1.000000000000000E+20
146
0.0
 13
0.0
 23
0.0
 33
0.0
 16
1.0
 26
0.0
 36
0.0
 17
0.0
 27
1.0
 37
0.0
 76
     0
330
1F
331
29
  0
MLINESTYLE
  5
18
102
{ACAD_REACTORS
330
17
102
}
330
17
100
AcDbMlineStyle
  2
Standard
 70
     0
  3

 62
   256
 51
90.0
 52
90.0
 71
     2
 49
0.5
 62
   256
  6
BYLAYER
 49
-0.5
 62
   256
  6
BYLAYER
  0
ACDBPLACEHOLDER
  5
F
102
{ACAD_REACTORS
330
E
102
}
330
E
  0
SCALE
  5
3C
102
{ACAD_REACTORS
330
3B
102
}
330
3B
100
AcDbScale
 70
     0
300
1:1
140
1.0
141
1.0
290
     1
  0
SCALE
  5
3D
102
{ACAD_REACTORS
330
3B
102
}
330
3B
100
AcDbScale
 70
     0
300
1:2
140
1.0
141
2.0
290
     0
  0
SCALE
  5
3E
102
{ACAD_REACTORS
330
3B
102
}
330
3B
100
AcDbScale
 70
     0
300
1:4
140
1.0
141
4.0
290
     0
  0
SCALE
  5
3F
102
{ACAD_REACTORS
330
3B
102
}
330
3B
100
AcDbScale
 70
     0
300
1:5
140
1.0
141
5.0
290
     0
  0
SCALE
  5
40
102
{ACAD_REACTORS
330
3B
102
}
330
3B
100
AcDbScale
 70
     0
300
1:8
140
1.0
141
8.0
290
     0
  0
SCALE
  5
41
102
{ACAD_REACTORS
330
3B
102
}
330
3B
100
AcDbScale
 70
     0
300
1:10
140
1.0
141
10.0
290
     0
  0
SCALE
  5
42
102
{ACAD_REACTORS
330
3B
102
}
330
3B
100
AcDbScale
 70
     0
300
1:16
140
1.0
141
16.0
290
     0
  0
SCALE
  5
43
102
{ACAD_REACTORS
330
3B
102
}
330
3B
100
AcDbScale
 70
     0
300
1:20
140
1.0
141
20.0
290
     0
  0
SCALE
  5
44
102
{ACAD_REACTORS
330
3B
102
}
330
3B
100
AcDbScale
 70
     0
300
1:30
140
1.0
141
30.0
290
     0
  0
SCALE
  5
45
102
{ACAD_REACTORS
330
3B
102
}
330
3B
100
AcDbScale
 70
     0
300
1:40
140
1.0
141
40.0
290
     0
  0
SCALE
  5
46
102
{ACAD_REACTORS
330
3B
102
}
330
3B
100
AcDbScale
 70
     0
300
1:50
140
1.0
141
50.0
290
     0
  0
SCALE
  5
47
102
{ACAD_REACTORS
330
3B
102
}
330
3B
100
AcDbScale
 70
     0
300
1:100
140
1.0
141
100.0
290
     0
  0
SCALE
  5
48
102
{ACAD_REACTORS
330
3B
102
}
330
3B
100
AcDbScale
 70
     0
300
2:1
140
2.0
141
1.0
290
     0
  0
SCALE
  5
49
102
{ACAD_REACTORS
330
3B
102
}
330
3B
100
AcDbScale
 70
     0
300
4:1
140
4.0
141
1.0
290
     0
  0
SCALE
  5
4A
102
{ACAD_REACTORS
330
3B
102
}
330
3B
100
AcDbScale
 70
     0
300
8:1
140
8.0
141
1.0
290
     0
  0
SCALE
  5
4B
102
{ACAD_REACTORS
330
3B
102
}
330
3B
100
AcDbScale
 70
     0
300
10:1
140
10.0
141
1.0
290
     0
  0
SCALE
  5
4C
102
{ACAD_REACTORS
330
3B
102
}
330
3B
100
AcDbScale
 70
     0
300
100:1
140
100.0
141
1.0
290
     0
  0
SCALE
  5
4D
102
{ACAD_REACTORS
330
3B
102
}
330
3B
100
AcDbScale
 70
     0
300
1/128" = 1'-0"
140
0.0078125
141
12.0
290
     0
  0
SCALE
  5
4E
102
{ACAD_REACTORS
330
3B
102
}
330
3B
100
AcDbScale
 70
     0
300
1/64" = 1'-0"
140
0.015625
141
12.0
290
     0
  0
SCALE
  5
4F
102
{ACAD_REACTORS
330
3B
102
}
330
3B
100
AcDbScale
 70
     0
300
1/32" = 1'-0"
140
0.03125
141
12.0
290
     0
  0
SCALE
  5
50
102
{ACAD_REACTORS
330
3B
102
}
330
3B
100
AcDbScale
 70
     0
300
1/16" = 1'-0"
140
0.0625
141
12.0
290
     0
  0
SCALE
  5
51
102
{ACAD_REACTORS
330
3B
102
}
330
3B
100
AcDbScale
 70
     0
300
3/32" = 1'-0"
140
0.09375
141
12.0
290
     0
  0
SCALE
  5
52
102
{ACAD_REACTORS
330
3B
102
}
330
3B
100
AcDbScale
 70
     0
300
1/8" = 1'-0"
140
0.125
141
12.0
290
     0
  0
SCALE
  5
53
102
{ACAD_REACTORS
330
3B
102
}
330
3B
100
AcDbScale
 70
     0
300
3/16" = 1'-0"
140
0.1875
141
12.0
290
     0
  0
SCALE
  5
54
102
{ACAD_REACTORS
330
3B
102
}
330
3B
100
AcDbScale
 70
     0
300
1/4" = 1'-0"
140
0.25
141
12.0
290
     0
  0
SCALE
  5
55
102
{ACAD_REACTORS
330
3B
102
}
330
3B
100
AcDbScale
 70
     0
300
3/8" = 1'-0"
140
0.375
141
12.0
290
     0
  0
SCALE
  5
56
102
{ACAD_REACTORS
330
3B
102
}
330
3B
100
AcDbScale
 70
     0
300
1/2" = 1'-0"
140
0.5
141
12.0
290
     0
  0
SCALE
  5
57
102
{ACAD_REACTORS
330
3B
102
}
330
3B
100
AcDbScale
 70
     0
300
3/4" = 1'-0"
140
0.75
141
12.0
290
     0
  0
SCALE
  5
58
102
{ACAD_REACTORS
330
3B
102
}
330
3B
100
AcDbScale
 70
     0
300
1" = 1'-0"
140
1.0
141
12.0
290
     0
  0
SCALE
  5
59
102
{ACAD_REACTORS
330
3B
102
}
330
3B
100
AcDbScale
 70
     0
300
1-1/2" = 1'-0"
140
1.5
141
12.0
290
     0
  0
SCALE
  5
5A
102
{ACAD_REACTORS
330
3B
102
}
330
3B
100
AcDbScale
 70
     0
300
3" = 1'-0"
140
3.0
141
12.0
290
     0
  0
SCALE
  5
5B
102
{ACAD_REACTORS
330
3B
102
}
330
3B
100
AcDbScale
 70
     0
300
6" = 1'-0"
140
6.0
141
12.0
290
     0
  0
SCALE
  5
5C
102
{ACAD_REACTORS
330
3B
102
}
330
3B
100
AcDbScale
 70
     0
300
1'-0" = 1'-0"
140
12.0
141
12.0
290
     0
  0
VISUALSTYLE
  5
2F
102
{ACAD_REACTORS
330
2A
102
}
330
2A
100
AcDbVisualStyle
  2
2dWireframe
 70
     4
 71
     0
 72
     2
 73
     0
 90
        0
 40
-0.6
 41
-30.0
 62
     5
 63
     7
 74
     1
 91
        4
 64
     7
 65
   257
 75
     1
175
     1
 42
1.0
 92
        0
 66
   257
 43
1.0
 76
     1
 77
     6
 78
     2
 67
     7
 79
     5
170
     0
171
     0
290
     0
174
     0
 93
        1
 44
0.0
173
     0
291
     0
 45
0.0
1001
ACAD
1000
AcDbSavedByObjectVersion
1070
     0
  0
VISUALSTYLE
  5
31
102
{ACAD_REACTORS
330
2A
102
}
330
2A
100
AcDbVisualStyle
  2
3D Hidden
 70
     6
 71
     1
 72
     2
 73
     2
 90
        0
 40
-0.6
 41
-30.0
 62
     5
 63
     7
 74
     2
 91
        2
 64
     7
 65
   257
 75
     2
175
     1
 42
40.0
 92
        0
 66
   257
 43
1.0
 76
     1
 77
     6
 78
     2
 67
     7
 79
     3
170
     0
171
     0
290
     0
174
     0
 93
        1
 44
0.0
173
     0
291
     0
 45
0.0
1001
ACAD
1000
AcDbSavedByObjectVersion
1070
     0
  0
VISUALSTYLE
  5
30
102
{ACAD_REACTORS
330
2A
102
}
330
2A
100
AcDbVisualStyle
  2
3dWireframe
 70
     5
 71
     0
 72
     2
 73
     0
 90
        0
 40
-0.6
 41
-30.0
 62
     5
 63
     7
 74
     1
 91
        4
 64
     7
 65
   257
 75
     1
175
     1
 42
1.0
 92
        0
 66
   257
 43
1.0
 76
     1
 77
     6
 78
     2
 67
     7
 79
     5
170
     0
171
     0
290
     0
174
     0
 93
        1
 44
0.0
173
     0
291
     0
 45
0.0
1001
ACAD
1000
AcDbSavedByObjectVersion
1070
     0
  0
VISUALSTYLE
  5
32
102
{ACAD_REACTORS
330
2A
102
}
330
2A
100
AcDbVisualStyle
  2
Basic
 70
     7
 71
     1
 72
     0
 73
     1
 90
        0
 40
-0.6
 41
-30.0
 62
     5
 63
     7
 74
     0
 91
        4
 64
     7
 65
   257
 75
     1
175
     1
 42
1.0
 92
        8
 66
     7
 43
1.0
 76
     1
 77
     6
 78
     2
 67
     7
 79
     5
170
     0
171
     0
290
     0
174
     0
 93
        1
 44
0.0
173
     0
291
     1
 45
0.0
1001
ACAD
1000
AcDbSavedByObjectVersion
1070
     0
  0
VISUALSTYLE
  5
36
102
{ACAD_REACTORS
330
2A
102
}
330
2A
100
AcDbVisualStyle
  2
Brighten
 70
    12
 71
     2
 72
     2
 73
     0
 90
        0
 40
-0.6
 41
-30.0
 62
     5
 63
     7
 74
     1
 91
        4
 64
     7
 65
   257
 75
     1
175
     1
 42
1.0
 92
        8
 66
     7
 43
1.0
 76
     1
 77
     6
 78
     2
 67
     7
 79
     5
170
     0
171
     0
290
     0
174
     0
 93
        1
 44
50.0
173
     0
291
     1
 45
0.0
1001
ACAD
1000
AcDbSavedByObjectVersion
1070
     0
  0
VISUALSTYLE
  5
3A
102
{ACAD_REACTORS
330
2A
102
}
330
2A
100
AcDbVisualStyle
  2
ColorChange
 70
    16
 71
     2
 72
     2
 73
     3
 90
        0
 40
-0.6
 41
-30.0
 62
     5
 63
     8
 74
     1
 91
        4
 64
     7
 65
   257
 75
     1
175
     1
 42
1.0
 92
        8
 66
     8
 43
1.0
 76
     1
 77
     6
 78
     2
 67
     7
 79
     5
170
     0
171
     0
290
     0
174
     0
 93
        1
 44
0.0
173
     0
291
     1
 45
0.0
1001
ACAD
1000
AcDbSavedByObjectVersion
1070
     0
  0
VISUALSTYLE
  5
34
102
{ACAD_REACTORS
330
2A
102
}
330
2A
100
AcDbVisualStyle
  2
Conceptual
 70
     9
 71
     3
 72
     2
 73
     0
 90
        0
 40
-0.6
 41
-30.0
 62
     5
 63
     7
 74
     2
 91
        2
 64
     7
 65
   257
 75
     1
175
     1
 42
40.0
 92
        8
 66
     7
 43
1.0
 76
     1
 77
     6
 78
     2
 67
     7
 79
     3
170
     0
171
     0
290
     0
174
     0
 93
        1
 44
0.0
173
     0
291
     0
 45
0.0
1001
ACAD
1000
AcDbSavedByObjectVersion
1070
     0
  0
VISUALSTYLE
  5
35
102
{ACAD_REACTORS
330
2A
102
}
330
2A
100
AcDbVisualStyle
  2
Dim
 70
    11
 71
     2
 72
     2
 73
     0
 90
        0
 40
-0.6
 41
-30.0
 62
     5
 63
     7
 74
     1
 91
        4
 64
     7
 65
   257
 75
     1
175
     1
 42
1.0
 92
        8
 66
     7
 43
1.0
 76
     1
 77
     6
 78
     2
 67
     7
 79
     5
170
     0
171
     0
290
     0
174
     0
 93
        1
 44
-50.0
173
     0
291
     1
 45
0.0
1001
ACAD
1000
AcDbSavedByObjectVersion
1070
     0
  0
VISUALSTYLE
  5
39
102
{ACAD_REACTORS
330
2A
102
}
330
2A
100
AcDbVisualStyle
  2
Facepattern
 70
    15
 71
     2
 72
     2
 73
     0
 90
        0
 40
-0.6
 41
-30.0
 62
     5
 63
     7
 74
     1
 91
        4
 64
     7
 65
   257
 75
     1
175
     1
 42
1.0
 92
        8
 66
     7
 43
1.0
 76
     1
 77
     6
 78
     2
 67
     7
 79
     5
170
     0
171
     0
290
     0
174
     0
 93
        1
 44
0.0
173
     0
291
     1
 45
0.0
1001
ACAD
1000
AcDbSavedByObjectVersion
1070
     0
  0
VISUALSTYLE
  5
2B
102
{ACAD_REACTORS
330
2A
102
}
330
2A
100
AcDbVisualStyle
  2
Flat
 70
     0
 71
     2
 72
     1
 73
     1
 90
        2
 40
-0.6
 41
30.0
 62
     5
 63
     7
 74
     0
 91
        4
 64
     7
 65
   257
 75
     1
175
     1
 42
1.0
 92
        8
 66
     7
 43
1.0
 76
     1
 77
     6
 78
     2
 67
     7
 79
     5
170
     0
171
     0
290
     0
174
     0
 93
       13
 44
0.0
173
     0
291
     1
 45
0.0
1001
ACAD
1000
AcDbSavedByObjectVersion
1070
     0
  0
VISUALSTYLE
  5
2C
102
{ACAD_REACTORS
330
2A
102
}
330
2A
100
AcDbVisualStyle
  2
FlatWithEdges
 70
     1
 71
     2
 72
     1
 73
     1
 90
        2
 40
-0.6
 41
30.0
 62
     5
 63
     7
 74
     1
 91
        4
 64
     7
 65
   257
 75
     1
175
     1
 42
1.0
 92
        0
 66
   257
 43
1.0
 76
     1
 77
     6
 78
     2
 67
     7
 79
     5
170
     0
171
     0
290
     0
174
     0
 93
       13
 44
0.0
173
     0
291
     1
 45
0.0
1001
ACAD
1000
AcDbSavedByObjectVersion
1070
     0
  0
VISUALSTYLE
  5
2D
102
{ACAD_REACTORS
330
2A
102
}
330
2A
100
AcDbVisualStyle
  2
Gouraud
 70
     2
 71
     2
 72
     2
 73
     1
 90
        2
 40
-0.6
 41
30.0
 62
     5
 63
     7
 74
     0
 91
        4
 64
     7
 65
   257
 75
     1
175
     1
 42
1.0
 92
        0
 66
     7
 43
1.0
 76
     1
 77
     6
 78
     2
 67
     7
 79
     5
170
     0
171
     0
290
     0
174
     0
 93
       13
 44
0.0
173
     0
291
     1
 45
0.0
1001
ACAD
1000
AcDbSavedByObjectVersion
1070
     0
  0
VISUALSTYLE
  5
2E
102
{ACAD_REACTORS
330
2A
102
}
330
2A
100
AcDbVisualStyle
  2
GouraudWithEdges
 70
     3
 71
     2
 72
     2
 73
     1
 90
        2
 40
-0.6
 41
30.0
 62
     5
 63
     7
 74
     1
 91
        4
 64
     7
 65
   257
 75
     1
175
     1
 42
1.0
 92
        0
 66
   257
 43
1.0
 76
     1
 77
     6
 78
     2
 67
     7
 79
     5
170
     0
171
     0
290
     0
174
     0
 93
       13
 44
0.0
173
     0
291
     1
 45
0.0
1001
ACAD
1000
AcDbSavedByObjectVersion
1070
     0
  0
VISUALSTYLE
  5
38
102
{ACAD_REACTORS
330
2A
102
}
330
2A
100
AcDbVisualStyle
  2
Linepattern
 70
    14
 71
     2
 72
     2
 73
     0
 90
        0
 40
-0.6
 41
-30.0
 62
     5
 63
     7
 74
     1
 91
        4
 64
     7
 65
   257
 75
     7
175
     7
 42
1.0
 92
        8
 66
     7
 43
1.0
 76
     1
 77
     6
 78
     2
 67
     7
 79
     5
170
     0
171
     0
290
     0
174
     0
 93
        1
 44
0.0
173
     0
291
     1
 45
0.0
1001
ACAD
1000
AcDbSavedByObjectVersion
1070
     0
  0
VISUALSTYLE
  5
33
102
{ACAD_REACTORS
330
2A
102
}
330
2A
100
AcDbVisualStyle
  2
Realistic
 70
     8
 71
     2
 72
     2
 73
     0
 90
        0
 40
-0.6
 41
-30.0
 62
     5
 63
     7
 74
     1
 91
        0
 64
     7
 65
   257
 75
     1
175
     1
 42
1.0
 92
        8
 66
     8
 43
1.0
 76
     1
 77
     6
 78
     2
 67
     7
 79
     5
170
     0
171
     0
290
     0
174
     0
 93
       13
 44
0.0
173
     0
291
     0
 45
0.0
1001
ACAD
1000
AcDbSavedByObjectVersion
1070
     0
  0
VISUALSTYLE
  5
37
102
{ACAD_REACTORS
330
2A
102
}
330
2A
100
AcDbVisualStyle
  2
Thicken
 70
    13
 71
     2
 72
     2
 73
     0
 90
        0
 40
-0.6
 41
-30.0
 62
     5
 63
     7
 74
     1
 91
        4
 64
     7
 65
   257
 75
     1
175
     1
 42
1.0
 92
       12
 66
     7
 43
1.0
 76
     1
 77
     6
 78
     2
 67
     7
 79
     5
170
     0
171
     0
290
     0
174
     0
 93
        1
 44
0.0
173
     0
291
     1
 45
0.0
1001
ACAD
1000
AcDbSavedByObjectVersion
1070
     0
  0
DICTIONARYVAR
  5
213
102
{ACAD_REACTORS
330
212
102
}
330
212
100
DictionaryVariables
280
     0
  1
1:1
  0
XRECORD
  5
211
102
{ACAD_REACTORS
330
210
102
}
330
210
100
AcDbXrecord
280
     1
1000
Ten plik DWG został utworzony w programie ArchiCAD(TM)®
  0
ENDSEC
  0
EOF
