  0
SECTION
  2
HEADER
  9
$ACADVER
  1
AC1018
  9
$ACADMAINTVER
 70
     0
  9
$DWGCODEPAGE
  3
ANSI_1250
  9
$INSBASE
 10
0.0
 20
0.0
 30
0.0
  9
$EXTMIN
 10
1.000000000000000E+20
 20
1.000000000000000E+20
 30
1.000000000000000E+20
  9
$EXTMAX
 10
-1.000000000000000E+20
 20
-1.000000000000000E+20
 30
-1.000000000000000E+20
  9
$LIMMIN
 10
0.0
 20
0.0
  9
$LIMMAX
 10
12.0
 20
9.0
  9
$ORTHOMODE
 70
     0
  9
$REGENMODE
 70
     1
  9
$FILLMODE
 70
     1
  9
$QTEXTMODE
 70
     0
  9
$MIRRTEXT
 70
     1
  9
$LTSCALE
 40
1.0
  9
$ATTMODE
 70
     1
  9
$TEXTSIZE
 40
0.2
  9
$TRACEWID
 40
0.05
  9
$TEXTSTYLE
  7
Standard
  9
$CLAYER
  8
0
  9
$CELTYPE
  6
ByLayer
  9
$CECOLOR
 62
   256
  9
$CELTSCALE
 40
1.0
  9
$DISPSILH
 70
     0
  9
$DIMSCALE
 40
1.0
  9
$DIMASZ
 40
0.18
  9
$DIMEXO
 40
0.0625
  9
$DIMDLI
 40
0.38
  9
$DIMRND
 40
0.0
  9
$DIMDLE
 40
0.0
  9
$DIMEXE
 40
0.18
  9
$DIMTP
 40
0.0
  9
$DIMTM
 40
0.0
  9
$DIMTXT
 40
0.18
  9
$DIMCEN
 40
0.09
  9
$DIMTSZ
 40
0.0
  9
$DIMTOL
 70
     0
  9
$DIMLIM
 70
     0
  9
$DIMTIH
 70
     1
  9
$DIMTOH
 70
     1
  9
$DIMSE1
 70
     0
  9
$DIMSE2
 70
     0
  9
$DIMTAD
 70
     0
  9
$DIMZIN
 70
     0
  9
$DIMBLK
  1

  9
$DIMASO
 70
     1
  9
$DIMSHO
 70
     1
  9
$DIMPOST
  1

  9
$DIMAPOST
  1

  9
$DIMALT
 70
     0
  9
$DIMALTD
 70
     2
  9
$DIMALTF
 40
25.4
  9
$DIMLFAC
 40
1.0
  9
$DIMTOFL
 70
     0
  9
$DIMTVP
 40
0.0
  9
$DIMTIX
 70
     0
  9
$DIMSOXD
 70
     0
  9
$DIMSAH
 70
     0
  9
$DIMBLK1
  1

  9
$DIMBLK2
  1

  9
$DIMSTYLE
  2
Standard
  9
$DIMCLRD
 70
     0
  9
$DIMCLRE
 70
     0
  9
$DIMCLRT
 70
     0
  9
$DIMTFAC
 40
1.0
  9
$DIMGAP
 40
0.09
  9
$DIMJUST
 70
     0
  9
$DIMSD1
 70
     0
  9
$DIMSD2
 70
     0
  9
$DIMTOLJ
 70
     1
  9
$DIMTZIN
 70
     0
  9
$DIMALTZ
 70
     0
  9
$DIMALTTZ
 70
     0
  9
$DIMUPT
 70
     0
  9
$DIMDEC
 70
     4
  9
$DIMTDEC
 70
     4
  9
$DIMALTU
 70
     2
  9
$DIMALTTD
 70
     2
  9
$DIMTXSTY
  7
Standard
  9
$DIMAUNIT
 70
     0
  9
$DIMADEC
 70
     0
  9
$DIMALTRND
 40
0.0
  9
$DIMAZIN
 70
     0
  9
$DIMDSEP
 70
    46
  9
$DIMATFIT
 70
     3
  9
$DIMFRAC
 70
     0
  9
$DIMLDRBLK
  1

  9
$DIMLUNIT
 70
     2
  9
$DIMLWD
 70
    -2
  9
$DIMLWE
 70
    -2
  9
$DIMTMOVE
 70
     0
  9
$LUNITS
 70
     2
  9
$LUPREC
 70
     4
  9
$SKETCHINC
 40
0.1
  9
$FILLETRAD
 40
0.5
  9
$AUNITS
 70
     0
  9
$AUPREC
 70
     0
  9
$MENU
  1
.
  9
$ELEVATION
 40
0.0
  9
$PELEVATION
 40
0.0
  9
$THICKNESS
 40
0.0
  9
$LIMCHECK
 70
     0
  9
$CHAMFERA
 40
0.5
  9
$CHAMFERB
 40
0.5
  9
$CHAMFERC
 40
1.0
  9
$CHAMFERD
 40
0.0
  9
$SKPOLY
 70
     0
  9
$TDCREATE
 40
2459522.425988414
  9
$TDUCREATE
 40
2459522.384321748
  9
$TDUPDATE
 40
2459522.425988426
  9
$TDUUPDATE
 40
2459522.384321759
  9
$TDINDWG
 40
0.0000000116
  9
$TDUSRTIMER
 40
0.0000000116
  9
$USRTIMER
 70
     1
  9
$ANGBASE
 50
0.0
  9
$ANGDIR
 70
     0
  9
$PDMODE
 70
     0
  9
$PDSIZE
 40
0.0
  9
$PLINEWID
 40
0.0
  9
$SPLFRAME
 70
     0
  9
$SPLINETYPE
 70
     6
  9
$SPLINESEGS
 70
     8
  9
$HANDSEED
  5
399
  9
$SURFTAB1
 70
     6
  9
$SURFTAB2
 70
     6
  9
$SURFTYPE
 70
     6
  9
$SURFU
 70
     6
  9
$SURFV
 70
     6
  9
$UCSBASE
  2

  9
$UCSNAME
  2

  9
$UCSORG
 10
0.0
 20
0.0
 30
0.0
  9
$UCSXDIR
 10
1.0
 20
0.0
 30
0.0
  9
$UCSYDIR
 10
0.0
 20
1.0
 30
0.0
  9
$UCSORTHOREF
  2

  9
$UCSORTHOVIEW
 70
     0
  9
$UCSORGTOP
 10
0.0
 20
0.0
 30
0.0
  9
$UCSORGBOTTOM
 10
0.0
 20
0.0
 30
0.0
  9
$UCSORGLEFT
 10
0.0
 20
0.0
 30
0.0
  9
$UCSORGRIGHT
 10
0.0
 20
0.0
 30
0.0
  9
$UCSORGFRONT
 10
0.0
 20
0.0
 30
0.0
  9
$UCSORGBACK
 10
0.0
 20
0.0
 30
0.0
  9
$PUCSBASE
  2

  9
$PUCSNAME
  2

  9
$PUCSORG
 10
0.0
 20
0.0
 30
0.0
  9
$PUCSXDIR
 10
1.0
 20
0.0
 30
0.0
  9
$PUCSYDIR
 10
0.0
 20
1.0
 30
0.0
  9
$PUCSORTHOREF
  2

  9
$PUCSORTHOVIEW
 70
     0
  9
$PUCSORGTOP
 10
0.0
 20
0.0
 30
0.0
  9
$PUCSORGBOTTOM
 10
0.0
 20
0.0
 30
0.0
  9
$PUCSORGLEFT
 10
0.0
 20
0.0
 30
0.0
  9
$PUCSORGRIGHT
 10
0.0
 20
0.0
 30
0.0
  9
$PUCSORGFRONT
 10
0.0
 20
0.0
 30
0.0
  9
$PUCSORGBACK
 10
0.0
 20
0.0
 30
0.0
  9
$USERI1
 70
     0
  9
$USERI2
 70
     0
  9
$USERI3
 70
     0
  9
$USERI4
 70
     0
  9
$USERI5
 70
     0
  9
$USERR1
 40
0.0
  9
$USERR2
 40
0.0
  9
$USERR3
 40
0.0
  9
$USERR4
 40
0.0
  9
$USERR5
 40
0.0
  9
$WORLDVIEW
 70
     1
  9
$SHADEDGE
 70
     3
  9
$SHADEDIF
 70
    70
  9
$TILEMODE
 70
     0
  9
$MAXACTVP
 70
    64
  9
$PINSBASE
 10
0.0
 20
0.0
 30
0.0
  9
$PLIMCHECK
 70
     0
  9
$PEXTMIN
 10
-0.0000000000000009
 20
0.0
 30
0.0
  9
$PEXTMAX
 10
297.0
 20
210.0
 30
0.0
  9
$PLIMMIN
 10
0.0
 20
0.0
  9
$PLIMMAX
 10
297.0
 20
210.0
  9
$UNITMODE
 70
     0
  9
$VISRETAIN
 70
     1
  9
$PLINEGEN
 70
     0
  9
$PSLTSCALE
 70
     0
  9
$TREEDEPTH
 70
  3020
  9
$CMLSTYLE
  2
Standard
  9
$CMLJUST
 70
     0
  9
$CMLSCALE
 40
1.0
  9
$PROXYGRAPHICS
 70
     1
  9
$MEASUREMENT
 70
     0
  9
$CELWEIGHT
370
    -1
  9
$ENDCAPS
280
     0
  9
$JOINSTYLE
280
     0
  9
$LWDISPLAY
290
     1
  9
$INSUNITS
 70
     0
  9
$HYPERLINKBASE
  1

  9
$STYLESHEET
  1

  9
$XEDIT
290
     1
  9
$CEPSNTYPE
380
     0
  9
$PSTYLEMODE
290
     1
  9
$FINGERPRINTGUID
  2
{7749E0EB-88B4-4943-9BE4-6CE06FD9002B}
  9
$VERSIONGUID
  2
{FAEB1C32-E019-11D5-929B-00C0DF256EC4}
  9
$EXTNAMES
290
     1
  9
$PSVPSCALE
 40
0.0
  9
$OLESTARTUP
290
     0
  9
$SORTENTS
280
   127
  9
$INDEXCTL
280
     0
  9
$HIDETEXT
280
     1
  9
$XCLIPFRAME
290
     0
  9
$HALOGAP
280
     0
  9
$OBSCOLOR
 70
   257
  9
$OBSLTYPE
280
     0
  9
$INTERSECTIONDISPLAY
280
     0
  9
$INTERSECTIONCOLOR
 70
   257
  9
$DIMASSOC
280
     2
  9
$PROJECTNAME
  1

  0
ENDSEC
  0
SECTION
  2
CLASSES
  0
CLASS
  1
ACDBDICTIONARYWDFLT
  2
AcDbDictionaryWithDefault
  3
ObjectDBX Classes
 90
        0
 91
        3
280
     0
281
     0
  0
CLASS
  1
VISUALSTYLE
  2
AcDbVisualStyle
  3
ObjectDBX Classes
 90
     4095
 91
        3
280
     0
281
     0
  0
CLASS
  1
SCALE
  2
AcDbScale
  3
ObjectDBX Classes
 90
     1153
 91
        3
280
     0
281
     0
  0
CLASS
  1
SPATIAL_FILTER
  2
AcDbSpatialFilter
  3
ObjectDBX Classes
 90
        0
 91
        3
280
     0
281
     0
  0
ENDSEC
  0
SECTION
  2
TABLES
  0
TABLE
  2
VPORT
  5
8
330
0
100
AcDbSymbolTable
 70
     1
  0
VPORT
  5
29
330
8
100
AcDbSymbolTableRecord
100
AcDbViewportTableRecord
  2
*Active
 70
     0
 10
0.0
 20
0.0
 11
1.0
 21
1.0
 12
10.42990654205607
 22
4.5
 13
0.0
 23
0.0
 14
0.5
 24
0.5
 15
0.5
 25
0.5
 16
0.0
 26
0.0
 36
1.0
 17
0.0
 27
0.0
 37
0.0
 40
9.0
 41
1.972972972850329
 42
50.0
 43
0.0
 44
0.0
 50
0.0
 51
0.0
 71
     0
 72
   100
 73
     1
 74
     3
 75
     0
 76
     0
 77
     0
 78
     0
281
     0
 65
     1
110
0.0
120
0.0
130
0.0
111
1.0
121
0.0
131
0.0
112
0.0
122
1.0
132
0.0
 79
     0
146
0.0
  0
ENDTAB
  0
TABLE
  2
LTYPE
  5
5
330
0
100
AcDbSymbolTable
 70
     4
  0
LTYPE
  5
14
330
5
100
AcDbSymbolTableRecord
100
AcDbLinetypeTableRecord
  2
ByBlock
 70
     0
  3

 72
    65
 73
     0
 40
0.0
  0
LTYPE
  5
15
330
5
100
AcDbSymbolTableRecord
100
AcDbLinetypeTableRecord
  2
ByLayer
 70
     0
  3

 72
    65
 73
     0
 40
0.0
  0
LTYPE
  5
16
330
5
100
AcDbSymbolTableRecord
100
AcDbLinetypeTableRecord
  2
Continuous
 70
     0
  3
Solid line
 72
    65
 73
     0
 40
0.0
  0
LTYPE
  5
195
330
5
100
AcDbSymbolTableRecord
100
AcDbLinetypeTableRecord
  2
Przerywana
 70
     0
  3
- - - - - 
 72
    65
 73
     2
 40
30.0
 49
20.0
 74
     0
 49
-10.0
 74
     0
  0
LTYPE
  5
19D
330
5
100
AcDbSymbolTableRecord
100
AcDbLinetypeTableRecord
  2
IZOLACJA GRUBA
 70
     0
  3
??????????
 72
    65
 73
     3
 40
80.0
 49
0.0
 74
     4
 75
     1
340
19E
 46
0.6349206349206349
 50
0.0
 44
0.0
 45
0.0
 49
-80.0
 74
     0
 49
0.0
 74
     0
  0
LTYPE
  5
2E3
330
5
100
AcDbSymbolTableRecord
100
AcDbLinetypeTableRecord
  2
Przerywana b. gęsta
 70
     0
  3
- - - - - 
 72
    65
 73
     2
 40
16.0
 49
8.0
 74
     0
 49
-8.0
 74
     0
  0
ENDTAB
  0
TABLE
  2
LAYER
  5
2
330
0
100
AcDbSymbolTable
 70
     3
  0
LAYER
  5
10
330
2
100
AcDbSymbolTableRecord
100
AcDbLayerTableRecord
  2
0
 70
     0
 62
     7
  6
Continuous
370
    -3
390
F
  0
LAYER
  5
1A0
330
2
100
AcDbSymbolTableRecord
100
AcDbLayerTableRecord
  2
Linia Izolacji - ARCHICAD
 70
     0
 62
     7
  6
Continuous
370
    -3
390
F
  0
LAYER
  5
390
330
2
100
AcDbSymbolTableRecord
100
AcDbLayerTableRecord
  2
NonPlottable_0
 70
     0
 62
     7
  6
Continuous
290
     0
370
    -3
390
F
  0
ENDTAB
  0
TABLE
  2
STYLE
  5
3
330
0
100
AcDbSymbolTable
 70
     4
  0
STYLE
  5
11
330
3
100
AcDbSymbolTableRecord
100
AcDbTextStyleTableRecord
  2
Standard
 70
     0
 40
0.0
 41
1.0
 50
0.0
 71
     0
 42
0.2
  3
txt
  4
BIGFONT.SHX
  0
STYLE
  5
19E
330
3
100
AcDbSymbolTableRecord
100
AcDbTextStyleTableRecord
  2

 70
     1
 40
0.2
 41
1.0
 50
0.0
 71
     0
 42
0.2
  3
03.21.10_BALKON_T-ŁĄCZNIK_2W_płytki na dyst1.Shx
  4

  0
STYLE
  5
306
330
3
100
AcDbSymbolTableRecord
100
AcDbTextStyleTableRecord
  2
GENERATED_STYLE_1
 70
     0
 40
0.0
 41
1.0
 50
0.0
 71
     0
 42
0.2
  3

  4

1001
ACAD
1000
Arial
1071
    60966
  0
STYLE
  5
309
330
3
100
AcDbSymbolTableRecord
100
AcDbTextStyleTableRecord
  2
GENERATED_STYLE_2
 70
     0
 40
0.0
 41
1.0
 50
0.0
 71
     0
 42
0.2
  3

  4

1001
ACAD
1000
Arial
1071
 33615398
  0
ENDTAB
  0
TABLE
  2
VIEW
  5
6
330
0
100
AcDbSymbolTable
 70
     0
  0
ENDTAB
  0
TABLE
  2
UCS
  5
7
330
0
100
AcDbSymbolTable
 70
     0
  0
ENDTAB
  0
TABLE
  2
APPID
  5
9
330
0
100
AcDbSymbolTable
 70
     1
  0
APPID
  5
12
330
9
100
AcDbSymbolTableRecord
100
AcDbRegAppTableRecord
  2
ACAD
 70
     0
  0
ENDTAB
  0
TABLE
  2
DIMSTYLE
  5
A
330
0
100
AcDbSymbolTable
 70
     1
100
AcDbDimStyleTable
  0
DIMSTYLE
105
27
330
A
100
AcDbSymbolTableRecord
100
AcDbDimStyleTableRecord
  2
Standard
 70
     0
340
11
  0
ENDTAB
  0
TABLE
  2
BLOCK_RECORD
  5
1
330
0
100
AcDbSymbolTable
 70
    12
  0
BLOCK_RECORD
  5
1F
330
1
100
AcDbSymbolTableRecord
100
AcDbBlockTableRecord
  2
*Model_Space
340
22
  0
BLOCK_RECORD
  5
1B
330
1
100
AcDbSymbolTableRecord
100
AcDbBlockTableRecord
  2
*Paper_Space
340
1E
  0
BLOCK_RECORD
  5
23
330
1
100
AcDbSymbolTableRecord
100
AcDbBlockTableRecord
  2
*Paper_Space0
340
26
  0
BLOCK_RECORD
  5
89
330
1
100
AcDbSymbolTableRecord
100
AcDbBlockTableRecord
  2
InsulFib 65
340
0
102
{BLKREFS
331
D9
331
146
102
}
  0
BLOCK_RECORD
  5
DA
330
1
100
AcDbSymbolTableRecord
100
AcDbBlockTableRecord
  2
InsulFib 65_2
340
0
102
{BLKREFS
331
F2
102
}
  0
BLOCK_RECORD
  5
F3
330
1
100
AcDbSymbolTableRecord
100
AcDbBlockTableRecord
  2
InsulFib 65_3
340
0
102
{BLKREFS
331
10F
102
}
  0
BLOCK_RECORD
  5
110
330
1
100
AcDbSymbolTableRecord
100
AcDbBlockTableRecord
  2
InsulFib 65_4
340
0
102
{BLKREFS
331
128
102
}
  0
BLOCK_RECORD
  5
129
330
1
100
AcDbSymbolTableRecord
100
AcDbBlockTableRecord
  2
InsulFib 65_5
340
0
102
{BLKREFS
331
145
102
}
  0
BLOCK_RECORD
  5
147
330
1
100
AcDbSymbolTableRecord
100
AcDbBlockTableRecord
  2
InsulFib 65_6
340
0
102
{BLKREFS
331
16F
102
}
  0
BLOCK_RECORD
  5
170
330
1
100
AcDbSymbolTableRecord
100
AcDbBlockTableRecord
  2
InsulFib 65_7
340
0
102
{BLKREFS
331
17C
102
}
  0
BLOCK_RECORD
  5
17D
330
1
100
AcDbSymbolTableRecord
100
AcDbBlockTableRecord
  2
InsulFib 65_8
340
0
102
{BLKREFS
331
18D
102
}
  0
BLOCK_RECORD
  5
385
330
1
100
AcDbSymbolTableRecord
100
AcDbBlockTableRecord
  2
Bez nazwy_STORY_MARKER
340
0
  0
BLOCK_RECORD
  5
388
330
1
100
AcDbSymbolTableRecord
100
AcDbBlockTableRecord
  2
Rysunek_1
340
0
102
{BLKREFS
331
38B
102
}
  0
BLOCK_RECORD
  5
392
330
1
100
AcDbSymbolTableRecord
100
AcDbBlockTableRecord
  2
01 03.21.10_BALKON_T-\U+FFA3\U+FFA5CZNIK_2W_STORY_MARKER
340
0
  0
ENDTAB
  0
ENDSEC
  0
SECTION
  2
BLOCKS
  0
BLOCK
  5
20
330
1F
100
AcDbEntity
  8
0
100
AcDbBlockBegin
  2
*Model_Space
 70
     0
 10
0.0
 20
0.0
 30
0.0
  3
*Model_Space
  1

  0
ENDBLK
  5
21
330
1F
100
AcDbEntity
  8
0
100
AcDbBlockEnd
  0
BLOCK
  5
1C
330
1B
100
AcDbEntity
 67
     1
  8
0
100
AcDbBlockBegin
  2
*Paper_Space
 70
     0
 10
0.0
 20
0.0
 30
0.0
  3
*Paper_Space
  1

  0
ENDBLK
  5
1D
330
1B
100
AcDbEntity
 67
     1
  8
0
100
AcDbBlockEnd
  0
BLOCK
  5
24
330
23
100
AcDbEntity
  8
0
100
AcDbBlockBegin
  2
*Paper_Space0
 70
     0
 10
0.0
 20
0.0
 30
0.0
  3
*Paper_Space0
  1

  0
ENDBLK
  5
25
330
23
100
AcDbEntity
  8
0
100
AcDbBlockEnd
  0
BLOCK
  5
8A
330
89
100
AcDbEntity
  8
0
100
AcDbBlockBegin
  2
InsulFib 65
 70
     0
 10
0.0
 20
0.0
 30
0.0
  3
InsulFib 65
  1

  0
LINE
  5
8C
330
89
100
AcDbEntity
  8
0
  6
Continuous
370
    13
100
AcDbLine
 10
2.282047244498818
 20
2.979887695061781
 30
0.0
 11
4.033604197258012
 21
7.020111108949479
 31
0.0
  0
LINE
  5
8D
330
89
100
AcDbEntity
  8
0
  6
Continuous
370
    13
100
AcDbLine
 10
0.1768303603352801
 20
7.020111108949479
 30
0.0
 11
1.928385734562041
 21
2.979887695061781
 31
0.0
  0
LINE
  5
8E
330
89
100
AcDbEntity
  8
0
  6
Continuous
370
    13
100
AcDbLine
 10
6.492573560288268
 20
2.979887695061781
 30
0.0
 11
8.244130513047462
 21
7.020111108949479
 31
0.0
  0
LINE
  5
8F
330
89
100
AcDbEntity
  8
0
  6
Continuous
370
    13
100
AcDbLine
 10
4.38735667612473
 20
7.020111108949479
 30
0.0
 11
6.138912050351491
 21
2.979887695061781
 31
0.0
  0
LINE
  5
90
330
89
100
AcDbEntity
  8
0
  6
Continuous
370
    13
100
AcDbLine
 10
10.70309987607772
 20
2.979887695061781
 30
0.0
 11
12.45465682883691
 21
7.020111108949479
 31
0.0
  0
LINE
  5
91
330
89
100
AcDbEntity
  8
0
  6
Continuous
370
    13
100
AcDbLine
 10
8.597882991914181
 20
7.020111108949479
 30
0.0
 11
10.34943836614094
 21
2.979887695061781
 31
0.0
  0
LINE
  5
92
330
89
100
AcDbEntity
  8
0
  6
Continuous
370
    13
100
AcDbLine
 10
14.91362619186717
 20
2.979887695061781
 30
0.0
 11
16.66518314462636
 21
7.020111108949479
 31
0.0
  0
LINE
  5
93
330
89
100
AcDbEntity
  8
0
  6
Continuous
370
    13
100
AcDbLine
 10
12.80840930770363
 20
7.020111108949479
 30
0.0
 11
14.55996468193039
 21
2.979887695061781
 31
0.0
  0
LINE
  5
94
330
89
100
AcDbEntity
  8
0
  6
Continuous
370
    13
100
AcDbLine
 10
19.12415250765662
 20
2.979887695061781
 30
0.0
 11
20.87570946041581
 21
7.020111108949479
 31
0.0
  0
LINE
  5
95
330
89
100
AcDbEntity
  8
0
  6
Continuous
370
    13
100
AcDbLine
 10
17.01893562349308
 20
7.020111108949479
 30
0.0
 11
18.77049099771984
 21
2.979887695061781
 31
0.0
  0
LINE
  5
96
330
89
100
AcDbEntity
  8
0
  6
Continuous
370
    13
100
AcDbLine
 10
23.33467882344607
 20
2.979887695061781
 30
0.0
 11
25.08623577620526
 21
7.020111108949479
 31
0.0
  0
LINE
  5
97
330
89
100
AcDbEntity
  8
0
  6
Continuous
370
    13
100
AcDbLine
 10
21.22946193928253
 20
7.020111108949479
 30
0.0
 11
22.98101731350929
 21
2.979887695061781
 31
0.0
  0
LINE
  5
98
330
89
100
AcDbEntity
  8
0
  6
Continuous
370
    13
100
AcDbLine
 10
27.54520513923552
 20
2.979887695061781
 30
0.0
 11
29.29676209199471
 21
7.020111108949479
 31
0.0
  0
LINE
  5
99
330
89
100
AcDbEntity
  8
0
  6
Continuous
370
    13
100
AcDbLine
 10
25.43998825507198
 20
7.020111108949479
 30
0.0
 11
27.19154362929874
 21
2.979887695061781
 31
0.0
  0
LINE
  5
9A
330
89
100
AcDbEntity
  8
0
  6
Continuous
370
    13
100
AcDbLine
 10
31.75573145502496
 20
2.979887695061781
 30
0.0
 11
33.50728840778417
 21
7.020111108949479
 31
0.0
  0
LINE
  5
9B
330
89
100
AcDbEntity
  8
0
  6
Continuous
370
    13
100
AcDbLine
 10
29.65051457086143
 20
7.020111108949479
 30
0.0
 11
31.40206994508819
 21
2.979887695061781
 31
0.0
  0
LINE
  5
9C
330
89
100
AcDbEntity
  8
0
  6
Continuous
370
    13
100
AcDbLine
 10
35.96625777081442
 20
2.979887695061781
 30
0.0
 11
37.71781472357361
 21
7.020111108949479
 31
0.0
  0
LINE
  5
9D
330
89
100
AcDbEntity
  8
0
  6
Continuous
370
    13
100
AcDbLine
 10
33.86104088665088
 20
7.020111108949479
 30
0.0
 11
35.61259626087764
 21
2.979887695061781
 31
0.0
  0
LINE
  5
9E
330
89
100
AcDbEntity
  8
0
  6
Continuous
370
    13
100
AcDbLine
 10
40.17678408660387
 20
2.979887695061781
 30
0.0
 11
41.92834103936306
 21
7.020111108949479
 31
0.0
  0
LINE
  5
9F
330
89
100
AcDbEntity
  8
0
  6
Continuous
370
    13
100
AcDbLine
 10
38.07156720244033
 20
7.020111108949479
 30
0.0
 11
39.82312257666709
 21
2.979887695061781
 31
0.0
  0
LINE
  5
A0
330
89
100
AcDbEntity
  8
0
  6
Continuous
370
    13
100
AcDbLine
 10
44.38731040239332
 20
2.979887695061781
 30
0.0
 11
46.13886735515251
 21
7.020111108949479
 31
0.0
  0
LINE
  5
A1
330
89
100
AcDbEntity
  8
0
  6
Continuous
370
    13
100
AcDbLine
 10
42.28209351822978
 20
7.020111108949479
 30
0.0
 11
44.03364889245654
 21
2.979887695061781
 31
0.0
  0
LINE
  5
A2
330
89
100
AcDbEntity
  8
0
  6
Continuous
370
    13
100
AcDbLine
 10
48.59783671818277
 20
2.979887695061781
 30
0.0
 11
50.34939367094196
 21
7.020111108949479
 31
0.0
  0
LINE
  5
A3
330
89
100
AcDbEntity
  8
0
  6
Continuous
370
    13
100
AcDbLine
 10
46.49261983401923
 20
7.020111108949479
 30
0.0
 11
48.24417520824599
 21
2.979887695061781
 31
0.0
  0
LINE
  5
A4
330
89
100
AcDbEntity
  8
0
  6
Continuous
370
    13
100
AcDbLine
 10
52.80836303397222
 20
2.979887695061781
 30
0.0
 11
54.55991998673141
 21
7.020111108949479
 31
0.0
  0
LINE
  5
A5
330
89
100
AcDbEntity
  8
0
  6
Continuous
370
    13
100
AcDbLine
 10
50.70314614980867
 20
7.020111108949479
 30
0.0
 11
52.45470152403544
 21
2.979887695061781
 31
0.0
  0
LINE
  5
A6
330
89
100
AcDbEntity
  8
0
  6
Continuous
370
    13
100
AcDbLine
 10
57.01888934976166
 20
2.979887695061781
 30
0.0
 11
58.77044630252086
 21
7.020111108949479
 31
0.0
  0
LINE
  5
A7
330
89
100
AcDbEntity
  8
0
  6
Continuous
370
    13
100
AcDbLine
 10
54.91367246559813
 20
7.020111108949479
 30
0.0
 11
56.66522783982489
 21
2.979887695061781
 31
0.0
  0
LINE
  5
A8
330
89
100
AcDbEntity
  8
0
  6
Continuous
370
    13
100
AcDbLine
 10
61.22941566555112
 20
2.979887695061781
 30
0.0
 11
62.98097261831032
 21
7.020111108949479
 31
0.0
  0
LINE
  5
A9
330
89
100
AcDbEntity
  8
0
  6
Continuous
370
    13
100
AcDbLine
 10
59.12419878138758
 20
7.020111108949479
 30
0.0
 11
60.87575415561434
 21
2.979887695061781
 31
0.0
  0
LINE
  5
AA
330
89
100
AcDbEntity
  8
0
  6
Continuous
370
    13
100
AcDbLine
 10
65.43994198134057
 20
2.979887695061781
 30
0.0
 11
67.19149893409976
 21
7.020111108949479
 31
0.0
  0
LINE
  5
AB
330
89
100
AcDbEntity
  8
0
  6
Continuous
370
    13
100
AcDbLine
 10
63.33472509717703
 20
7.020111108949479
 30
0.0
 11
65.08628047140378
 21
2.979887695061781
 31
0.0
  0
LINE
  5
AC
330
89
100
AcDbEntity
  8
0
  6
Continuous
370
    13
100
AcDbLine
 10
69.65046829713002
 20
2.979887695061781
 30
0.0
 11
71.40202524988922
 21
7.020111108949479
 31
0.0
  0
LINE
  5
AD
330
89
100
AcDbEntity
  8
0
  6
Continuous
370
    13
100
AcDbLine
 10
67.54525141296648
 20
7.020111108949479
 30
0.0
 11
69.29680678719325
 21
2.979887695061781
 31
0.0
  0
LINE
  5
AE
330
89
100
AcDbEntity
  8
0
  6
Continuous
370
    13
100
AcDbLine
 10
73.86099461291948
 20
2.979887695061781
 30
0.0
 11
75.61255156567867
 21
7.020111108949479
 31
0.0
  0
LINE
  5
AF
330
89
100
AcDbEntity
  8
0
  6
Continuous
370
    13
100
AcDbLine
 10
71.75577772875593
 20
7.020111108949479
 30
0.0
 11
73.5073331029827
 21
2.979887695061781
 31
0.0
  0
LINE
  5
B0
330
89
100
AcDbEntity
  8
0
  6
Continuous
370
    13
100
AcDbLine
 10
78.07152092870894
 20
2.979887695061781
 30
0.0
 11
79.82307788146812
 21
7.020111108949479
 31
0.0
  0
LINE
  5
B1
330
89
100
AcDbEntity
  8
0
  6
Continuous
370
    13
100
AcDbLine
 10
75.9663040445454
 20
7.020111108949479
 30
0.0
 11
77.71785941877215
 21
2.979887695061781
 31
0.0
  0
ELLIPSE
  5
B2
330
89
100
AcDbEntity
  8
0
  6
Continuous
370
    13
100
AcDbEllipse
 10
0.0
 20
2.12671476880262
 30
0.0
 11
1.302237339212082E-16
 21
2.126714968134078
 31
0.0
210
0.0
220
0.0
230
1.0
 40
0.989891691015022
 41
3.141592653589793
 42
5.125182398197467
  0
ELLIPSE
  5
B3
330
89
100
AcDbEntity
  8
0
  6
Continuous
370
    13
100
AcDbEllipse
 10
2.105218462695972
 20
7.873284832534473
 30
0.0
 11
1.302237339212082E-16
 21
2.126714968134078
 31
0.0
210
0.0
220
0.0
230
1.0
 40
0.989891691015022
 41
4.299595219153121
 42
8.266774943998835
  0
ELLIPSE
  5
B4
330
89
100
AcDbEntity
  8
0
  6
Continuous
370
    13
100
AcDbEllipse
 10
4.210434557593293
 20
2.126715566128452
 30
0.0
 11
1.302237339212082E-16
 21
2.126714968134078
 31
0.0
210
0.0
220
0.0
230
1.0
 40
0.989891691015022
 41
1.158003553205547
 42
5.125182741616257
  0
ELLIPSE
  5
B5
330
89
100
AcDbEntity
  8
0
  6
Continuous
370
    13
100
AcDbEllipse
 10
6.315744778485421
 20
7.873284832534473
 30
0.0
 11
1.302237339212082E-16
 21
2.126714968134078
 31
0.0
210
0.0
220
0.0
230
1.0
 40
0.989891691015022
 41
4.299595219153121
 42
8.266774943998835
  0
ELLIPSE
  5
B6
330
89
100
AcDbEntity
  8
0
  6
Continuous
370
    13
100
AcDbEllipse
 10
8.420960873382743
 20
2.126715566128452
 30
0.0
 11
1.302237339212082E-16
 21
2.126714968134078
 31
0.0
210
0.0
220
0.0
230
1.0
 40
0.989891691015022
 41
1.158003553205547
 42
5.125182741616257
  0
ELLIPSE
  5
B7
330
89
100
AcDbEntity
  8
0
  6
Continuous
370
    13
100
AcDbEllipse
 10
10.52627109427487
 20
7.873284832534473
 30
0.0
 11
1.302237339212082E-16
 21
2.126714968134078
 31
0.0
210
0.0
220
0.0
230
1.0
 40
0.989891691015022
 41
4.299595219153121
 42
8.266774943998835
  0
ELLIPSE
  5
B8
330
89
100
AcDbEntity
  8
0
  6
Continuous
370
    13
100
AcDbEllipse
 10
12.63148718917219
 20
2.126715566128452
 30
0.0
 11
1.302237339212082E-16
 21
2.126714968134078
 31
0.0
210
0.0
220
0.0
230
1.0
 40
0.989891691015022
 41
1.158003553205547
 42
5.125182741616257
  0
ELLIPSE
  5
B9
330
89
100
AcDbEntity
  8
0
  6
Continuous
370
    13
100
AcDbEllipse
 10
14.73679741006432
 20
7.873284832534473
 30
0.0
 11
1.302237339212082E-16
 21
2.126714968134078
 31
0.0
210
0.0
220
0.0
230
1.0
 40
0.989891691015022
 41
4.299595219153121
 42
8.266774943998835
  0
ELLIPSE
  5
BA
330
89
100
AcDbEntity
  8
0
  6
Continuous
370
    13
100
AcDbEllipse
 10
16.84201350496165
 20
2.126715566128452
 30
0.0
 11
1.302237339212082E-16
 21
2.126714968134078
 31
0.0
210
0.0
220
0.0
230
1.0
 40
0.989891691015022
 41
1.158003553205547
 42
5.125182741616257
  0
ELLIPSE
  5
BB
330
89
100
AcDbEntity
  8
0
  6
Continuous
370
    13
100
AcDbEllipse
 10
18.94732372585377
 20
7.873284832534473
 30
0.0
 11
1.302237339212082E-16
 21
2.126714968134078
 31
0.0
210
0.0
220
0.0
230
1.0
 40
0.989891691015022
 41
4.299595219153121
 42
8.266774943998835
  0
ELLIPSE
  5
BC
330
89
100
AcDbEntity
  8
0
  6
Continuous
370
    13
100
AcDbEllipse
 10
21.05253982075109
 20
2.126715566128452
 30
0.0
 11
1.302237339212082E-16
 21
2.126714968134078
 31
0.0
210
0.0
220
0.0
230
1.0
 40
0.989891691015022
 41
1.158003553205547
 42
5.125182741616257
  0
ELLIPSE
  5
BD
330
89
100
AcDbEntity
  8
0
  6
Continuous
370
    13
100
AcDbEllipse
 10
23.15785004164322
 20
7.873284832534473
 30
0.0
 11
1.302237339212082E-16
 21
2.126714968134078
 31
0.0
210
0.0
220
0.0
230
1.0
 40
0.989891691015022
 41
4.299595219153121
 42
8.266774943998835
  0
ELLIPSE
  5
BE
330
89
100
AcDbEntity
  8
0
  6
Continuous
370
    13
100
AcDbEllipse
 10
25.26306613654054
 20
2.126715566128452
 30
0.0
 11
1.302237339212082E-16
 21
2.126714968134078
 31
0.0
210
0.0
220
0.0
230
1.0
 40
0.989891691015022
 41
1.158003553205547
 42
5.125182741616257
  0
ELLIPSE
  5
BF
330
89
100
AcDbEntity
  8
0
  6
Continuous
370
    13
100
AcDbEllipse
 10
27.36837635743267
 20
7.873284832534473
 30
0.0
 11
1.302237339212082E-16
 21
2.126714968134078
 31
0.0
210
0.0
220
0.0
230
1.0
 40
0.989891691015022
 41
4.299595219153121
 42
8.266774943998835
  0
ELLIPSE
  5
C0
330
89
100
AcDbEntity
  8
0
  6
Continuous
370
    13
100
AcDbEllipse
 10
29.47359245232999
 20
2.126715566128452
 30
0.0
 11
1.302237339212082E-16
 21
2.126714968134078
 31
0.0
210
0.0
220
0.0
230
1.0
 40
0.989891691015022
 41
1.158003553205547
 42
5.125182741616257
  0
ELLIPSE
  5
C1
330
89
100
AcDbEntity
  8
0
  6
Continuous
370
    13
100
AcDbEllipse
 10
31.57890267322212
 20
7.873284832534473
 30
0.0
 11
1.302237339212082E-16
 21
2.126714968134078
 31
0.0
210
0.0
220
0.0
230
1.0
 40
0.989891691015022
 41
4.299595219153121
 42
8.266774943998835
  0
ELLIPSE
  5
C2
330
89
100
AcDbEntity
  8
0
  6
Continuous
370
    13
100
AcDbEllipse
 10
33.68411876811944
 20
2.126715566128452
 30
0.0
 11
1.302237339212082E-16
 21
2.126714968134078
 31
0.0
210
0.0
220
0.0
230
1.0
 40
0.989891691015022
 41
1.158003553205547
 42
5.125182741616257
  0
ELLIPSE
  5
C3
330
89
100
AcDbEntity
  8
0
  6
Continuous
370
    13
100
AcDbEllipse
 10
35.78942898901157
 20
7.873284832534473
 30
0.0
 11
1.302237339212082E-16
 21
2.126714968134078
 31
0.0
210
0.0
220
0.0
230
1.0
 40
0.989891691015022
 41
4.299595219153121
 42
8.266774943998835
  0
ELLIPSE
  5
C4
330
89
100
AcDbEntity
  8
0
  6
Continuous
370
    13
100
AcDbEllipse
 10
37.89464508390889
 20
2.126715566128452
 30
0.0
 11
1.302237339212082E-16
 21
2.126714968134078
 31
0.0
210
0.0
220
0.0
230
1.0
 40
0.989891691015022
 41
1.158003553205546
 42
5.125182741616257
  0
ELLIPSE
  5
C5
330
89
100
AcDbEntity
  8
0
  6
Continuous
370
    13
100
AcDbEllipse
 10
39.99995530480102
 20
7.873284832534473
 30
0.0
 11
1.302237339212082E-16
 21
2.126714968134078
 31
0.0
210
0.0
220
0.0
230
1.0
 40
0.989891691015022
 41
4.299595219153121
 42
8.266774943998835
  0
ELLIPSE
  5
C6
330
89
100
AcDbEntity
  8
0
  6
Continuous
370
    13
100
AcDbEllipse
 10
42.10517139969834
 20
2.126715566128452
 30
0.0
 11
1.302237339212082E-16
 21
2.126714968134078
 31
0.0
210
0.0
220
0.0
230
1.0
 40
0.989891691015022
 41
1.158003553205546
 42
5.125182741616257
  0
ELLIPSE
  5
C7
330
89
100
AcDbEntity
  8
0
  6
Continuous
370
    13
100
AcDbEllipse
 10
44.21048162059047
 20
7.873284832534473
 30
0.0
 11
1.302237339212082E-16
 21
2.126714968134078
 31
0.0
210
0.0
220
0.0
230
1.0
 40
0.989891691015022
 41
4.299595219153121
 42
8.266774943998835
  0
ELLIPSE
  5
C8
330
89
100
AcDbEntity
  8
0
  6
Continuous
370
    13
100
AcDbEllipse
 10
46.31569771548779
 20
2.126715566128452
 30
0.0
 11
1.302237339212082E-16
 21
2.126714968134078
 31
0.0
210
0.0
220
0.0
230
1.0
 40
0.989891691015022
 41
1.158003553205546
 42
5.125182741616257
  0
ELLIPSE
  5
C9
330
89
100
AcDbEntity
  8
0
  6
Continuous
370
    13
100
AcDbEllipse
 10
48.42100793637992
 20
7.873284832534473
 30
0.0
 11
1.302237339212082E-16
 21
2.126714968134078
 31
0.0
210
0.0
220
0.0
230
1.0
 40
0.989891691015022
 41
4.299595219153121
 42
8.266774943998835
  0
ELLIPSE
  5
CA
330
89
100
AcDbEntity
  8
0
  6
Continuous
370
    13
100
AcDbEllipse
 10
50.52622403127724
 20
2.126715566128452
 30
0.0
 11
1.302237339212082E-16
 21
2.126714968134078
 31
0.0
210
0.0
220
0.0
230
1.0
 40
0.989891691015022
 41
1.158003553205546
 42
5.125182741616257
  0
ELLIPSE
  5
CB
330
89
100
AcDbEntity
  8
0
  6
Continuous
370
    13
100
AcDbEllipse
 10
52.63153425216937
 20
7.873284832534473
 30
0.0
 11
1.302237339212082E-16
 21
2.126714968134078
 31
0.0
210
0.0
220
0.0
230
1.0
 40
0.989891691015022
 41
4.299595219153121
 42
8.266774943998835
  0
ELLIPSE
  5
CC
330
89
100
AcDbEntity
  8
0
  6
Continuous
370
    13
100
AcDbEllipse
 10
54.73675034706669
 20
2.126715566128452
 30
0.0
 11
1.302237339212082E-16
 21
2.126714968134078
 31
0.0
210
0.0
220
0.0
230
1.0
 40
0.989891691015022
 41
1.158003553205546
 42
5.125182741616257
  0
ELLIPSE
  5
CD
330
89
100
AcDbEntity
  8
0
  6
Continuous
370
    13
100
AcDbEllipse
 10
56.84206056795882
 20
7.873284832534473
 30
0.0
 11
1.302237339212082E-16
 21
2.126714968134078
 31
0.0
210
0.0
220
0.0
230
1.0
 40
0.989891691015022
 41
4.299595219153121
 42
8.266774943998835
  0
ELLIPSE
  5
CE
330
89
100
AcDbEntity
  8
0
  6
Continuous
370
    13
100
AcDbEllipse
 10
58.94727666285614
 20
2.126715566128452
 30
0.0
 11
1.302237339212082E-16
 21
2.126714968134078
 31
0.0
210
0.0
220
0.0
230
1.0
 40
0.989891691015022
 41
1.158003553205546
 42
5.125182741616257
  0
ELLIPSE
  5
CF
330
89
100
AcDbEntity
  8
0
  6
Continuous
370
    13
100
AcDbEllipse
 10
61.05258688374827
 20
7.873284832534473
 30
0.0
 11
1.302237339212082E-16
 21
2.126714968134078
 31
0.0
210
0.0
220
0.0
230
1.0
 40
0.989891691015022
 41
4.299595219153123
 42
8.266774943998835
  0
ELLIPSE
  5
D0
330
89
100
AcDbEntity
  8
0
  6
Continuous
370
    13
100
AcDbEllipse
 10
63.15780297864559
 20
2.126715566128452
 30
0.0
 11
1.302237339212082E-16
 21
2.126714968134078
 31
0.0
210
0.0
220
0.0
230
1.0
 40
0.989891691015022
 41
1.158003553205547
 42
5.125182741616257
  0
ELLIPSE
  5
D1
330
89
100
AcDbEntity
  8
0
  6
Continuous
370
    13
100
AcDbEllipse
 10
65.26311319953771
 20
7.873284832534473
 30
0.0
 11
1.302237339212082E-16
 21
2.126714968134078
 31
0.0
210
0.0
220
0.0
230
1.0
 40
0.989891691015022
 41
4.299595219153121
 42
8.266774943998835
  0
ELLIPSE
  5
D2
330
89
100
AcDbEntity
  8
0
  6
Continuous
370
    13
100
AcDbEllipse
 10
67.36832929443504
 20
2.126715566128452
 30
0.0
 11
1.302237339212082E-16
 21
2.126714968134078
 31
0.0
210
0.0
220
0.0
230
1.0
 40
0.989891691015022
 41
1.158003553205546
 42
5.125182741616257
  0
ELLIPSE
  5
D3
330
89
100
AcDbEntity
  8
0
  6
Continuous
370
    13
100
AcDbEllipse
 10
69.47363951532718
 20
7.873284832534473
 30
0.0
 11
1.302237339212082E-16
 21
2.126714968134078
 31
0.0
210
0.0
220
0.0
230
1.0
 40
0.989891691015022
 41
4.299595219153121
 42
8.266774943998835
  0
ELLIPSE
  5
D4
330
89
100
AcDbEntity
  8
0
  6
Continuous
370
    13
100
AcDbEllipse
 10
71.5788556102245
 20
2.126715566128452
 30
0.0
 11
1.302237339212082E-16
 21
2.126714968134078
 31
0.0
210
0.0
220
0.0
230
1.0
 40
0.989891691015022
 41
1.158003553205546
 42
5.125182741616257
  0
ELLIPSE
  5
D5
330
89
100
AcDbEntity
  8
0
  6
Continuous
370
    13
100
AcDbEllipse
 10
73.68416583111663
 20
7.873284832534473
 30
0.0
 11
1.302237339212082E-16
 21
2.126714968134078
 31
0.0
210
0.0
220
0.0
230
1.0
 40
0.989891691015022
 41
4.299595219153121
 42
8.266774943998835
  0
ELLIPSE
  5
D6
330
89
100
AcDbEntity
  8
0
  6
Continuous
370
    13
100
AcDbEllipse
 10
75.78938192601395
 20
2.126715566128452
 30
0.0
 11
1.302237339212082E-16
 21
2.126714968134078
 31
0.0
210
0.0
220
0.0
230
1.0
 40
0.989891691015022
 41
1.158003553205546
 42
5.125182741616257
  0
ELLIPSE
  5
D7
330
89
100
AcDbEntity
  8
0
  6
Continuous
370
    13
100
AcDbEllipse
 10
77.89469214690608
 20
7.873284832534473
 30
0.0
 11
1.302237339212082E-16
 21
2.126714968134078
 31
0.0
210
0.0
220
0.0
230
1.0
 40
0.989891691015022
 41
4.299595219153121
 42
8.266774943998835
  0
ELLIPSE
  5
D8
330
89
100
AcDbEntity
  8
0
  6
Continuous
370
    13
100
AcDbEllipse
 10
79.99990824180341
 20
2.126715566128452
 30
0.0
 11
1.302237339212082E-16
 21
2.126714968134078
 31
0.0
210
0.0
220
0.0
230
1.0
 40
0.989891691015022
 41
1.158003553205546
 42
3.141592653589793
  0
ENDBLK
  5
8B
330
89
100
AcDbEntity
  8
0
100
AcDbBlockEnd
  0
BLOCK
  5
DB
330
DA
100
AcDbEntity
  8
0
100
AcDbBlockBegin
  2
InsulFib 65_2
 70
     0
 10
0.0
 20
0.0
 30
0.0
  3
InsulFib 65_2
  1

  0
LINE
  5
DD
330
DA
100
AcDbEntity
  8
0
  6
Continuous
370
    13
100
AcDbLine
 10
10.8397244113692
 20
14.89943847530889
 30
0.0
 11
19.15961993697524
 21
35.10055554474737
 31
0.0
  0
LINE
  5
DE
330
DA
100
AcDbEntity
  8
0
  6
Continuous
370
    13
100
AcDbLine
 10
0.8399442115925665
 20
35.10055554474737
 30
0.0
 11
9.159832239169539
 21
14.89943847530889
 31
0.0
  0
LINE
  5
DF
330
DA
100
AcDbEntity
  8
0
  6
Continuous
370
    13
100
AcDbLine
 10
30.83972441136876
 20
14.89943847530889
 30
0.0
 11
39.1596199369748
 21
35.10055554474737
 31
0.0
  0
LINE
  5
E0
330
DA
100
AcDbEntity
  8
0
  6
Continuous
370
    13
100
AcDbLine
 10
20.83994421159212
 20
35.10055554474737
 30
0.0
 11
29.15983223916909
 21
14.89943847530889
 31
0.0
  0
LINE
  5
E1
330
DA
100
AcDbEntity
  8
0
  6
Continuous
370
    13
100
AcDbLine
 10
50.83972441136831
 20
14.89943847530889
 30
0.0
 11
59.15961993697434
 21
35.10055554474737
 31
0.0
  0
LINE
  5
E2
330
DA
100
AcDbEntity
  8
0
  6
Continuous
370
    13
100
AcDbLine
 10
40.83994421159167
 20
35.10055554474737
 30
0.0
 11
49.15983223916864
 21
14.89943847530889
 31
0.0
  0
LINE
  5
E3
330
DA
100
AcDbEntity
  8
0
  6
Continuous
370
    13
100
AcDbLine
 10
70.83972441136787
 20
14.89943847530889
 30
0.0
 11
79.1596199369739
 21
35.10055554474737
 31
0.0
  0
LINE
  5
E4
330
DA
100
AcDbEntity
  8
0
  6
Continuous
370
    13
100
AcDbLine
 10
60.83994421159122
 20
35.10055554474737
 30
0.0
 11
69.15983223916821
 21
14.89943847530889
 31
0.0
  0
LINE
  5
E5
330
DA
100
AcDbEntity
  8
0
  6
Continuous
370
    13
100
AcDbLine
 10
90.83972441136743
 20
14.89943847530889
 30
0.0
 11
99.15961993697344
 21
35.10055554474737
 31
0.0
  0
LINE
  5
E6
330
DA
100
AcDbEntity
  8
0
  6
Continuous
370
    13
100
AcDbLine
 10
80.83994421159079
 20
35.10055554474737
 30
0.0
 11
89.15983223916776
 21
14.89943847530889
 31
0.0
  0
ELLIPSE
  5
E7
330
DA
100
AcDbEntity
  8
0
  6
Continuous
370
    13
100
AcDbEllipse
 10
0.0
 20
10.63357384401309
 30
0.0
 11
6.511186696060404E-16
 21
10.63357484067038
 31
0.0
210
0.0
220
0.0
230
1.0
 40
0.9403971064642558
 41
3.141592653589793
 42
5.125182398197467
  0
ELLIPSE
  5
E8
330
DA
100
AcDbEntity
  8
0
  6
Continuous
370
    13
100
AcDbEllipse
 10
9.9997876978057
 20
39.36642416267233
 30
0.0
 11
6.511186696060404E-16
 21
10.63357484067038
 31
0.0
210
0.0
220
0.0
230
1.0
 40
0.9403971064642558
 41
4.299595219153122
 42
8.266774943998833
  0
ELLIPSE
  5
E9
330
DA
100
AcDbEntity
  8
0
  6
Continuous
370
    13
100
AcDbEllipse
 10
19.99956414856781
 20
10.63357783064225
 30
0.0
 11
6.511186696060404E-16
 21
10.63357484067038
 31
0.0
210
0.0
220
0.0
230
1.0
 40
0.9403971064642558
 41
1.158003553205547
 42
5.125182741616258
  0
ELLIPSE
  5
EA
330
DA
100
AcDbEntity
  8
0
  6
Continuous
370
    13
100
AcDbEllipse
 10
29.99978769780525
 20
39.36642416267233
 30
0.0
 11
6.511186696060404E-16
 21
10.63357484067038
 31
0.0
210
0.0
220
0.0
230
1.0
 40
0.9403971064642558
 41
4.299595219153122
 42
8.266774943998833
  0
ELLIPSE
  5
EB
330
DA
100
AcDbEntity
  8
0
  6
Continuous
370
    13
100
AcDbEllipse
 10
39.99956414856736
 20
10.63357783064225
 30
0.0
 11
6.511186696060404E-16
 21
10.63357484067038
 31
0.0
210
0.0
220
0.0
230
1.0
 40
0.9403971064642558
 41
1.158003553205547
 42
5.125182741616257
  0
ELLIPSE
  5
EC
330
DA
100
AcDbEntity
  8
0
  6
Continuous
370
    13
100
AcDbEllipse
 10
49.99978769780481
 20
39.36642416267233
 30
0.0
 11
6.511186696060404E-16
 21
10.63357484067038
 31
0.0
210
0.0
220
0.0
230
1.0
 40
0.9403971064642558
 41
4.299595219153122
 42
8.266774943998833
  0
ELLIPSE
  5
ED
330
DA
100
AcDbEntity
  8
0
  6
Continuous
370
    13
100
AcDbEllipse
 10
59.99956414856691
 20
10.63357783064225
 30
0.0
 11
6.511186696060404E-16
 21
10.63357484067038
 31
0.0
210
0.0
220
0.0
230
1.0
 40
0.9403971064642558
 41
1.158003553205547
 42
5.125182741616258
  0
ELLIPSE
  5
EE
330
DA
100
AcDbEntity
  8
0
  6
Continuous
370
    13
100
AcDbEllipse
 10
69.99978769780436
 20
39.36642416267233
 30
0.0
 11
6.511186696060404E-16
 21
10.63357484067038
 31
0.0
210
0.0
220
0.0
230
1.0
 40
0.9403971064642558
 41
4.299595219153122
 42
8.266774943998833
  0
ELLIPSE
  5
EF
330
DA
100
AcDbEntity
  8
0
  6
Continuous
370
    13
100
AcDbEllipse
 10
79.99956414856646
 20
10.63357783064225
 30
0.0
 11
6.511186696060404E-16
 21
10.63357484067038
 31
0.0
210
0.0
220
0.0
230
1.0
 40
0.9403971064642558
 41
1.158003553205547
 42
5.125182741616257
  0
ELLIPSE
  5
F0
330
DA
100
AcDbEntity
  8
0
  6
Continuous
370
    13
100
AcDbEllipse
 10
89.99978769780391
 20
39.36642416267233
 30
0.0
 11
6.511186696060404E-16
 21
10.63357484067038
 31
0.0
210
0.0
220
0.0
230
1.0
 40
0.9403971064642558
 41
4.299595219153122
 42
8.266774943998835
  0
ELLIPSE
  5
F1
330
DA
100
AcDbEntity
  8
0
  6
Continuous
370
    13
100
AcDbEllipse
 10
99.99956414856602
 20
10.63357783064225
 30
0.0
 11
6.511186696060404E-16
 21
10.63357484067038
 31
0.0
210
0.0
220
0.0
230
1.0
 40
0.9403971064642558
 41
1.158003553205547
 42
3.141592653589793
  0
ENDBLK
  5
DC
330
DA
100
AcDbEntity
  8
0
100
AcDbBlockEnd
  0
BLOCK
  5
F4
330
F3
100
AcDbEntity
  8
0
100
AcDbBlockBegin
  2
InsulFib 65_3
 70
     0
 10
0.0
 20
0.0
 30
0.0
  3
InsulFib 65_3
  1

  0
LINE
  5
F6
330
F3
100
AcDbEntity
  8
0
  6
Continuous
370
    13
100
AcDbLine
 10
49.68207021877672
 20
59.59775390123605
 30
0.0
 11
87.81492471113862
 21
140.4022221789906
 31
0.0
  0
LINE
  5
F7
330
F3
100
AcDbEntity
  8
0
  6
Continuous
370
    13
100
AcDbLine
 10
3.849744303132689
 20
140.4022221789906
 30
0.0
 11
41.98256442952807
 21
59.59775390123605
 31
0.0
  0
LINE
  5
F8
330
F3
100
AcDbEntity
  8
0
  6
Continuous
370
    13
100
AcDbLine
 10
141.3487368854435
 20
59.59775390123605
 30
0.0
 11
179.4815913778054
 21
140.4022221789906
 31
0.0
  0
LINE
  5
F9
330
F3
100
AcDbEntity
  8
0
  6
Continuous
370
    13
100
AcDbLine
 10
95.5164109697995
 20
140.4022221789906
 30
0.0
 11
133.6492310961949
 21
59.59775390123605
 31
0.0
  0
LINE
  5
FA
330
F3
100
AcDbEntity
  8
0
  6
Continuous
370
    13
100
AcDbLine
 10
233.0154035521103
 20
59.59775390123605
 30
0.0
 11
271.1482580444722
 21
140.4022221789906
 31
0.0
  0
LINE
  5
FB
330
F3
100
AcDbEntity
  8
0
  6
Continuous
370
    13
100
AcDbLine
 10
187.1830776364663
 20
140.4022221789906
 30
0.0
 11
225.3158977628617
 21
59.59775390123605
 31
0.0
  0
LINE
  5
FC
330
F3
100
AcDbEntity
  8
0
  6
Continuous
370
    13
100
AcDbLine
 10
324.6820702187771
 20
59.59775390123605
 30
0.0
 11
362.8149247111391
 21
140.4022221789906
 31
0.0
  0
LINE
  5
FD
330
F3
100
AcDbEntity
  8
0
  6
Continuous
370
    13
100
AcDbLine
 10
278.8497443031331
 20
140.4022221789906
 30
0.0
 11
316.9825644295286
 21
59.59775390123605
 31
0.0
  0
LINE
  5
FE
330
F3
100
AcDbEntity
  8
0
  6
Continuous
370
    13
100
AcDbLine
 10
416.3487368854439
 20
59.59775390123605
 30
0.0
 11
454.4815913778058
 21
140.4022221789906
 31
0.0
  0
LINE
  5
FF
330
F3
100
AcDbEntity
  8
0
  6
Continuous
370
    13
100
AcDbLine
 10
370.5164109697999
 20
140.4022221789906
 30
0.0
 11
408.6492310961953
 21
59.59775390123605
 31
0.0
  0
LINE
  5
100
330
F3
100
AcDbEntity
  8
0
  6
Continuous
370
    13
100
AcDbLine
 10
508.0154035521107
 20
59.59775390123605
 30
0.0
 11
546.1482580444726
 21
140.4022221789906
 31
0.0
  0
LINE
  5
101
330
F3
100
AcDbEntity
  8
0
  6
Continuous
370
    13
100
AcDbLine
 10
462.1830776364667
 20
140.4022221789906
 30
0.0
 11
500.3158977628621
 21
59.59775390123605
 31
0.0
  0
ELLIPSE
  5
102
330
F3
100
AcDbEntity
  8
0
  6
Continuous
370
    13
100
AcDbEllipse
 10
0.0
 20
42.53429537605269
 30
0.0
 11
45.83233880288147
 21
0.0
 31
0.0
210
0.0
220
0.0
230
1.0
 40
0.9280412144275676
 41
4.71238898038469
 42
6.695978724992363
  0
ELLIPSE
  5
103
330
F3
100
AcDbEntity
  8
0
  6
Continuous
370
    13
100
AcDbEllipse
 10
45.83236028161055
 20
157.4656966506906
 30
0.0
 11
45.83233880288147
 21
0.0
 31
0.0
210
0.0
220
0.0
230
1.0
 40
0.9280412144275676
 41
5.870391545948018
 42
9.837571270793731
  0
ELLIPSE
  5
104
330
F3
100
AcDbEntity
  8
0
  6
Continuous
370
    13
100
AcDbEllipse
 10
91.66466901427133
 20
42.53431132256935
 30
0.0
 11
45.83233880288147
 21
0.0
 31
0.0
210
0.0
220
0.0
230
1.0
 40
0.9280412144275676
 41
2.728799880000444
 42
6.695979068411154
  0
ELLIPSE
  5
105
330
F3
100
AcDbEntity
  8
0
  6
Continuous
370
    13
100
AcDbEllipse
 10
137.4990269482774
 20
157.4656966506906
 30
0.0
 11
45.83233880288147
 21
0.0
 31
0.0
210
0.0
220
0.0
230
1.0
 40
0.9280412144275676
 41
5.870391545948018
 42
9.837571270793731
  0
ELLIPSE
  5
106
330
F3
100
AcDbEntity
  8
0
  6
Continuous
370
    13
100
AcDbEllipse
 10
183.3313356809381
 20
42.53431132256935
 30
0.0
 11
45.83233880288147
 21
0.0
 31
0.0
210
0.0
220
0.0
230
1.0
 40
0.9280412144275676
 41
2.728799880000444
 42
6.695979068411154
  0
ELLIPSE
  5
107
330
F3
100
AcDbEntity
  8
0
  6
Continuous
370
    13
100
AcDbEllipse
 10
229.1656936149442
 20
157.4656966506906
 30
0.0
 11
45.83233880288147
 21
0.0
 31
0.0
210
0.0
220
0.0
230
1.0
 40
0.9280412144275676
 41
5.870391545948018
 42
9.837571270793731
  0
ELLIPSE
  5
108
330
F3
100
AcDbEntity
  8
0
  6
Continuous
370
    13
100
AcDbEllipse
 10
274.9980023476049
 20
42.53431132256935
 30
0.0
 11
45.83233880288147
 21
0.0
 31
0.0
210
0.0
220
0.0
230
1.0
 40
0.9280412144275676
 41
2.728799880000444
 42
6.695979068411154
  0
ELLIPSE
  5
109
330
F3
100
AcDbEntity
  8
0
  6
Continuous
370
    13
100
AcDbEllipse
 10
320.832360281611
 20
157.4656966506906
 30
0.0
 11
45.83233880288147
 21
0.0
 31
0.0
210
0.0
220
0.0
230
1.0
 40
0.9280412144275676
 41
5.870391545948018
 42
9.837571270793731
  0
ELLIPSE
  5
10A
330
F3
100
AcDbEntity
  8
0
  6
Continuous
370
    13
100
AcDbEllipse
 10
366.6646690142718
 20
42.53431132256935
 30
0.0
 11
45.83233880288147
 21
0.0
 31
0.0
210
0.0
220
0.0
230
1.0
 40
0.9280412144275676
 41
2.728799880000444
 42
6.695979068411154
  0
ELLIPSE
  5
10B
330
F3
100
AcDbEntity
  8
0
  6
Continuous
370
    13
100
AcDbEllipse
 10
412.4990269482778
 20
157.4656966506906
 30
0.0
 11
45.83233880288147
 21
0.0
 31
0.0
210
0.0
220
0.0
230
1.0
 40
0.9280412144275676
 41
5.870391545948018
 42
9.837571270793731
  0
ELLIPSE
  5
10C
330
F3
100
AcDbEntity
  8
0
  6
Continuous
370
    13
100
AcDbEllipse
 10
458.3313356809386
 20
42.53431132256935
 30
0.0
 11
45.83233880288147
 21
0.0
 31
0.0
210
0.0
220
0.0
230
1.0
 40
0.9280412144275676
 41
2.728799880000444
 42
6.695979068411154
  0
ELLIPSE
  5
10D
330
F3
100
AcDbEntity
  8
0
  6
Continuous
370
    13
100
AcDbEllipse
 10
504.1656936149446
 20
157.4656966506906
 30
0.0
 11
45.83233880288147
 21
0.0
 31
0.0
210
0.0
220
0.0
230
1.0
 40
0.9280412144275676
 41
5.870391545948018
 42
9.837571270793731
  0
ELLIPSE
  5
10E
330
F3
100
AcDbEntity
  8
0
  6
Continuous
370
    13
100
AcDbEllipse
 10
549.9980023476053
 20
42.53431132256935
 30
0.0
 11
45.83233880288147
 21
0.0
 31
0.0
210
0.0
220
0.0
230
1.0
 40
0.9280412144275676
 41
2.728799880000444
 42
4.71238898038469
  0
ENDBLK
  5
F5
330
F3
100
AcDbEntity
  8
0
100
AcDbBlockEnd
  0
BLOCK
  5
111
330
110
100
AcDbEntity
  8
0
100
AcDbBlockBegin
  2
InsulFib 65_4
 70
     0
 10
0.0
 20
0.0
 30
0.0
  3
InsulFib 65_4
  1

  0
LINE
  5
113
330
110
100
AcDbEntity
  8
0
  6
Continuous
370
    13
100
AcDbLine
 10
43.97889843416387
 20
59.59775390123605
 30
0.0
 11
77.73435442340559
 21
140.4022221789906
 31
0.0
  0
LINE
  5
114
330
110
100
AcDbEntity
  8
0
  6
Continuous
370
    13
100
AcDbLine
 10
3.40781921847101
 20
140.4022221789906
 30
0.0
 11
37.16324478673097
 21
59.59775390123605
 31
0.0
  0
LINE
  5
115
330
110
100
AcDbEntity
  8
0
  6
Continuous
370
    13
100
AcDbLine
 10
125.1228404112049
 20
59.59775390123605
 30
0.0
 11
158.8782964004466
 21
140.4022221789906
 31
0.0
  0
LINE
  5
116
330
110
100
AcDbEntity
  8
0
  6
Continuous
370
    13
100
AcDbLine
 10
84.55176119551201
 20
140.4022221789906
 30
0.0
 11
118.307186763772
 21
59.59775390123605
 31
0.0
  0
LINE
  5
117
330
110
100
AcDbEntity
  8
0
  6
Continuous
370
    13
100
AcDbLine
 10
206.2667823882459
 20
59.59775390123605
 30
0.0
 11
240.0222383774876
 21
140.4022221789906
 31
0.0
  0
LINE
  5
118
330
110
100
AcDbEntity
  8
0
  6
Continuous
370
    13
100
AcDbLine
 10
165.695703172553
 20
140.4022221789906
 30
0.0
 11
199.451128740813
 21
59.59775390123605
 31
0.0
  0
LINE
  5
119
330
110
100
AcDbEntity
  8
0
  6
Continuous
370
    13
100
AcDbLine
 10
287.4107243652869
 20
59.59775390123605
 30
0.0
 11
321.1661803545286
 21
140.4022221789906
 31
0.0
  0
LINE
  5
11A
330
110
100
AcDbEntity
  8
0
  6
Continuous
370
    13
100
AcDbLine
 10
246.839645149594
 20
140.4022221789906
 30
0.0
 11
280.595070717854
 21
59.59775390123605
 31
0.0
  0
LINE
  5
11B
330
110
100
AcDbEntity
  8
0
  6
Continuous
370
    13
100
AcDbLine
 10
368.5546663423279
 20
59.59775390123605
 30
0.0
 11
402.3101223315696
 21
140.4022221789906
 31
0.0
  0
LINE
  5
11C
330
110
100
AcDbEntity
  8
0
  6
Continuous
370
    13
100
AcDbLine
 10
327.983587126635
 20
140.4022221789906
 30
0.0
 11
361.7390126948949
 21
59.59775390123605
 31
0.0
  0
ELLIPSE
  5
11D
330
110
100
AcDbEntity
  8
0
  6
Continuous
370
    13
100
AcDbEllipse
 10
0.0
 20
42.53429537605269
 30
0.0
 11
2.604474678424182E-15
 21
42.53429936268186
 31
0.0
210
0.0
220
0.0
230
1.0
 40
0.9538441030289242
 41
3.141592653589793
 42
5.125182398197467
  0
ELLIPSE
  5
11E
330
110
100
AcDbEntity
  8
0
  6
Continuous
370
    13
100
AcDbEllipse
 10
40.57110963667461
 20
157.4656966506906
 30
0.0
 11
2.604474678424182E-15
 21
42.53429936268186
 31
0.0
210
0.0
220
0.0
230
1.0
 40
0.9538441030289242
 41
4.299595219153122
 42
8.266774943998835
  0
ELLIPSE
  5
11F
330
110
100
AcDbEntity
  8
0
  6
Continuous
370
    13
100
AcDbEllipse
 10
81.1421736418766
 20
42.53431132256935
 30
0.0
 11
2.604474678424182E-15
 21
42.53429936268186
 31
0.0
210
0.0
220
0.0
230
1.0
 40
0.9538441030289242
 41
1.158003553205547
 42
5.125182741616257
  0
ELLIPSE
  5
120
330
110
100
AcDbEntity
  8
0
  6
Continuous
370
    13
100
AcDbEllipse
 10
121.7150516137156
 20
157.4656966506906
 30
0.0
 11
2.604474678424182E-15
 21
42.53429936268186
 31
0.0
210
0.0
220
0.0
230
1.0
 40
0.9538441030289242
 41
4.299595219153122
 42
8.266774943998835
  0
ELLIPSE
  5
121
330
110
100
AcDbEntity
  8
0
  6
Continuous
370
    13
100
AcDbEllipse
 10
162.2861156189176
 20
42.53431132256935
 30
0.0
 11
2.604474678424182E-15
 21
42.53429936268186
 31
0.0
210
0.0
220
0.0
230
1.0
 40
0.9538441030289242
 41
1.158003553205547
 42
5.125182741616257
  0
ELLIPSE
  5
122
330
110
100
AcDbEntity
  8
0
  6
Continuous
370
    13
100
AcDbEllipse
 10
202.8589935907566
 20
157.4656966506906
 30
0.0
 11
2.604474678424182E-15
 21
42.53429936268186
 31
0.0
210
0.0
220
0.0
230
1.0
 40
0.9538441030289242
 41
4.299595219153122
 42
8.266774943998833
  0
ELLIPSE
  5
123
330
110
100
AcDbEntity
  8
0
  6
Continuous
370
    13
100
AcDbEllipse
 10
243.4300575959586
 20
42.53431132256935
 30
0.0
 11
2.604474678424182E-15
 21
42.53429936268186
 31
0.0
210
0.0
220
0.0
230
1.0
 40
0.9538441030289242
 41
1.158003553205547
 42
5.125182741616257
  0
ELLIPSE
  5
124
330
110
100
AcDbEntity
  8
0
  6
Continuous
370
    13
100
AcDbEllipse
 10
284.0029355677976
 20
157.4656966506906
 30
0.0
 11
2.604474678424182E-15
 21
42.53429936268186
 31
0.0
210
0.0
220
0.0
230
1.0
 40
0.9538441030289242
 41
4.299595219153122
 42
8.266774943998835
  0
ELLIPSE
  5
125
330
110
100
AcDbEntity
  8
0
  6
Continuous
370
    13
100
AcDbEllipse
 10
324.5739995729996
 20
42.53431132256935
 30
0.0
 11
2.604474678424182E-15
 21
42.53429936268186
 31
0.0
210
0.0
220
0.0
230
1.0
 40
0.9538441030289242
 41
1.158003553205547
 42
5.125182741616257
  0
ELLIPSE
  5
126
330
110
100
AcDbEntity
  8
0
  6
Continuous
370
    13
100
AcDbEllipse
 10
365.1468775448386
 20
157.4656966506906
 30
0.0
 11
2.604474678424182E-15
 21
42.53429936268186
 31
0.0
210
0.0
220
0.0
230
1.0
 40
0.9538441030289242
 41
4.299595219153122
 42
8.266774943998835
  0
ELLIPSE
  5
127
330
110
100
AcDbEntity
  8
0
  6
Continuous
370
    13
100
AcDbEllipse
 10
405.7179415500406
 20
42.53431132256935
 30
0.0
 11
2.604474678424182E-15
 21
42.53429936268186
 31
0.0
210
0.0
220
0.0
230
1.0
 40
0.9538441030289242
 41
1.158003553205547
 42
3.141592653589793
  0
ENDBLK
  5
112
330
110
100
AcDbEntity
  8
0
100
AcDbBlockEnd
  0
BLOCK
  5
12A
330
129
100
AcDbEntity
  8
0
100
AcDbBlockBegin
  2
InsulFib 65_5
 70
     0
 10
0.0
 20
0.0
 30
0.0
  3
InsulFib 65_5
  1

  0
LINE
  5
12C
330
129
100
AcDbEntity
  8
0
  6
Continuous
370
    13
100
AcDbLine
 10
30.52867678290404
 20
39.93086500412151
 30
0.0
 11
53.96058258877065
 21
94.07036025885652
 31
0.0
  0
LINE
  5
12D
330
129
100
AcDbEntity
  8
0
  6
Continuous
370
    13
100
AcDbLine
 10
2.365593845216738
 20
94.07036025885652
 30
0.0
 11
25.79747853385776
 21
39.93086500412151
 31
0.0
  0
LINE
  5
12E
330
129
100
AcDbEntity
  8
0
  6
Continuous
370
    13
100
AcDbLine
 10
86.85608073587439
 20
39.93086500412151
 30
0.0
 11
110.287986541741
 21
94.07036025885652
 31
0.0
  0
LINE
  5
12F
330
129
100
AcDbEntity
  8
0
  6
Continuous
370
    13
100
AcDbLine
 10
58.69299779818709
 20
94.07036025885652
 30
0.0
 11
82.12488248682811
 21
39.93086500412151
 31
0.0
  0
LINE
  5
130
330
129
100
AcDbEntity
  8
0
  6
Continuous
370
    13
100
AcDbLine
 10
143.1834846888447
 20
39.93086500412151
 30
0.0
 11
166.6153904947114
 21
94.07036025885652
 31
0.0
  0
LINE
  5
131
330
129
100
AcDbEntity
  8
0
  6
Continuous
370
    13
100
AcDbLine
 10
115.0204017511575
 20
94.07036025885652
 30
0.0
 11
138.4522864397985
 21
39.93086500412151
 31
0.0
  0
LINE
  5
132
330
129
100
AcDbEntity
  8
0
  6
Continuous
370
    13
100
AcDbLine
 10
199.5108886418151
 20
39.93086500412151
 30
0.0
 11
222.9427944476817
 21
94.07036025885652
 31
0.0
  0
LINE
  5
133
330
129
100
AcDbEntity
  8
0
  6
Continuous
370
    13
100
AcDbLine
 10
171.3478057041278
 20
94.07036025885652
 30
0.0
 11
194.7796903927688
 21
39.93086500412151
 31
0.0
  0
LINE
  5
134
330
129
100
AcDbEntity
  8
0
  6
Continuous
370
    13
100
AcDbLine
 10
255.8382925947855
 20
39.93086500412151
 30
0.0
 11
279.270198400652
 21
94.07036025885652
 31
0.0
  0
LINE
  5
135
330
129
100
AcDbEntity
  8
0
  6
Continuous
370
    13
100
AcDbLine
 10
227.6752096570982
 20
94.07036025885652
 30
0.0
 11
251.1070943457392
 21
39.93086500412151
 31
0.0
  0
LINE
  5
136
330
129
100
AcDbEntity
  8
0
  6
Continuous
370
    13
100
AcDbLine
 10
312.1656965477558
 20
39.93086500412151
 30
0.0
 11
335.5976023536224
 21
94.07036025885652
 31
0.0
  0
LINE
  5
137
330
129
100
AcDbEntity
  8
0
  6
Continuous
370
    13
100
AcDbLine
 10
284.0026136100685
 20
94.07036025885652
 30
0.0
 11
307.4344982987096
 21
39.93086500412151
 31
0.0
  0
ELLIPSE
  5
138
330
129
100
AcDbEntity
  8
0
  6
Continuous
370
    13
100
AcDbEllipse
 10
0.0
 20
28.49824188879985
 30
0.0
 11
1.745014199077926E-15
 21
28.49824455986613
 31
0.0
210
0.0
220
0.0
230
1.0
 40
0.9882394965586325
 41
3.141592653589793
 42
5.125182398197467
  0
ELLIPSE
  5
139
330
129
100
AcDbEntity
  8
0
  6
Continuous
370
    13
100
AcDbEllipse
 10
28.16310405491289
 20
105.5029940584433
 30
0.0
 11
1.745014199077926E-15
 21
28.49824455986613
 31
0.0
210
0.0
220
0.0
230
1.0
 40
0.9882394965586325
 41
4.299595219153121
 42
8.266774943998835
  0
ELLIPSE
  5
13A
330
129
100
AcDbEntity
  8
0
  6
Continuous
370
    13
100
AcDbEllipse
 10
56.32617643398738
 20
28.49825257306498
 30
0.0
 11
1.745014199077926E-15
 21
28.49824455986613
 31
0.0
210
0.0
220
0.0
230
1.0
 40
0.9882394965586325
 41
1.158003553205547
 42
5.125182741616258
  0
ELLIPSE
  5
13B
330
129
100
AcDbEntity
  8
0
  6
Continuous
370
    13
100
AcDbEllipse
 10
84.49050800788324
 20
105.5029940584433
 30
0.0
 11
1.745014199077926E-15
 21
28.49824455986613
 31
0.0
210
0.0
220
0.0
230
1.0
 40
0.9882394965586325
 41
4.299595219153121
 42
8.266774943998835
  0
ELLIPSE
  5
13C
330
129
100
AcDbEntity
  8
0
  6
Continuous
370
    13
100
AcDbEllipse
 10
112.6535803869577
 20
28.49825257306498
 30
0.0
 11
1.745014199077926E-15
 21
28.49824455986613
 31
0.0
210
0.0
220
0.0
230
1.0
 40
0.9882394965586325
 41
1.158003553205547
 42
5.125182741616258
  0
ELLIPSE
  5
13D
330
129
100
AcDbEntity
  8
0
  6
Continuous
370
    13
100
AcDbEllipse
 10
140.8179119608536
 20
105.5029940584433
 30
0.0
 11
1.745014199077926E-15
 21
28.49824455986613
 31
0.0
210
0.0
220
0.0
230
1.0
 40
0.9882394965586325
 41
4.299595219153122
 42
8.266774943998835
  0
ELLIPSE
  5
13E
330
129
100
AcDbEntity
  8
0
  6
Continuous
370
    13
100
AcDbEllipse
 10
168.9809843399281
 20
28.49825257306498
 30
0.0
 11
1.745014199077926E-15
 21
28.49824455986613
 31
0.0
210
0.0
220
0.0
230
1.0
 40
0.9882394965586325
 41
1.158003553205547
 42
5.125182741616257
  0
ELLIPSE
  5
13F
330
129
100
AcDbEntity
  8
0
  6
Continuous
370
    13
100
AcDbEllipse
 10
197.1453159138239
 20
105.5029940584433
 30
0.0
 11
1.745014199077926E-15
 21
28.49824455986613
 31
0.0
210
0.0
220
0.0
230
1.0
 40
0.9882394965586325
 41
4.299595219153121
 42
8.266774943998833
  0
ELLIPSE
  5
140
330
129
100
AcDbEntity
  8
0
  6
Continuous
370
    13
100
AcDbEllipse
 10
225.3083882928984
 20
28.49825257306498
 30
0.0
 11
1.745014199077926E-15
 21
28.49824455986613
 31
0.0
210
0.0
220
0.0
230
1.0
 40
0.9882394965586325
 41
1.158003553205547
 42
5.125182741616258
  0
ELLIPSE
  5
141
330
129
100
AcDbEntity
  8
0
  6
Continuous
370
    13
100
AcDbEllipse
 10
253.4727198667943
 20
105.5029940584433
 30
0.0
 11
1.745014199077926E-15
 21
28.49824455986613
 31
0.0
210
0.0
220
0.0
230
1.0
 40
0.9882394965586325
 41
4.299595219153121
 42
8.266774943998833
  0
ELLIPSE
  5
142
330
129
100
AcDbEntity
  8
0
  6
Continuous
370
    13
100
AcDbEllipse
 10
281.6357922458688
 20
28.49825257306498
 30
0.0
 11
1.745014199077926E-15
 21
28.49824455986613
 31
0.0
210
0.0
220
0.0
230
1.0
 40
0.9882394965586325
 41
1.158003553205547
 42
5.125182741616258
  0
ELLIPSE
  5
143
330
129
100
AcDbEntity
  8
0
  6
Continuous
370
    13
100
AcDbEllipse
 10
309.8001238197647
 20
105.5029940584433
 30
0.0
 11
1.745014199077926E-15
 21
28.49824455986613
 31
0.0
210
0.0
220
0.0
230
1.0
 40
0.9882394965586325
 41
4.299595219153122
 42
8.266774943998833
  0
ELLIPSE
  5
144
330
129
100
AcDbEntity
  8
0
  6
Continuous
370
    13
100
AcDbEllipse
 10
337.9631961988392
 20
28.49825257306498
 30
0.0
 11
1.745014199077926E-15
 21
28.49824455986613
 31
0.0
210
0.0
220
0.0
230
1.0
 40
0.9882394965586325
 41
1.158003553205547
 42
3.141592653589793
  0
ENDBLK
  5
12B
330
129
100
AcDbEntity
  8
0
100
AcDbBlockEnd
  0
BLOCK
  5
148
330
147
100
AcDbEntity
  8
0
100
AcDbBlockBegin
  2
InsulFib 65_6
 70
     0
 10
0.0
 20
0.0
 30
0.0
  3
InsulFib 65_6
  1

  0
LINE
  5
14A
330
147
100
AcDbEntity
  8
0
  6
Continuous
370
    13
100
AcDbLine
 10
12.04413823485467
 20
14.89943847530889
 30
0.0
 11
21.28846659663916
 21
35.10055554474737
 31
0.0
  0
LINE
  5
14B
330
147
100
AcDbEntity
  8
0
  6
Continuous
370
    13
100
AcDbLine
 10
0.9332713462139628
 20
35.10055554474737
 30
0.0
 11
10.17759137685504
 21
14.89943847530889
 31
0.0
  0
LINE
  5
14C
330
147
100
AcDbEntity
  8
0
  6
Continuous
370
    13
100
AcDbLine
 10
34.2663604570764
 20
14.89943847530889
 30
0.0
 11
43.51068881886088
 21
35.10055554474737
 31
0.0
  0
LINE
  5
14D
330
147
100
AcDbEntity
  8
0
  6
Continuous
370
    13
100
AcDbLine
 10
23.15549356843569
 20
35.10055554474737
 30
0.0
 11
32.39981359907677
 21
14.89943847530889
 31
0.0
  0
LINE
  5
14E
330
147
100
AcDbEntity
  8
0
  6
Continuous
370
    13
100
AcDbLine
 10
56.48858267929812
 20
14.89943847530889
 30
0.0
 11
65.7329110410826
 21
35.10055554474737
 31
0.0
  0
LINE
  5
14F
330
147
100
AcDbEntity
  8
0
  6
Continuous
370
    13
100
AcDbLine
 10
45.3777157906574
 20
35.10055554474737
 30
0.0
 11
54.6220358212985
 21
14.89943847530889
 31
0.0
  0
LINE
  5
150
330
147
100
AcDbEntity
  8
0
  6
Continuous
370
    13
100
AcDbLine
 10
78.71080490151984
 20
14.89943847530889
 30
0.0
 11
87.95513326330433
 21
35.10055554474737
 31
0.0
  0
LINE
  5
151
330
147
100
AcDbEntity
  8
0
  6
Continuous
370
    13
100
AcDbLine
 10
67.59993801287912
 20
35.10055554474737
 30
0.0
 11
76.84425804352021
 21
14.89943847530889
 31
0.0
  0
LINE
  5
152
330
147
100
AcDbEntity
  8
0
  6
Continuous
370
    13
100
AcDbLine
 10
100.9330271237416
 20
14.89943847530889
 30
0.0
 11
110.177355485526
 21
35.10055554474737
 31
0.0
  0
LINE
  5
153
330
147
100
AcDbEntity
  8
0
  6
Continuous
370
    13
100
AcDbLine
 10
89.82216023510085
 20
35.10055554474737
 30
0.0
 11
99.06648026574194
 21
14.89943847530889
 31
0.0
  0
LINE
  5
154
330
147
100
AcDbEntity
  8
0
  6
Continuous
370
    13
100
AcDbLine
 10
123.1552493459633
 20
14.89943847530889
 30
0.0
 11
132.3995777077478
 21
35.10055554474737
 31
0.0
  0
LINE
  5
155
330
147
100
AcDbEntity
  8
0
  6
Continuous
370
    13
100
AcDbLine
 10
112.0443824573226
 20
35.10055554474737
 30
0.0
 11
121.2887024879637
 21
14.89943847530889
 31
0.0
  0
LINE
  5
156
330
147
100
AcDbEntity
  8
0
  6
Continuous
370
    13
100
AcDbLine
 10
145.377471568185
 20
14.89943847530889
 30
0.0
 11
154.6217999299695
 21
35.10055554474737
 31
0.0
  0
LINE
  5
157
330
147
100
AcDbEntity
  8
0
  6
Continuous
370
    13
100
AcDbLine
 10
134.2666046795443
 20
35.10055554474737
 30
0.0
 11
143.5109247101854
 21
14.89943847530889
 31
0.0
  0
LINE
  5
158
330
147
100
AcDbEntity
  8
0
  6
Continuous
370
    13
100
AcDbLine
 10
167.5996937904067
 20
14.89943847530889
 30
0.0
 11
176.8440221521912
 21
35.10055554474737
 31
0.0
  0
LINE
  5
159
330
147
100
AcDbEntity
  8
0
  6
Continuous
370
    13
100
AcDbLine
 10
156.488826901766
 20
35.10055554474737
 30
0.0
 11
165.7331469324071
 21
14.89943847530889
 31
0.0
  0
LINE
  5
15A
330
147
100
AcDbEntity
  8
0
  6
Continuous
370
    13
100
AcDbLine
 10
189.8219160126285
 20
14.89943847530889
 30
0.0
 11
199.0662443744129
 21
35.10055554474737
 31
0.0
  0
LINE
  5
15B
330
147
100
AcDbEntity
  8
0
  6
Continuous
370
    13
100
AcDbLine
 10
178.7110491239877
 20
35.10055554474737
 30
0.0
 11
187.9553691546288
 21
14.89943847530889
 31
0.0
  0
ELLIPSE
  5
15C
330
147
100
AcDbEntity
  8
0
  6
Continuous
370
    13
100
AcDbEllipse
 10
0.0
 20
10.63357384401309
 30
0.0
 11
11.11087001281948
 21
0.0
 31
0.0
210
0.0
220
0.0
230
1.0
 40
0.9570425023784447
 41
4.71238898038469
 42
6.695978724992363
  0
ELLIPSE
  5
15D
330
147
100
AcDbEntity
  8
0
  6
Continuous
370
    13
100
AcDbEllipse
 10
11.11087521978411
 20
39.36642416267233
 30
0.0
 11
11.11087001281948
 21
0.0
 31
0.0
210
0.0
220
0.0
230
1.0
 40
0.9570425023784447
 41
5.870391545948019
 42
9.837571270793731
  0
ELLIPSE
  5
15E
330
147
100
AcDbEntity
  8
0
  6
Continuous
370
    13
100
AcDbEllipse
 10
22.22173794285312
 20
10.63357783064225
 30
0.0
 11
11.11087001281948
 21
0.0
 31
0.0
210
0.0
220
0.0
230
1.0
 40
0.9570425023784447
 41
2.728799880000444
 42
6.695979068411154
  0
ELLIPSE
  5
15F
330
147
100
AcDbEntity
  8
0
  6
Continuous
370
    13
100
AcDbEllipse
 10
33.33309744200584
 20
39.36642416267233
 30
0.0
 11
11.11087001281948
 21
0.0
 31
0.0
210
0.0
220
0.0
230
1.0
 40
0.9570425023784447
 41
5.870391545948019
 42
9.837571270793731
  0
ELLIPSE
  5
160
330
147
100
AcDbEntity
  8
0
  6
Continuous
370
    13
100
AcDbEllipse
 10
44.44396016507485
 20
10.63357783064225
 30
0.0
 11
11.11087001281948
 21
0.0
 31
0.0
210
0.0
220
0.0
230
1.0
 40
0.9570425023784447
 41
2.728799880000444
 42
6.695979068411154
  0
ELLIPSE
  5
161
330
147
100
AcDbEntity
  8
0
  6
Continuous
370
    13
100
AcDbEllipse
 10
55.55531966422756
 20
39.36642416267233
 30
0.0
 11
11.11087001281948
 21
0.0
 31
0.0
210
0.0
220
0.0
230
1.0
 40
0.9570425023784447
 41
5.870391545948018
 42
9.837571270793731
  0
ELLIPSE
  5
162
330
147
100
AcDbEntity
  8
0
  6
Continuous
370
    13
100
AcDbEllipse
 10
66.66618238729657
 20
10.63357783064225
 30
0.0
 11
11.11087001281948
 21
0.0
 31
0.0
210
0.0
220
0.0
230
1.0
 40
0.9570425023784447
 41
2.728799880000444
 42
6.695979068411154
  0
ELLIPSE
  5
163
330
147
100
AcDbEntity
  8
0
  6
Continuous
370
    13
100
AcDbEllipse
 10
77.77754188644928
 20
39.36642416267233
 30
0.0
 11
11.11087001281948
 21
0.0
 31
0.0
210
0.0
220
0.0
230
1.0
 40
0.9570425023784447
 41
5.870391545948019
 42
9.837571270793731
  0
ELLIPSE
  5
164
330
147
100
AcDbEntity
  8
0
  6
Continuous
370
    13
100
AcDbEllipse
 10
88.88840460951829
 20
10.63357783064225
 30
0.0
 11
11.11087001281948
 21
0.0
 31
0.0
210
0.0
220
0.0
230
1.0
 40
0.9570425023784447
 41
2.728799880000444
 42
6.695979068411154
  0
ELLIPSE
  5
165
330
147
100
AcDbEntity
  8
0
  6
Continuous
370
    13
100
AcDbEllipse
 10
99.999764108671
 20
39.36642416267233
 30
0.0
 11
11.11087001281948
 21
0.0
 31
0.0
210
0.0
220
0.0
230
1.0
 40
0.9570425023784447
 41
5.870391545948019
 42
9.837571270793731
  0
ELLIPSE
  5
166
330
147
100
AcDbEntity
  8
0
  6
Continuous
370
    13
100
AcDbEllipse
 10
111.11062683174
 20
10.63357783064225
 30
0.0
 11
11.11087001281948
 21
0.0
 31
0.0
210
0.0
220
0.0
230
1.0
 40
0.9570425023784447
 41
2.728799880000444
 42
6.695979068411154
  0
ELLIPSE
  5
167
330
147
100
AcDbEntity
  8
0
  6
Continuous
370
    13
100
AcDbEllipse
 10
122.2219863308927
 20
39.36642416267233
 30
0.0
 11
11.11087001281948
 21
0.0
 31
0.0
210
0.0
220
0.0
230
1.0
 40
0.9570425023784447
 41
5.870391545948018
 42
9.837571270793731
  0
ELLIPSE
  5
168
330
147
100
AcDbEntity
  8
0
  6
Continuous
370
    13
100
AcDbEllipse
 10
133.3328490539618
 20
10.63357783064225
 30
0.0
 11
11.11087001281948
 21
0.0
 31
0.0
210
0.0
220
0.0
230
1.0
 40
0.9570425023784447
 41
2.728799880000444
 42
6.695979068411154
  0
ELLIPSE
  5
169
330
147
100
AcDbEntity
  8
0
  6
Continuous
370
    13
100
AcDbEllipse
 10
144.4442085531144
 20
39.36642416267233
 30
0.0
 11
11.11087001281948
 21
0.0
 31
0.0
210
0.0
220
0.0
230
1.0
 40
0.9570425023784447
 41
5.870391545948019
 42
9.837571270793731
  0
ELLIPSE
  5
16A
330
147
100
AcDbEntity
  8
0
  6
Continuous
370
    13
100
AcDbEllipse
 10
155.5550712761834
 20
10.63357783064225
 30
0.0
 11
11.11087001281948
 21
0.0
 31
0.0
210
0.0
220
0.0
230
1.0
 40
0.9570425023784447
 41
2.728799880000444
 42
6.695979068411154
  0
ELLIPSE
  5
16B
330
147
100
AcDbEntity
  8
0
  6
Continuous
370
    13
100
AcDbEllipse
 10
166.6664307753362
 20
39.36642416267233
 30
0.0
 11
11.11087001281948
 21
0.0
 31
0.0
210
0.0
220
0.0
230
1.0
 40
0.9570425023784447
 41
5.870391545948019
 42
9.837571270793731
  0
ELLIPSE
  5
16C
330
147
100
AcDbEntity
  8
0
  6
Continuous
370
    13
100
AcDbEllipse
 10
177.7772934984052
 20
10.63357783064225
 30
0.0
 11
11.11087001281948
 21
0.0
 31
0.0
210
0.0
220
0.0
230
1.0
 40
0.9570425023784447
 41
2.728799880000444
 42
6.695979068411154
  0
ELLIPSE
  5
16D
330
147
100
AcDbEntity
  8
0
  6
Continuous
370
    13
100
AcDbEllipse
 10
188.8886529975579
 20
39.36642416267233
 30
0.0
 11
11.11087001281948
 21
0.0
 31
0.0
210
0.0
220
0.0
230
1.0
 40
0.9570425023784447
 41
5.870391545948019
 42
9.837571270793731
  0
ELLIPSE
  5
16E
330
147
100
AcDbEntity
  8
0
  6
Continuous
370
    13
100
AcDbEllipse
 10
199.9995157206269
 20
10.63357783064225
 30
0.0
 11
11.11087001281948
 21
0.0
 31
0.0
210
0.0
220
0.0
230
1.0
 40
0.9570425023784447
 41
2.728799880000444
 42
4.71238898038469
  0
ENDBLK
  5
149
330
147
100
AcDbEntity
  8
0
100
AcDbBlockEnd
  0
BLOCK
  5
171
330
170
100
AcDbEntity
  8
0
100
AcDbBlockBegin
  2
InsulFib 65_7
 70
     0
 10
0.0
 20
0.0
 30
0.0
  3
InsulFib 65_7
  1

  0
LINE
  5
173
330
170
100
AcDbEntity
  8
0
  6
Continuous
370
    13
100
AcDbLine
 10
48.77875985116297
 20
59.59775390123605
 30
0.0
 11
86.21828971639133
 21
140.4022221789906
 31
0.0
  0
LINE
  5
174
330
170
100
AcDbEntity
  8
0
  6
Continuous
370
    13
100
AcDbLine
 10
3.77974895216667
 20
140.4022221789906
 30
0.0
 11
41.21924507626424
 21
59.59775390123605
 31
0.0
  0
LINE
  5
175
330
170
100
AcDbEntity
  8
0
  6
Continuous
370
    13
100
AcDbLine
 10
138.7787598511638
 20
59.59775390123605
 30
0.0
 11
176.2182897163922
 21
140.4022221789906
 31
0.0
  0
LINE
  5
176
330
170
100
AcDbEntity
  8
0
  6
Continuous
370
    13
100
AcDbLine
 10
93.77974895216751
 20
140.4022221789906
 30
0.0
 11
131.2192450762651
 21
59.59775390123605
 31
0.0
  0
ELLIPSE
  5
177
330
170
100
AcDbEntity
  8
0
  6
Continuous
370
    13
100
AcDbEllipse
 10
0.0
 20
42.53429537605269
 30
0.0
 11
44.99902355192035
 21
0.0
 31
0.0
210
0.0
220
0.0
230
1.0
 40
0.9452271628428857
 41
4.71238898038469
 42
6.695978724992363
  0
ELLIPSE
  5
178
330
170
100
AcDbEntity
  8
0
  6
Continuous
370
    13
100
AcDbEllipse
 10
44.99904464012708
 20
157.4656966506906
 30
0.0
 11
44.99902355192035
 21
0.0
 31
0.0
210
0.0
220
0.0
230
1.0
 40
0.9452271628428857
 41
5.870391545948018
 42
9.837571270793731
  0
ELLIPSE
  5
179
330
170
100
AcDbEntity
  8
0
  6
Continuous
370
    13
100
AcDbEllipse
 10
89.998038668558
 20
42.53431132256935
 30
0.0
 11
44.99902355192035
 21
0.0
 31
0.0
210
0.0
220
0.0
230
1.0
 40
0.9452271628428857
 41
2.728799880000444
 42
6.695979068411154
  0
ELLIPSE
  5
17A
330
170
100
AcDbEntity
  8
0
  6
Continuous
370
    13
100
AcDbEllipse
 10
134.9990446401279
 20
157.4656966506906
 30
0.0
 11
44.99902355192035
 21
0.0
 31
0.0
210
0.0
220
0.0
230
1.0
 40
0.9452271628428857
 41
5.870391545948019
 42
9.837571270793731
  0
ELLIPSE
  5
17B
330
170
100
AcDbEntity
  8
0
  6
Continuous
370
    13
100
AcDbEllipse
 10
179.9980386685588
 20
42.53431132256935
 30
0.0
 11
44.99902355192035
 21
0.0
 31
0.0
210
0.0
220
0.0
230
1.0
 40
0.9452271628428857
 41
2.728799880000444
 42
4.71238898038469
  0
ENDBLK
  5
172
330
170
100
AcDbEntity
  8
0
100
AcDbBlockEnd
  0
BLOCK
  5
17E
330
17D
100
AcDbEntity
  8
0
100
AcDbBlockBegin
  2
InsulFib 65_8
 70
     0
 10
0.0
 20
0.0
 30
0.0
  3
InsulFib 65_8
  1

  0
LINE
  5
180
330
17D
100
AcDbEntity
  8
0
  6
Continuous
370
    13
100
AcDbLine
 10
10.83972441136938
 20
14.89943847530889
 30
0.0
 11
19.15961993697555
 21
35.10055554474737
 31
0.0
  0
LINE
  5
181
330
17D
100
AcDbEntity
  8
0
  6
Continuous
370
    13
100
AcDbLine
 10
0.83994421159258
 20
35.10055554474737
 30
0.0
 11
9.159832239169688
 21
14.89943847530889
 31
0.0
  0
LINE
  5
182
330
17D
100
AcDbEntity
  8
0
  6
Continuous
370
    13
100
AcDbLine
 10
30.83972441136926
 20
14.89943847530889
 30
0.0
 11
39.15961993697542
 21
35.10055554474737
 31
0.0
  0
LINE
  5
183
330
17D
100
AcDbEntity
  8
0
  6
Continuous
370
    13
100
AcDbLine
 10
20.83994421159245
 20
35.10055554474737
 30
0.0
 11
29.15983223916956
 21
14.89943847530889
 31
0.0
  0
LINE
  5
184
330
17D
100
AcDbEntity
  8
0
  6
Continuous
370
    13
100
AcDbLine
 10
50.83972441136913
 20
14.89943847530889
 30
0.0
 11
59.1596199369753
 21
35.10055554474737
 31
0.0
  0
LINE
  5
185
330
17D
100
AcDbEntity
  8
0
  6
Continuous
370
    13
100
AcDbLine
 10
40.83994421159233
 20
35.10055554474737
 30
0.0
 11
49.15983223916944
 21
14.89943847530889
 31
0.0
  0
ELLIPSE
  5
186
330
17D
100
AcDbEntity
  8
0
  6
Continuous
370
    13
100
AcDbEllipse
 10
0.0
 20
10.63357384401309
 30
0.0
 11
6.511186696060404E-16
 21
10.63357484067038
 31
0.0
210
0.0
220
0.0
230
1.0
 40
0.9403971064642712
 41
3.141592653589793
 42
5.125182398197467
  0
ELLIPSE
  5
187
330
17D
100
AcDbEntity
  8
0
  6
Continuous
370
    13
100
AcDbEllipse
 10
9.99978769780586
 20
39.36642416267233
 30
0.0
 11
6.511186696060404E-16
 21
10.63357484067038
 31
0.0
210
0.0
220
0.0
230
1.0
 40
0.9403971064642712
 41
4.299595219153121
 42
8.266774943998835
  0
ELLIPSE
  5
188
330
17D
100
AcDbEntity
  8
0
  6
Continuous
370
    13
100
AcDbEllipse
 10
19.99956414856813
 20
10.63357783064225
 30
0.0
 11
6.511186696060404E-16
 21
10.63357484067038
 31
0.0
210
0.0
220
0.0
230
1.0
 40
0.9403971064642712
 41
1.158003553205547
 42
5.125182741616258
  0
ELLIPSE
  5
189
330
17D
100
AcDbEntity
  8
0
  6
Continuous
370
    13
100
AcDbEllipse
 10
29.99978769780574
 20
39.36642416267233
 30
0.0
 11
6.511186696060404E-16
 21
10.63357484067038
 31
0.0
210
0.0
220
0.0
230
1.0
 40
0.9403971064642712
 41
4.299595219153121
 42
8.266774943998835
  0
ELLIPSE
  5
18A
330
17D
100
AcDbEntity
  8
0
  6
Continuous
370
    13
100
AcDbEllipse
 10
39.99956414856801
 20
10.63357783064225
 30
0.0
 11
6.511186696060404E-16
 21
10.63357484067038
 31
0.0
210
0.0
220
0.0
230
1.0
 40
0.9403971064642712
 41
1.158003553205547
 42
5.125182741616258
  0
ELLIPSE
  5
18B
330
17D
100
AcDbEntity
  8
0
  6
Continuous
370
    13
100
AcDbEllipse
 10
49.99978769780561
 20
39.36642416267233
 30
0.0
 11
6.511186696060404E-16
 21
10.63357484067038
 31
0.0
210
0.0
220
0.0
230
1.0
 40
0.9403971064642712
 41
4.299595219153121
 42
8.266774943998835
  0
ELLIPSE
  5
18C
330
17D
100
AcDbEntity
  8
0
  6
Continuous
370
    13
100
AcDbEllipse
 10
59.99956414856788
 20
10.63357783064225
 30
0.0
 11
6.511186696060404E-16
 21
10.63357484067038
 31
0.0
210
0.0
220
0.0
230
1.0
 40
0.9403971064642712
 41
1.158003553205547
 42
3.141592653589793
  0
ENDBLK
  5
17F
330
17D
100
AcDbEntity
  8
0
100
AcDbBlockEnd
  0
BLOCK
  5
386
330
385
100
AcDbEntity
  8
0
100
AcDbBlockBegin
  2
Bez nazwy_STORY_MARKER
 70
     0
 10
0.0
 20
0.0
 30
0.0
  3
Bez nazwy_STORY_MARKER
  1

  0
ENDBLK
  5
387
330
385
100
AcDbEntity
  8
0
100
AcDbBlockEnd
  0
BLOCK
  5
389
330
388
100
AcDbEntity
  8
0
100
AcDbBlockBegin
  2
Rysunek_1
 70
     0
 10
0.0
 20
0.0
 30
0.0
  3
Rysunek_1
  1

  0
ENDBLK
  5
38A
330
388
100
AcDbEntity
  8
0
100
AcDbBlockEnd
  0
BLOCK
  5
393
330
392
100
AcDbEntity
  8
0
100
AcDbBlockBegin
  2
01 03.21.10_BALKON_T-\U+FFA3\U+FFA5CZNIK_2W_STORY_MARKER
 70
     0
 10
0.0
 20
0.0
 30
0.0
  3
01 03.21.10_BALKON_T-\U+FFA3\U+FFA5CZNIK_2W_STORY_MARKER
  1

  0
ENDBLK
  5
394
330
392
100
AcDbEntity
  8
0
100
AcDbBlockEnd
  0
ENDSEC
  0
SECTION
  2
ENTITIES
  0
HATCH
  5
5E
330
1F
100
AcDbEntity
  8
0
  6
Continuous
370
    13
100
AcDbHatch
 10
0.0
 20
0.0
 30
0.0
210
0.0
220
0.0
230
1.0
  2
A_ukośne_rzadko_0002
 70
     0
 71
     0
 91
        1
 92
        2
 72
     0
 73
     1
 93
        4
 10
16841.60292962384
 20
882.8565818067412
 10
16841.60292962384
 20
121.1829378556948
 10
17081.60292962385
 20
121.1829378556948
 10
17081.60292962385
 20
882.8565818067412
 97
        0
 75
     0
 76
     2
 52
0.0
 41
1.0
 77
     0
 78
     1
 53
44.99999999999999
 43
0.0
 44
0.0
 45
-35.35533905932737
 46
35.35533905932738
 79
     0
 98
        0
  0
HATCH
  5
5F
330
1F
100
AcDbEntity
  8
0
  6
Continuous
370
    13
100
AcDbHatch
 10
0.0
 20
0.0
 30
0.0
210
0.0
220
0.0
230
1.0
  2
A_ukośne_rzadko_0002
 70
     0
 71
     0
 91
        1
 92
        2
 72
     0
 73
     1
 93
        4
 10
16841.60292962384
 20
-588.8170621443054
 10
17081.60292962385
 20
-588.8170621443054
 10
17081.60292962385
 20
-178.8170621443053
 10
16841.60292962384
 20
-178.8170621443048
 97
        0
 75
     0
 76
     2
 52
0.0
 41
1.0
 77
     0
 78
     1
 53
44.99999999999999
 43
0.0
 44
0.0
 45
-35.35533905932737
 46
35.35533905932738
 79
     0
 98
        0
  0
HATCH
  5
60
330
1F
100
AcDbEntity
  8
0
  6
Continuous
370
    13
100
AcDbHatch
 10
0.0
 20
0.0
 30
0.0
210
0.0
220
0.0
230
1.0
  2
beton_zbrojony_0002
 70
     0
 71
     0
 91
        1
 92
        2
 72
     0
 73
     1
 93
        6
 10
16701.60292962384
 20
-38.81706214430444
 10
16701.60292962384
 20
116.3308159613769
 10
16560.64468784319
 20
113.4688940054492
 10
16510.75471358039
 20
114.0403762132201
 10
16001.60292962384
 20
107.9829378556953
 10
16001.60292962384
 20
-38.81706214430444
 97
        0
 75
     0
 76
     2
 52
0.0
 41
1.0
 77
     0
 78
     2
 53
44.99999999999999
 43
0.0
 44
0.0
 45
-18.38477563650066
 46
18.38477563650066
 79
     0
 53
44.99999999999999
 43
-9.192387818250328
 44
9.19238781825033
 45
-18.38477563650066
 46
18.38477563650066
 79
     2
 49
19.49999928474426
 49
-6.49999976158142
 98
        0
  0
HATCH
  5
61
330
1F
100
AcDbEntity
  8
0
  6
Continuous
370
    13
100
AcDbHatch
 10
0.0
 20
0.0
 30
0.0
210
0.0
220
0.0
230
1.0
  2
bloczki_ceramiczne_0002
 70
     0
 71
     0
 91
        1
 92
        2
 72
     0
 73
     1
 93
        4
 10
17091.60292962384
 20
251.1829378556941
 10
17091.60292962384
 20
231.1829378556945
 10
17181.60292962384
 20
231.1829378556945
 10
17181.60292962384
 20
251.1829378556945
 97
        0
 75
     0
 76
     2
 52
0.0
 41
1.0
 77
     0
 78
     1
 53
45.0
 43
0.0
 44
0.0
 45
-12.72792172418307
 46
12.72792172418307
 79
     0
 98
        0
  0
HATCH
  5
62
330
1F
100
AcDbEntity
  8
0
  6
Continuous
370
    13
100
AcDbHatch
 10
0.0
 20
0.0
 30
0.0
210
0.0
220
0.0
230
1.0
  2
beton_0002
 70
     0
 71
     0
 91
        1
 92
        2
 72
     0
 73
     1
 93
        5
 10
17091.60292962384
 20
231.1829378556945
 10
17089.1533518463
 20
231.1829378556945
 10
17089.1533518463
 20
171.1829378556941
 10
17181.60292962384
 20
171.1829378556941
 10
17181.60292962384
 20
231.1829378556945
 97
        0
 75
     0
 76
     2
 52
0.0
 41
1.0
 77
     0
 78
     2
 53
44.99999999999999
 43
0.0
 44
0.0
 45
-18.38477563650066
 46
18.38477563650066
 79
     2
 49
19.49999928474426
 49
-6.49999976158142
 53
44.99999999999999
 43
0.0000000000000018
 44
18.38477563650066
 45
-18.38477563650066
 46
18.38477563650066
 79
     2
 49
19.49999928474426
 49
-6.49999976158142
 98
        0
  0
HATCH
  5
63
330
1F
100
AcDbEntity
  8
0
  6
Continuous
370
    13
100
AcDbHatch
 10
0.0
 20
0.0
 30
0.0
210
0.0
220
0.0
230
1.0
  2
beton_zbrojony_0002
 70
     0
 71
     0
 91
        1
 92
        2
 72
     0
 73
     1
 93
        6
 10
17181.60292962384
 20
121.1829378556947
 10
16841.60292962384
 20
121.1829378556947
 10
16841.60292962384
 20
-178.8170621443053
 10
17081.60292962385
 20
-178.8170621443053
 10
17081.60292962385
 20
-118.8170621443052
 10
17181.60292962384
 20
-118.8170621443052
 97
        0
 75
     0
 76
     2
 52
0.0
 41
1.0
 77
     0
 78
     2
 53
44.99999999999999
 43
0.0
 44
0.0
 45
-18.38477563650066
 46
18.38477563650066
 79
     0
 53
44.99999999999999
 43
-9.192387818250328
 44
9.19238781825033
 45
-18.38477563650066
 46
18.38477563650066
 79
     2
 49
19.49999928474426
 49
-6.49999976158142
 98
        0
  0
HATCH
  5
64
330
1F
100
AcDbEntity
  8
0
  6
Continuous
370
    13
100
AcDbHatch
 10
0.0
 20
0.0
 30
0.0
210
0.0
220
0.0
230
1.0
  2
beton_zbrojony_0002
 70
     0
 71
     0
 91
        1
 92
        2
 72
     0
 73
     1
 93
       12
 10
15431.60292962384
 20
-38.81706214430447
 10
15481.60292962384
 20
-38.81706214430447
 10
15496.60292962384
 20
-23.81706214430434
 10
15516.60292962384
 20
-23.81706214430434
 10
15531.60292962384
 20
-38.81706214430447
 10
15981.60292962384
 20
-38.81706214430447
 10
15981.60292962384
 20
92.87043785569566
 10
15431.60292962384
 20
78.68155621586743
 10
15431.60292962384
 20
21.18293785569459
 10
15487.06960476072
 20
21.18293785569459
 10
15487.06960476072
 20
11.18293785569658
 10
15431.60292962384
 20
11.18293785569658
 97
        0
 75
     0
 76
     2
 52
0.0
 41
1.0
 77
     0
 78
     2
 53
44.99999999999999
 43
0.0
 44
0.0
 45
-18.38477563650066
 46
18.38477563650066
 79
     0
 53
44.99999999999999
 43
-9.192387818250328
 44
9.19238781825033
 45
-18.38477563650066
 46
18.38477563650066
 79
     2
 49
19.49999928474426
 49
-6.49999976158142
 98
        0
  0
HATCH
  5
65
330
1F
100
AcDbEntity
  8
0
  6
Continuous
370
    13
100
AcDbHatch
 10
0.0
 20
0.0
 30
0.0
210
0.0
220
0.0
230
1.0
  2
izolacja_miękka_0002
 70
     0
 71
     0
 91
        1
 92
        2
 72
     0
 73
     1
 93
        5
 10
16704.05250740139
 20
121.1829378556948
 10
16701.60292962384
 20
121.1829378556948
 10
16701.60292962384
 20
-38.81706214430444
 10
16841.60292962384
 20
-38.81706214430444
 10
16841.60292962384
 20
121.1829378556948
 97
        0
 75
     0
 76
     2
 52
0.0
 41
1.0
 77
     0
 78
     2
 53
60.00000000000001
 43
0.0
 44
0.0
 45
-12.99038105676658
 46
7.499999999999996
 79
     0
 53
120.0
 43
0.0
 44
0.0
 45
12.99038105676657
 46
7.500000000000008
 79
     0
 98
        0
  0
HATCH
  5
66
330
1F
100
AcDbEntity
  8
0
  6
Continuous
370
    13
100
AcDbHatch
 10
0.0
 20
0.0
 30
0.0
210
0.0
220
0.0
230
1.0
  2
A_ukośne_rzadko_0002
 70
     0
 71
     0
 91
        1
 92
        2
 72
     0
 73
     1
 93
        4
 10
17889.0437898389
 20
-544.0302269720827
 10
17889.0437898389
 20
-504.030226972082
 10
17649.0437898389
 20
-504.0302269720811
 10
17649.0437898389
 20
-544.0302269720827
 97
        0
 75
     0
 76
     2
 52
0.0
 41
1.0
 77
     0
 78
     1
 53
44.99999999999999
 43
0.0
 44
0.0
 45
-35.35533905932737
 46
35.35533905932738
 79
     0
 98
        0
  0
HATCH
  5
67
330
1F
100
AcDbEntity
  8
0
  6
Continuous
370
    13
100
AcDbHatch
 10
0.0
 20
0.0
 30
0.0
210
0.0
220
0.0
230
1.0
  2
beton_zbrojony_0002
 70
     0
 71
     0
 91
        1
 92
        2
 72
     0
 73
     1
 93
        4
 10
17509.0437898389
 20
-364.030226972081
 10
17509.0437898389
 20
-205.4946172057683
 10
17289.0437898389
 20
-208.178798400653
 10
17289.0437898389
 20
-364.030226972081
 97
        0
 75
     0
 76
     2
 52
0.0
 41
1.0
 77
     0
 78
     2
 53
44.99999999999999
 43
0.0
 44
0.0
 45
-18.38477563650066
 46
18.38477563650066
 79
     0
 53
44.99999999999999
 43
-9.192387818250328
 44
9.19238781825033
 45
-18.38477563650066
 46
18.38477563650066
 79
     2
 49
19.49999928474426
 49
-6.49999976158142
 98
        0
  0
HATCH
  5
68
330
1F
100
AcDbEntity
  8
0
  6
Continuous
370
    13
100
AcDbHatch
 10
0.0
 20
0.0
 30
0.0
210
0.0
220
0.0
230
1.0
  2
bloczki_ceramiczne_0002
 70
     0
 71
     0
 91
        1
 92
        2
 72
     0
 73
     1
 93
        4
 10
17749.43255666518
 20
-73.96440131650023
 10
17749.43255666518
 20
-93.96440131649936
 10
17939.0437898389
 20
-93.96440131649936
 10
17939.0437898389
 20
-73.96440131649979
 97
        0
 75
     0
 76
     2
 52
0.0
 41
1.0
 77
     0
 78
     1
 53
45.0
 43
0.0
 44
0.0
 45
-12.72792172418307
 46
12.72792172418307
 79
     0
 98
        0
  0
HATCH
  5
69
330
1F
100
AcDbEntity
  8
0
  6
Continuous
370
    13
100
AcDbHatch
 10
0.0
 20
0.0
 30
0.0
210
0.0
220
0.0
230
1.0
  2
beton_0002
 70
     0
 71
     0
 91
        1
 92
        2
 72
     0
 73
     1
 93
        5
 10
17899.0437898389
 20
-94.0302269720819
 10
17799.04332866884
 20
-94.0302269720819
 10
17799.04332866884
 20
-154.0302269720824
 10
17939.0437898389
 20
-154.0302269720824
 10
17939.0437898389
 20
-94.0302269720819
 97
        0
 75
     0
 76
     2
 52
0.0
 41
1.0
 77
     0
 78
     2
 53
44.99999999999999
 43
0.0
 44
0.0
 45
-18.38477563650066
 46
18.38477563650066
 79
     2
 49
19.49999928474426
 49
-6.49999976158142
 53
44.99999999999999
 43
0.0000000000000018
 44
18.38477563650066
 45
-18.38477563650066
 46
18.38477563650066
 79
     2
 49
19.49999928474426
 49
-6.49999976158142
 98
        0
  0
HATCH
  5
6A
330
1F
100
AcDbEntity
  8
0
  6
Continuous
370
    13
100
AcDbHatch
 10
0.0
 20
0.0
 30
0.0
210
0.0
220
0.0
230
1.0
  2
beton_zbrojony_0002
 70
     0
 71
     0
 91
        1
 92
        2
 72
     0
 73
     1
 93
        6
 10
17939.0437898389
 20
-204.0302269720818
 10
17649.0437898389
 20
-204.0302269720818
 10
17649.0437898389
 20
-504.030226972082
 10
17889.0437898389
 20
-504.030226972082
 10
17889.0437898389
 20
-444.0302269720819
 10
17939.0437898389
 20
-444.0302269720819
 97
        0
 75
     0
 76
     2
 52
0.0
 41
1.0
 77
     0
 78
     2
 53
44.99999999999999
 43
0.0
 44
0.0
 45
-18.38477563650066
 46
18.38477563650066
 79
     0
 53
44.99999999999999
 43
-9.192387818250328
 44
9.19238781825033
 45
-18.38477563650066
 46
18.38477563650066
 79
     2
 49
19.49999928474426
 49
-6.49999976158142
 98
        0
  0
HATCH
  5
6B
330
1F
100
AcDbEntity
  8
0
  6
Continuous
370
    13
100
AcDbHatch
 10
0.0
 20
0.0
 30
0.0
210
0.0
220
0.0
230
1.0
  2
izolacja_miękka_0002
 70
     0
 71
     0
 91
        1
 92
        2
 72
     0
 73
     1
 93
        4
 10
17509.0437898389
 20
-205.4946172057683
 10
17509.0437898389
 20
-364.030226972081
 10
17649.0437898389
 20
-364.030226972081
 10
17649.0437898389
 20
-204.0302269720818
 97
        0
 75
     0
 76
     2
 52
0.0
 41
1.0
 77
     0
 78
     2
 53
60.00000000000001
 43
0.0
 44
0.0
 45
-12.99038105676658
 46
7.499999999999996
 79
     0
 53
120.0
 43
0.0
 44
0.0
 45
12.99038105676657
 46
7.500000000000008
 79
     0
 98
        0
  0
HATCH
  5
6C
330
1F
100
AcDbEntity
  8
0
  6
Continuous
100
AcDbHatch
 10
0.0
 20
0.0
 30
0.0
210
0.0
220
0.0
230
1.0
  2
SOLID
 70
     1
 71
     0
 91
        1
 92
        2
 72
     0
 73
     1
 93
        4
 10
17509.0437898389
 20
-205.4946172057683
 10
17509.0437898389
 20
-364.030226972081
 10
17649.0437898389
 20
-364.030226972081
 10
17649.0437898389
 20
-204.0302269720818
 97
        0
 75
     0
 76
     1
 98
        0
  0
HATCH
  5
6D
330
1F
100
AcDbEntity
  8
0
  6
Continuous
100
AcDbHatch
 10
0.0
 20
0.0
 30
0.0
210
0.0
220
0.0
230
1.0
  2
SOLID
 70
     1
 71
     0
 91
        1
 92
        2
 72
     1
 73
     1
 93
       26
 10
17757.06050797685
 20
157.9697730279174
 42
0.0
 10
17757.06050797685
 20
121.9697730279174
 42
0.0
 10
17693.06050797686
 20
121.9697730279174
 42
0.0
 10
17693.06050797686
 20
159.9697730279177
 42
0.0
 10
17663.3675100329
 20
151.236538338521
 42
0.3327064143891553
 10
17659.06050797685
 20
145.480345329094
 42
0.0
 10
17659.06050797685
 20
77.96977302791736
 42
0.0
 10
17669.06050797685
 20
77.96977302791736
 42
0.0
 10
17669.06050797685
 20
57.96977302791733
 42
0.0
 10
17681.06050797686
 20
57.96977302791733
 42
0.0
 10
17681.06050797686
 20
67.96977302791757
 42
0.0
 10
17693.06050797686
 20
67.96977302791757
 42
0.0
 10
17693.06050797686
 20
57.96977302791733
 42
0.0
 10
17707.06050797685
 20
57.96977302791733
 42
0.0
 10
17707.06050797685
 20
73.96977302791736
 42
0.0
 10
17717.06050797686
 20
73.96977302791736
 42
0.0
 10
17717.06050797686
 20
33.96977302791776
 42
0.0
 10
17729.06050797686
 20
33.96977302791776
 42
0.0
 10
17729.06050797686
 20
17.63084737335149
 42
0.0
 10
17753.06050797686
 20
17.63084737335149
 42
0.0
 10
17765.0437898389
 20
17.63084737335149
 42
0.0
 10
17765.0437898389
 20
-2.030226972082272
 42
0.0
 10
17789.0437898389
 20
-2.030226972082272
 42
0.414213562373095
 10
17795.0437898389
 20
3.969773027917511
 42
0.0
 10
17795.0437898389
 20
146.8431615720528
 42
0.3690359178246986
 10
17789.97996713122
 20
152.7696758998306
 42
0.0
 97
        0
 75
     0
 76
     1
 98
        0
  0
HATCH
  5
6E
330
1F
100
AcDbEntity
  8
0
  6
Continuous
100
AcDbHatch
 10
0.0
 20
0.0
 30
0.0
210
0.0
220
0.0
230
1.0
  2
SOLID
 70
     1
 71
     0
 91
        1
 92
        2
 72
     0
 73
     1
 93
       18
 10
17739.04378983891
 20
-154.0302269720829
 10
17739.04378983891
 20
-74.03022697208279
 10
17761.0437898389
 20
-74.03022697208279
 10
17761.0437898389
 20
9.96977302791774
 10
17725.0437898389
 20
9.96977302791774
 10
17725.0437898389
 20
21.96977302791775
 10
17701.0437898389
 20
21.96977302791775
 10
17701.0437898389
 20
5.969773027917736
 10
17693.0437898389
 20
5.969773027917736
 10
17693.0437898389
 20
21.96977302791775
 10
17677.04378983891
 20
21.96977302791775
 10
17677.04378983891
 20
-14.03022697208228
 10
17614.87809394761
 20
-31.15402176050513
 10
17614.87793943203
 20
-72.85929374357022
 10
17639.0437898389
 20
-72.85929374357022
 10
17639.0437898389
 20
-66.70050485963777
 10
17649.0437898389
 20
-66.70050485963777
 10
17649.0437898389
 20
-154.0302269720829
 97
        0
 75
     0
 76
     1
 98
        0
  0
HATCH
  5
6F
330
1F
100
AcDbEntity
  8
0
  6
Continuous
100
AcDbHatch
 10
0.0
 20
0.0
 30
0.0
210
0.0
220
0.0
230
1.0
  2
SOLID
 70
     1
 71
     0
 91
        1
 92
        2
 72
     0
 73
     1
 93
        4
 10
17649.0437898389
 20
-204.0302269720818
 10
17739.04378983891
 20
-204.0302269720818
 10
17739.04378983891
 20
-154.0302269720829
 10
17649.0437898389
 20
-154.0302269720829
 97
        0
 75
     0
 76
     1
 98
        0
  0
HATCH
  5
70
330
1F
100
AcDbEntity
  8
0
  6
Continuous
 62
   244
370
    20
100
AcDbHatch
 10
0.0
 20
0.0
 30
0.0
210
0.0
220
0.0
230
1.0
  2
SOLID
 70
     1
 71
     1
 91
        1
 92
        2
 72
     1
 73
     1
 93
        6
 10
16649.04180087912
 20
-710.0407828877954
 42
0.0
 10
16649.04180087912
 20
-685.4625605120546
 42
0.0
 10
16624.46357850339
 20
-685.4625605120546
 42
0.414213562373095
 10
16594.96971165249
 20
-714.9564273629429
 42
0.0
 10
16594.96971165249
 20
-739.5346497386839
 42
0.0
 10
16619.54793402824
 20
-739.5346497386839
 42
0.414213562373095
 97
        1
330
71
 75
     0
 76
     1
 98
        0
  0
LWPOLYLINE
  5
71
102
{ACAD_REACTORS
330
70
102
}
330
1F
100
AcDbEntity
  8
0
  6
Continuous
 62
   244
370
    20
100
AcDbPolyline
 90
        6
 70
   129
 43
0.0
 10
16649.04180087912
 20
-710.0407828877954
 10
16649.04180087912
 20
-685.4625605120546
 10
16624.46357850339
 20
-685.4625605120546
 42
0.414213562373095
 10
16594.96971165249
 20
-714.9564273629429
 10
16594.96971165249
 20
-739.5346497386839
 10
16619.54793402824
 20
-739.5346497386839
 42
0.414213562373095
  0
HATCH
  5
72
330
1F
100
AcDbEntity
  8
0
  6
Continuous
370
    13
100
AcDbHatch
 10
0.0
 20
0.0
 30
0.0
210
0.0
220
0.0
230
1.0
  2
SOLID
 70
     1
 71
     1
 91
        3
 92
        2
 72
     1
 73
     1
 93
        8
 10
16194.43481124262
 20
-738.7196276183824
 42
0.0723831287448308
 10
16158.76290576008
 20
-739.0237761557407
 42
0.0
 10
16158.76290576008
 20
-807.6544596358797
 42
0.0475754375093521
 10
16178.0533231649
 20
-809.758238019264
 42
0.0
 10
16180.82278323532
 20
-809.758238019264
 42
0.0201526900432898
 10
16189.0458696799
 20
-809.3149992408868
 42
0.1117820670402823
 10
16206.57883188403
 20
-803.7764473076894
 42
0.5989391739264164
 10
16200.75995849677
 20
-770.9003762611111
 42
0.7144612958116017
 97
        1
330
73
 92
        2
 72
     1
 73
     1
 93
        4
 10
16171.59716546798
 20
-766.831107608257
 42
0.018587651104709
 10
16189.19369544279
 20
-766.8141645452778
 42
0.8637728306683231
 10
16188.68060575483
 20
-748.5336157274077
 42
0.0363046036528515
 10
16171.59716546798
 20
-748.5336157274077
 42
0.0
 97
        1
330
74
 92
        2
 72
     1
 73
     1
 93
        4
 10
16171.79557618562
 20
-798.5837598693546
 42
0.0570602598095221
 10
16189.93649046905
 20
-798.4086867307851
 42
0.9504624262000833
 10
16189.74619618248
 20
-777.0777030615317
 42
0.0333151677067815
 10
16171.79557618562
 20
-777.0777030615317
 42
0.0
 97
        1
330
75
 75
     0
 76
     1
 98
        0
  0
LWPOLYLINE
  5
73
102
{ACAD_REACTORS
330
72
102
}
330
1F
100
AcDbEntity
  8
0
  6
Continuous
370
    13
100
AcDbPolyline
 90
        8
 70
   129
 43
0.0
 10
16194.43481124262
 20
-738.7196276183824
 42
0.0723831287448308
 10
16158.76290576008
 20
-739.0237761557407
 10
16158.76290576008
 20
-807.6544596358797
 42
0.0475754375093521
 10
16178.0533231649
 20
-809.758238019264
 10
16180.82278323532
 20
-809.758238019264
 42
0.0201526900432898
 10
16189.0458696799
 20
-809.3149992408868
 42
0.1117820670402823
 10
16206.57883188403
 20
-803.7764473076894
 42
0.5989391739264164
 10
16200.75995849677
 20
-770.9003762611111
 42
0.7144612958116017
  0
LWPOLYLINE
  5
74
102
{ACAD_REACTORS
330
72
102
}
330
1F
100
AcDbEntity
  8
0
  6
Continuous
370
    13
100
AcDbPolyline
 90
        4
 70
   129
 43
0.0
 10
16171.59716546798
 20
-766.831107608257
 42
0.018587651104709
 10
16189.19369544279
 20
-766.8141645452778
 42
0.8637728306683231
 10
16188.68060575483
 20
-748.5336157274077
 42
0.0363046036528515
 10
16171.59716546798
 20
-748.5336157274077
  0
LWPOLYLINE
  5
75
102
{ACAD_REACTORS
330
72
102
}
330
1F
100
AcDbEntity
  8
0
  6
Continuous
370
    13
100
AcDbPolyline
 90
        4
 70
   129
 43
0.0
 10
16171.79557618562
 20
-798.5837598693546
 42
0.0570602598095221
 10
16189.93649046905
 20
-798.4086867307851
 42
0.9504624262000833
 10
16189.74619618248
 20
-777.0777030615317
 42
0.0333151677067815
 10
16171.79557618562
 20
-777.0777030615317
  0
HATCH
  5
76
330
1F
100
AcDbEntity
  8
0
  6
Continuous
370
    13
100
AcDbHatch
 10
0.0
 20
0.0
 30
0.0
210
0.0
220
0.0
230
1.0
  2
SOLID
 70
     1
 71
     1
 91
        1
 92
        2
 72
     1
 73
     1
 93
       12
 10
16309.64107539855
 20
-754.4298042578912
 42
0.0
 10
16293.71965592308
 20
-754.4298042578912
 42
0.0
 10
16293.71965592308
 20
-738.9439956224215
 42
0.0
 10
16281.44039122958
 20
-741.4414731872021
 42
0.0
 10
16281.44039122958
 20
-792.4939842993382
 42
0.3686923280690939
 10
16298.70454207104
 20
-809.6986374384431
 42
0.0
 10
16311.1510342167
 20
-809.6556687359644
 42
0.0
 10
16313.80353800651
 20
-798.0509646555347
 42
0.0
 10
16301.0931226358
 20
-798.0509646555347
 42
-0.3159610186060354
 10
16293.71965592308
 20
-790.6774979428117
 42
0.0
 10
16293.71965592308
 20
-765.8959410089998
 42
0.0
 10
16309.64107539855
 20
-765.8959410089998
 42
0.0
 97
        1
330
77
 75
     0
 76
     1
 98
        0
  0
LWPOLYLINE
  5
77
102
{ACAD_REACTORS
330
76
102
}
330
1F
100
AcDbEntity
  8
0
  6
Continuous
370
    13
100
AcDbPolyline
 90
       12
 70
   129
 43
0.0
 10
16309.64107539855
 20
-754.4298042578912
 10
16293.71965592308
 20
-754.4298042578912
 10
16293.71965592308
 20
-738.9439956224215
 10
16281.44039122958
 20
-741.4414731872021
 10
16281.44039122958
 20
-792.4939842993382
 42
0.3686923280690939
 10
16298.70454207104
 20
-809.6986374384431
 10
16311.1510342167
 20
-809.6556687359644
 10
16313.80353800651
 20
-798.0509646555347
 10
16301.0931226358
 20
-798.0509646555347
 42
-0.3159610186060354
 10
16293.71965592308
 20
-790.6774979428117
 10
16293.71965592308
 20
-765.8959410089998
 10
16309.64107539855
 20
-765.8959410089998
  0
HATCH
  5
78
330
1F
100
AcDbEntity
  8
0
  6
Continuous
370
    13
100
AcDbHatch
 10
0.0
 20
0.0
 30
0.0
210
0.0
220
0.0
230
1.0
  2
SOLID
 70
     1
 71
     1
 91
        2
 92
        2
 72
     1
 73
     1
 93
       14
 10
16343.6648443098
 20
-766.2303688815892
 42
-0.387209016979461
 10
16351.40034040938
 20
-774.3467929107647
 42
0.0
 10
16351.46946169974
 20
-777.4169871404968
 42
0.1185067504646354
 10
16333.69535166629
 20
-777.2568655208534
 42
0.2642193030162518
 10
16320.97823963405
 20
-787.3513053938506
 42
0.1757337626801403
 10
16320.96286306955
 20
-798.5286763397539
 42
0.2604621029539542
 10
16333.23931095462
 20
-809.4484401116613
 42
0.0083652857947627
 10
16336.78350147151
 20
-809.758238019264
 42
0.0
 10
16351.7548904676
 20
-809.758238019264
 42
0.028992295246684
 10
16363.97417555457
 20
-808.1802715525821
 42
0.0
 10
16363.34728107008
 20
-773.5146784455285
 42
0.4278697545607686
 10
16345.92947140981
 20
-755.1153232503569
 42
0.0
 10
16328.47603921644
 20
-755.0420540865257
 42
0.0
 10
16325.71422431295
 20
-766.2303688815892
 42
0.0
 97
        1
330
79
 92
        2
 72
     1
 73
     1
 93
        6
 10
16351.57926517656
 20
-785.921770092792
 42
0.1273826308893613
 10
16337.99702747042
 20
-785.5721677554388
 42
0.2091253650713026
 10
16332.62908799443
 20
-790.6677649846959
 42
0.067218802794298
 10
16332.69214644242
 20
-794.5753035919824
 42
0.2977682718343915
 10
16338.21249963346
 20
-800.2503437933217
 42
0.0710664823309622
 10
16351.57926517656
 20
-800.2242132263528
 42
0.0
 97
        1
330
7A
 75
     0
 76
     1
 98
        0
  0
LWPOLYLINE
  5
79
102
{ACAD_REACTORS
330
78
102
}
330
1F
100
AcDbEntity
  8
0
  6
Continuous
370
    13
100
AcDbPolyline
 90
       14
 70
   129
 43
0.0
 10
16343.6648443098
 20
-766.2303688815892
 42
-0.387209016979461
 10
16351.40034040938
 20
-774.3467929107647
 10
16351.46946169974
 20
-777.4169871404968
 42
0.1185067504646354
 10
16333.69535166629
 20
-777.2568655208534
 42
0.2642193030162518
 10
16320.97823963405
 20
-787.3513053938506
 42
0.1757337626801403
 10
16320.96286306955
 20
-798.5286763397539
 42
0.2604621029539542
 10
16333.23931095462
 20
-809.4484401116613
 42
0.0083652857947627
 10
16336.78350147151
 20
-809.758238019264
 10
16351.7548904676
 20
-809.758238019264
 42
0.028992295246684
 10
16363.97417555457
 20
-808.1802715525821
 10
16363.34728107008
 20
-773.5146784455285
 42
0.4278697545607686
 10
16345.92947140981
 20
-755.1153232503569
 10
16328.47603921644
 20
-755.0420540865257
 10
16325.71422431295
 20
-766.2303688815892
  0
LWPOLYLINE
  5
7A
102
{ACAD_REACTORS
330
78
102
}
330
1F
100
AcDbEntity
  8
0
  6
Continuous
370
    13
100
AcDbPolyline
 90
        6
 70
   129
 43
0.0
 10
16351.57926517656
 20
-785.921770092792
 42
0.1273826308893613
 10
16337.99702747042
 20
-785.5721677554388
 42
0.2091253650713026
 10
16332.62908799443
 20
-790.6677649846959
 42
0.067218802794298
 10
16332.69214644242
 20
-794.5753035919824
 42
0.2977682718343915
 10
16338.21249963346
 20
-800.2503437933217
 42
0.0710664823309622
 10
16351.57926517656
 20
-800.2242132263528
  0
HATCH
  5
7B
330
1F
100
AcDbEntity
  8
0
  6
Continuous
370
    13
100
AcDbHatch
 10
0.0
 20
0.0
 30
0.0
210
0.0
220
0.0
230
1.0
  2
SOLID
 70
     1
 71
     1
 91
        1
 92
        2
 72
     1
 73
     1
 93
       26
 10
16384.84540148284
 20
-754.8635683006111
 42
0.0863077155126181
 10
16373.26104358654
 20
-757.7020524284463
 42
0.0
 10
16373.26104358654
 20
-809.758238019264
 42
0.0
 10
16386.25874538603
 20
-809.758238019264
 42
0.0
 10
16386.25874538603
 20
-766.1717727066068
 42
-0.12168371550613
 10
16395.92152479482
 20
-765.2193420081773
 42
-0.3861329478031837
 10
16403.80616416035
 20
-774.4020167282961
 42
0.0
 10
16403.80616416035
 20
-809.758238019264
 42
0.0
 10
16416.29355198425
 20
-809.758238019264
 42
0.0
 10
16416.11164650654
 20
-775.556104126976
 42
0.0
 10
16416.29355198425
 20
-775.552352809721
 42
0.0799288732000265
 10
16415.0399955368
 20
-768.4476937459397
 42
0.0
 10
16416.30468914466
 20
-767.6655797976142
 42
-0.1916235362829357
 10
16427.48103562908
 20
-765.4901929608211
 42
-0.3589776600930252
 10
16434.26038004352
 20
-773.5980959550417
 42
0.0
 10
16434.26662311678
 20
-809.758238019264
 42
0.0
 10
16446.17495890225
 20
-809.758238019264
 42
0.0
 10
16446.16966637079
 20
-771.0902100035663
 42
0.3475935087177212
 10
16431.67712925141
 20
-754.4298042578912
 42
0.0
 10
16421.87289718032
 20
-754.4298042578912
 42
0.0002381544695914
 10
16421.80544286206
 20
-754.4345513896633
 42
0.1173548723086789
 10
16415.80468935595
 20
-756.1692455838045
 42
0.1053500657717058
 10
16409.5938250609
 20
-760.0719705476979
 42
0.1560368886834541
 10
16400.39223675285
 20
-754.7517480574555
 42
0.0158994515272265
 10
16395.96517741668
 20
-754.4298042578912
 42
0.0
 10
16390.27042802202
 20
-754.4298042578912
 42
0.0194967579096993
 97
        1
330
7C
 75
     0
 76
     1
 98
        0
  0
LWPOLYLINE
  5
7C
102
{ACAD_REACTORS
330
7B
102
}
330
1F
100
AcDbEntity
  8
0
  6
Continuous
370
    13
100
AcDbPolyline
 90
       26
 70
   129
 43
0.0
 10
16384.84540148284
 20
-754.8635683006111
 42
0.0863077155126181
 10
16373.26104358654
 20
-757.7020524284463
 10
16373.26104358654
 20
-809.758238019264
 10
16386.25874538603
 20
-809.758238019264
 10
16386.25874538603
 20
-766.1717727066068
 42
-0.12168371550613
 10
16395.92152479482
 20
-765.2193420081773
 42
-0.3861329478031837
 10
16403.80616416035
 20
-774.4020167282961
 10
16403.80616416035
 20
-809.758238019264
 10
16416.29355198425
 20
-809.758238019264
 10
16416.11164650654
 20
-775.556104126976
 10
16416.29355198425
 20
-775.552352809721
 42
0.0799288732000265
 10
16415.0399955368
 20
-768.4476937459397
 10
16416.30468914466
 20
-767.6655797976142
 42
-0.1916235362829357
 10
16427.48103562908
 20
-765.4901929608211
 42
-0.3589776600930252
 10
16434.26038004352
 20
-773.5980959550417
 10
16434.26662311678
 20
-809.758238019264
 10
16446.17495890225
 20
-809.758238019264
 10
16446.16966637079
 20
-771.0902100035663
 42
0.3475935087177212
 10
16431.67712925141
 20
-754.4298042578912
 10
16421.87289718032
 20
-754.4298042578912
 42
0.0002381544695914
 10
16421.80544286206
 20
-754.4345513896633
 42
0.1173548723086789
 10
16415.80468935595
 20
-756.1692455838045
 42
0.1053500657717058
 10
16409.5938250609
 20
-760.0719705476979
 42
0.1560368886834541
 10
16400.39223675285
 20
-754.7517480574555
 42
0.0158994515272265
 10
16395.96517741668
 20
-754.4298042578912
 10
16390.27042802202
 20
-754.4298042578912
 42
0.0194967579096993
  0
HATCH
  5
7D
330
1F
100
AcDbEntity
  8
0
  6
Continuous
370
    13
100
AcDbHatch
 10
0.0
 20
0.0
 30
0.0
210
0.0
220
0.0
230
1.0
  2
SOLID
 70
     1
 71
     1
 91
        2
 92
        2
 72
     1
 73
     1
 93
       14
 10
16474.87949979902
 20
-755.6749547508844
 42
0.2809658966461606
 10
16456.48401180574
 20
-774.705392592067
 42
0.1091159824470767
 10
16456.4978068379
 20
-791.674199465606
 42
0.2766399819923606
 10
16474.97771132683
 20
-809.0170400893786
 42
0.0392105095801167
 10
16480.04524180686
 20
-809.7360445236468
 42
0.0
 10
16497.66073991822
 20
-809.758238019264
 42
0.0
 10
16499.85936611761
 20
-798.8837548899095
 42
0.0
 10
16481.45732156587
 20
-798.8837548899095
 42
-0.1667294674755062
 10
16473.47947516134
 20
-796.1474036762339
 42
-0.081638462027361
 10
16469.38175391111
 20
-790.8776585803341
 42
-0.0661503038161424
 10
16468.82845488151
 20
-787.3388501518164
 42
0.0
 10
16504.00126391882
 20
-787.3388501518164
 42
0.0
 10
16504.00126391882
 20
-776.1002011103091
 42
0.3105787245802772
 10
16487.21741389002
 20
-755.6474790056355
 42
0.1083142208160692
 97
        1
330
7E
 92
        2
 72
     1
 73
     1
 93
        5
 10
16483.88297664258
 20
-765.0413158177798
 42
0.1431069476368757
 10
16477.93823330451
 20
-764.830360453035
 42
0.3279495498710064
 10
16468.83309908181
 20
-777.2401761488552
 42
0.0
 10
16492.2059940758
 20
-777.2401761488552
 42
0.0
 10
16492.2059940758
 20
-776.2846018595411
 42
0.3298596086471468
 97
        1
330
7F
 75
     0
 76
     1
 98
        0
  0
LWPOLYLINE
  5
7E
102
{ACAD_REACTORS
330
7D
102
}
330
1F
100
AcDbEntity
  8
0
  6
Continuous
370
    13
100
AcDbPolyline
 90
       14
 70
   129
 43
0.0
 10
16474.87949979902
 20
-755.6749547508844
 42
0.2809658966461606
 10
16456.48401180574
 20
-774.705392592067
 42
0.1091159824470767
 10
16456.4978068379
 20
-791.674199465606
 42
0.2766399819923606
 10
16474.97771132683
 20
-809.0170400893786
 42
0.0392105095801167
 10
16480.04524180686
 20
-809.7360445236468
 10
16497.66073991822
 20
-809.758238019264
 10
16499.85936611761
 20
-798.8837548899095
 10
16481.45732156587
 20
-798.8837548899095
 42
-0.1667294674755062
 10
16473.47947516134
 20
-796.1474036762339
 42
-0.081638462027361
 10
16469.38175391111
 20
-790.8776585803341
 42
-0.0661503038161424
 10
16468.82845488151
 20
-787.3388501518164
 10
16504.00126391882
 20
-787.3388501518164
 10
16504.00126391882
 20
-776.1002011103091
 42
0.3105787245802772
 10
16487.21741389002
 20
-755.6474790056355
 42
0.1083142208160692
  0
LWPOLYLINE
  5
7F
102
{ACAD_REACTORS
330
7D
102
}
330
1F
100
AcDbEntity
  8
0
  6
Continuous
370
    13
100
AcDbPolyline
 90
        5
 70
   129
 43
0.0
 10
16483.88297664258
 20
-765.0413158177798
 42
0.1431069476368757
 10
16477.93823330451
 20
-764.830360453035
 42
0.3279495498710064
 10
16468.83309908181
 20
-777.2401761488552
 10
16492.2059940758
 20
-777.2401761488552
 10
16492.2059940758
 20
-776.2846018595411
 42
0.3298596086471468
  0
HATCH
  5
80
330
1F
100
AcDbEntity
  8
0
  6
Continuous
370
    13
100
AcDbHatch
 10
0.0
 20
0.0
 30
0.0
210
0.0
220
0.0
230
1.0
  2
SOLID
 70
     1
 71
     1
 91
        1
 92
        2
 72
     1
 73
     1
 93
       13
 10
16541.49057121114
 20
-754.786521310465
 42
0.0175531184166386
 10
16535.87424775072
 20
-754.4298042578912
 42
0.0
 10
16531.3326284651
 20
-754.4298042578912
 42
0.0177750747803509
 10
16525.64549294085
 20
-754.7935529487944
 42
0.0683229953867364
 10
16513.00460715544
 20
-757.2871396804508
 42
0.0
 10
16513.00460715544
 20
-809.758238019264
 42
0.0
 10
16525.50157774025
 20
-809.758238019264
 42
0.0
 10
16525.50157774025
 20
-766.127298814326
 42
-0.0958663550348273
 10
16537.6832399874
 20
-765.571788003714
 42
-0.3633763851128492
 10
16545.03875259659
 20
-774.3564440143593
 42
0.0
 10
16545.03875259659
 20
-809.758238019264
 42
0.0
 10
16557.20889312163
 20
-809.758238019264
 42
0.0
 10
16557.20889312163
 20
-772.4632614161465
 42
0.3803017440747632
 97
        1
330
81
 75
     0
 76
     1
 98
        0
  0
LWPOLYLINE
  5
81
102
{ACAD_REACTORS
330
80
102
}
330
1F
100
AcDbEntity
  8
0
  6
Continuous
370
    13
100
AcDbPolyline
 90
       13
 70
   129
 43
0.0
 10
16541.49057121114
 20
-754.786521310465
 42
0.0175531184166386
 10
16535.87424775072
 20
-754.4298042578912
 10
16531.3326284651
 20
-754.4298042578912
 42
0.0177750747803509
 10
16525.64549294085
 20
-754.7935529487944
 42
0.0683229953867364
 10
16513.00460715544
 20
-757.2871396804508
 10
16513.00460715544
 20
-809.758238019264
 10
16525.50157774025
 20
-809.758238019264
 10
16525.50157774025
 20
-766.127298814326
 42
-0.0958663550348273
 10
16537.6832399874
 20
-765.571788003714
 42
-0.3633763851128492
 10
16545.03875259659
 20
-774.3564440143593
 10
16545.03875259659
 20
-809.758238019264
 10
16557.20889312163
 20
-809.758238019264
 10
16557.20889312163
 20
-772.4632614161465
 42
0.3803017440747632
  0
HATCH
  5
82
330
1F
100
AcDbEntity
  8
0
  6
Continuous
370
    13
100
AcDbHatch
 10
0.0
 20
0.0
 30
0.0
210
0.0
220
0.0
230
1.0
  2
SOLID
 70
     1
 71
     1
 91
        1
 92
        2
 72
     1
 73
     1
 93
       12
 10
16566.69090226098
 20
-792.4939842993382
 42
0.3564817226562251
 10
16583.95505310244
 20
-809.6986374384431
 42
0.0
 10
16596.4015452481
 20
-809.6556687359644
 42
0.0
 10
16599.05404903791
 20
-798.0509646555347
 42
0.0
 10
16586.34363366719
 20
-798.0509646555347
 42
-0.3014632934563285
 10
16578.97016695447
 20
-790.6774979428117
 42
0.0
 10
16578.97016695447
 20
-765.8959410089998
 42
0.0
 10
16594.89158642994
 20
-765.8959410089998
 42
0.0
 10
16594.89158642994
 20
-754.4298042578912
 42
0.0
 10
16578.97016695447
 20
-754.4298042578912
 42
0.0
 10
16578.97016695447
 20
-738.9439956224215
 42
0.0
 10
16566.69090226098
 20
-741.4414731872021
 42
0.0
 97
        1
330
83
 75
     0
 76
     1
 98
        0
  0
LWPOLYLINE
  5
83
102
{ACAD_REACTORS
330
82
102
}
330
1F
100
AcDbEntity
  8
0
  6
Continuous
370
    13
100
AcDbPolyline
 90
       12
 70
   129
 43
0.0
 10
16566.69090226098
 20
-792.4939842993382
 42
0.3564817226562251
 10
16583.95505310244
 20
-809.6986374384431
 10
16596.4015452481
 20
-809.6556687359644
 10
16599.05404903791
 20
-798.0509646555347
 10
16586.34363366719
 20
-798.0509646555347
 42
-0.3014632934563285
 10
16578.97016695447
 20
-790.6774979428117
 10
16578.97016695447
 20
-765.8959410089998
 10
16594.89158642994
 20
-765.8959410089998
 10
16594.89158642994
 20
-754.4298042578912
 10
16578.97016695447
 20
-754.4298042578912
 10
16578.97016695447
 20
-738.9439956224215
 10
16566.69090226098
 20
-741.4414731872021
  0
HATCH
  5
84
330
1F
100
AcDbEntity
  8
0
  6
Continuous
370
    13
100
AcDbHatch
 10
0.0
 20
0.0
 30
0.0
210
0.0
220
0.0
230
1.0
  2
SOLID
 70
     1
 71
     1
 91
        2
 92
        2
 72
     1
 73
     1
 93
        9
 10
16240.69061430991
 20
-754.904652096507
 42
0.2820479307333718
 10
16221.84645808835
 20
-773.9570617764631
 42
0.0886832537999132
 10
16221.88074373323
 20
-791.2572030108407
 42
0.2508564250541997
 10
16239.31275839134
 20
-809.758238019264
 42
0.0
 10
16254.32747869377
 20
-809.758238019264
 42
0.2670900430231695
 10
16271.97262764076
 20
-789.5762375782069
 42
0.1207336614180937
 10
16272.01667536247
 20
-774.8875792429633
 42
0.3094451166888095
 10
16253.33206980584
 20
-754.9391870246686
 42
0.0268897328129527
 10
16249.98695777349
 20
-754.4298042578912
 42
0.074328415179198
 97
        1
330
85
 92
        2
 72
     1
 73
     1
 93
        8
 10
16234.25383395662
 20
-776.5684366177126
 42
0.0948073731652809
 10
16234.15777726157
 20
-787.7871958230702
 42
0.0590800675341869
 10
16235.24927072552
 20
-791.5186667880316
 42
0.6394418664691048
 10
16258.17033591595
 20
-792.214940971985
 42
0.0835238969854629
 10
16259.60509372035
 20
-787.5214355916504
 42
0.0916297819744675
 10
16259.37755536634
 20
-776.0019263579909
 42
0.2559732989582162
 10
16250.96551277449
 20
-765.5725100793542
 42
0.1954327814670101
 10
16242.41268182413
 20
-765.9210435048631
 42
0.2505066079508973
 97
        1
330
86
 75
     0
 76
     1
 98
        0
  0
LWPOLYLINE
  5
85
102
{ACAD_REACTORS
330
84
102
}
330
1F
100
AcDbEntity
  8
0
  6
Continuous
370
    13
100
AcDbPolyline
 90
        9
 70
   129
 43
0.0
 10
16240.69061430991
 20
-754.904652096507
 42
0.2820479307333718
 10
16221.84645808835
 20
-773.9570617764631
 42
0.0886832537999132
 10
16221.88074373323
 20
-791.2572030108407
 42
0.2508564250541997
 10
16239.31275839134
 20
-809.758238019264
 10
16254.32747869377
 20
-809.758238019264
 42
0.2670900430231695
 10
16271.97262764076
 20
-789.5762375782069
 42
0.1207336614180937
 10
16272.01667536247
 20
-774.8875792429633
 42
0.3094451166888095
 10
16253.33206980584
 20
-754.9391870246686
 42
0.0268897328129527
 10
16249.98695777349
 20
-754.4298042578912
 42
0.074328415179198
  0
LWPOLYLINE
  5
86
102
{ACAD_REACTORS
330
84
102
}
330
1F
100
AcDbEntity
  8
0
  6
Continuous
370
    13
100
AcDbPolyline
 90
        8
 70
   129
 43
0.0
 10
16234.25383395662
 20
-776.5684366177126
 42
0.0948073731652809
 10
16234.15777726157
 20
-787.7871958230702
 42
0.0590800675341869
 10
16235.24927072552
 20
-791.5186667880316
 42
0.6394418664691048
 10
16258.17033591595
 20
-792.214940971985
 42
0.0835238969854629
 10
16259.60509372035
 20
-787.5214355916504
 42
0.0916297819744675
 10
16259.37755536634
 20
-776.0019263579909
 42
0.2559732989582162
 10
16250.96551277449
 20
-765.5725100793542
 42
0.1954327814670101
 10
16242.41268182413
 20
-765.9210435048631
 42
0.2505066079508973
  0
HATCH
  5
87
330
1F
100
AcDbEntity
  8
0
  6
Continuous
370
    13
100
AcDbHatch
 10
0.0
 20
0.0
 30
0.0
210
0.0
220
0.0
230
1.0
  2
SOLID
 70
     1
 71
     0
 91
        1
 92
        2
 72
     1
 73
     1
 93
        3
 10
17614.87786840484
 20
-72.85929374357022
 42
0.0
 10
17633.06163560327
 20
-72.85929374357022
 42
0.0
 10
17633.06163560327
 20
-88.71930783018972
 42
-0.4523050066656561
 97
        0
 75
     0
 76
     1
 98
        0
  0
HATCH
  5
88
330
1F
100
AcDbEntity
  8
0
  6
Continuous
370
    13
100
AcDbHatch
 10
0.0
 20
0.0
 30
0.0
210
0.0
220
0.0
230
1.0
  2
SOLID
 70
     1
 71
     0
 91
        1
 92
        2
 72
     1
 73
     1
 93
        3
 10
16661.33865832185
 20
467.1621188060794
 42
0.0
 10
16679.52242552028
 20
467.1621188060794
 42
0.0
 10
16679.52242552028
 20
451.3021047194599
 42
-0.4523050066656561
 97
        0
 75
     0
 76
     1
 98
        0
  0
INSERT
  5
D9
330
1F
100
AcDbEntity
  8
0
  6
Continuous
370
    13
100
AcDbBlockReference
  2
InsulFib 65
 10
17091.60292942451
 20
171.1829378556949
 30
0.0
 50
90.0
  0
INSERT
  5
F2
330
1F
100
AcDbEntity
  8
0
  6
Continuous
370
    13
100
AcDbBlockReference
  2
InsulFib 65_2
 10
17081.60292962385
 20
121.1829388523521
 30
0.0
  0
INSERT
  5
10F
330
1F
100
AcDbEntity
  8
0
  6
Continuous
370
    13
100
AcDbBlockReference
  2
InsulFib 65_3
 10
16841.60292563722
 20
-588.8170621443053
 30
0.0
 50
90.0
  0
INSERT
  5
128
330
1F
100
AcDbEntity
  8
0
  6
Continuous
370
    13
100
AcDbBlockReference
  2
InsulFib 65_4
 10
16841.60292563722
 20
477.1368719215362
 30
0.0
 50
90.0
  0
INSERT
  5
145
330
1F
100
AcDbEntity
  8
0
  6
Continuous
370
    13
100
AcDbBlockReference
  2
InsulFib 65_5
 10
16828.31559297315
 20
133.2185141378733
 30
0.0
 50
90.0
  0
INSERT
  5
146
330
1F
100
AcDbEntity
  8
0
  6
Continuous
370
    13
100
AcDbBlockReference
  2
InsulFib 65
 10
17749.49732048921
 20
-154.0302269720829
 30
0.0
 50
90.0
  0
INSERT
  5
16F
330
1F
100
AcDbEntity
  8
0
  6
Continuous
370
    13
100
AcDbBlockReference
  2
InsulFib 65_6
 10
17739.04378983891
 20
-204.0302259754244
 30
0.0
  0
INSERT
  5
17C
330
1F
100
AcDbEntity
  8
0
  6
Continuous
370
    13
100
AcDbBlockReference
  2
InsulFib 65_7
 10
17649.04378585227
 20
-544.0302269720827
 30
0.0
 50
90.0
  0
INSERT
  5
18D
330
1F
100
AcDbEntity
  8
0
  6
Continuous
370
    13
100
AcDbBlockReference
  2
InsulFib 65_8
 10
17799.04332767218
 20
-154.0302269720815
 30
0.0
 50
90.0
  0
LINE
  5
18E
330
1F
100
AcDbEntity
  8
0
  6
Continuous
370
    13
100
AcDbLine
 10
17929.0437898389
 20
-716.8912298007626
 30
0.0
 11
17629.04378983891
 21
-716.8912298007626
 31
0.0
  0
LINE
  5
18F
330
1F
100
AcDbEntity
  8
0
  6
Continuous
370
    13
100
AcDbLine
 10
17799.04378983891
 20
-716.8912298007626
 30
0.0
 11
17799.04378983891
 21
-666.8912298007627
 31
0.0
  0
LINE
  5
190
330
1F
100
AcDbEntity
  8
0
  6
Continuous
370
    13
100
AcDbLine
 10
17939.0437898389
 20
-666.8912298007637
 30
0.0
 11
17939.0437898389
 21
-886.8912298007625
 31
0.0
  0
LINE
  5
191
330
1F
100
AcDbEntity
  8
0
  6
Continuous
370
    13
100
AcDbLine
 10
16139.0437898389
 20
-666.8912298007637
 30
0.0
 11
17939.0437898389
 21
-666.8912298007637
 31
0.0
  0
LINE
  5
192
330
1F
100
AcDbEntity
  8
0
  6
Continuous
370
    13
100
AcDbLine
 10
16139.0437898389
 20
-666.8912298007637
 30
0.0
 11
16139.0437898389
 21
-886.8912298007643
 31
0.0
  0
LINE
  5
193
330
1F
100
AcDbEntity
  8
0
  6
Continuous
370
    13
100
AcDbLine
 10
16139.0437898389
 20
-886.8912298007643
 30
0.0
 11
17939.0437898389
 21
-886.8912298007643
 31
0.0
  0
LINE
  5
194
330
1F
100
AcDbEntity
  8
0
  6
Continuous
370
    13
100
AcDbLine
 10
16679.0437898389
 20
-826.8912298007638
 30
0.0
 11
17929.0437898389
 21
-826.8912298007638
 31
0.0
  0
LINE
  5
196
330
1F
100
AcDbEntity
  8
0
  6
Przerywana
370
    13
100
AcDbLine
 10
16001.60292962384
 20
-61.34541402667782
 30
0.0
 11
16001.60292962384
 21
257.7010175907429
 31
0.0
  0
LINE
  5
197
330
1F
100
AcDbEntity
  8
0
  6
Przerywana
370
    13
100
AcDbLine
 10
15981.60292962384
 20
-61.34541402667784
 30
0.0
 11
15981.60292962384
 21
256.2643893880712
 31
0.0
  0
LINE
  5
198
330
1F
100
AcDbEntity
  8
0
  6
Continuous
 62
     2
370
    25
100
AcDbLine
 10
17081.60292962385
 20
251.1829378556949
 30
0.0
 11
17081.60292962385
 21
121.1829378556948
 31
0.0
  0
LINE
  5
199
330
1F
100
AcDbEntity
  8
0
  6
Continuous
 62
     2
370
    25
100
AcDbLine
 10
16001.728187658
 20
103.12759262577
 30
0.0
 11
16480.68084188873
 21
114.5301240485861
 31
0.0
  0
LINE
  5
19A
330
1F
100
AcDbEntity
  8
0
  6
Continuous
 62
     3
370
    50
100
AcDbLine
 10
17081.60292962385
 20
-118.8170621443052
 30
0.0
 11
17081.60292962385
 21
-588.8170621443054
 31
0.0
  0
LINE
  5
19B
330
1F
100
AcDbEntity
  8
0
  6
Continuous
 62
     3
370
    50
100
AcDbLine
 10
16701.60292962384
 20
121.1829378556948
 30
0.0
 11
16701.60292962384
 21
-38.81706214430444
 31
0.0
  0
LINE
  5
19C
330
1F
100
AcDbEntity
  8
0
  6
Continuous
370
    13
100
AcDbLine
 10
16679.52242552028
 20
471.1829378556953
 30
0.0
 11
16679.52242552028
 21
154.0903753651789
 31
0.0
  0
LINE
  5
19F
330
1F
100
AcDbEntity
  8
Linia Izolacji - ARCHICAD
  6
IZOLACJA GRUBA
370
    13
100
AcDbLine
 10
16656.26193007905
 20
132.7835088664436
 30
0.0
 11
16691.35552624632
 21
153.508954408565
 31
0.0
  0
LINE
  5
1A1
330
1F
100
AcDbEntity
  8
0
  6
Continuous
 62
     3
370
    50
100
AcDbLine
 10
16641.60292962385
 20
-38.81706214430444
 30
0.0
 11
16641.60292962385
 21
-588.8170621443053
 31
0.0
  0
LINE
  5
1A2
330
1F
100
AcDbEntity
  8
0
  6
Przerywana
370
    13
100
AcDbLine
 10
16601.60292962385
 20
882.8565818067412
 30
0.0
 11
17121.60292962385
 21
882.8565818067412
 31
0.0
  0
LINE
  5
1A3
330
1F
100
AcDbEntity
  8
0
  6
Przerywana
370
    13
100
AcDbLine
 10
16601.60292962385
 20
-588.8170621443053
 30
0.0
 11
17121.60292962385
 21
-588.8170621443054
 31
0.0
  0
LINE
  5
1A4
330
1F
100
AcDbEntity
  8
0
  6
Continuous
 62
     3
370
    50
100
AcDbLine
 10
16701.60292962384
 20
-38.81706214430444
 30
0.0
 11
16001.60292962384
 21
-38.81706214430444
 31
0.0
  0
LINE
  5
1A5
330
1F
100
AcDbEntity
  8
0
  6
Continuous
 62
     3
370
    50
100
AcDbLine
 10
16641.60292962385
 20
477.1368719215362
 30
0.0
 11
16641.60292962385
 21
882.8565818067412
 31
0.0
  0
LINE
  5
1A6
330
1F
100
AcDbEntity
  8
0
  6
Continuous
 62
     2
370
    25
100
AcDbLine
 10
17091.60292962384
 20
251.1829378556941
 30
0.0
 11
17091.60292962384
 21
171.1829378556949
 31
0.0
  0
LINE
  5
1A7
330
1F
100
AcDbEntity
  8
0
  6
Continuous
 62
     3
370
    50
100
AcDbLine
 10
16654.43705013727
 20
142.8934313773152
 30
0.0
 11
16677.35052193339
 21
156.1225304868703
 31
0.0
  0
LINE
  5
1A8
330
1F
100
AcDbEntity
  8
0
  6
Continuous
 62
     3
370
    50
100
AcDbLine
 10
16676.96296889906
 20
158.6209887144794
 30
0.0
 11
16676.96296889906
 21
299.0638047754428
 31
0.0
  0
LINE
  5
1A9
330
1F
100
AcDbEntity
  8
0
  6
Continuous
370
    13
100
AcDbLine
 10
16060.53303035575
 20
216.8065120610058
 30
0.0
 11
16125.77792181181
 21
246.6759017654549
 31
0.0
  0
LINE
  5
1AA
330
1F
100
AcDbEntity
  8
0
  6
Continuous
370
    13
100
AcDbLine
 10
16060.53303035575
 20
216.8065120610058
 30
0.0
 11
16297.19915996633
 21
221.9000061019763
 31
0.0
  0
LINE
  5
1AB
330
1F
100
AcDbEntity
  8
0
  6
Continuous
 62
     5
370
    90
100
AcDbLine
 10
16131.60292962384
 20
91.18293785569549
 30
0.0
 11
17181.60292962384
 21
91.18293785569546
 31
0.0
  0
LINE
  5
1AC
330
1F
100
AcDbEntity
  8
0
  6
Continuous
 62
     5
370
    90
100
AcDbLine
 10
16872.34030982771
 20
91.18293785569549
 30
0.0
 11
16681.60292962384
 21
-8.817062144303959
 31
0.0
  0
LINE
  5
1AD
330
1F
100
AcDbEntity
  8
0
  6
Continuous
 62
     5
370
    90
100
AcDbLine
 10
16681.60292962384
 20
-8.817062144303959
 30
0.0
 11
16681.60292962384
 21
91.18293785569549
 31
0.0
  0
LINE
  5
1AE
330
1F
100
AcDbEntity
  8
0
  6
Continuous
370
    13
100
AcDbLine
 10
16551.60292962384
 20
786.1160902873978
 30
0.0
 11
16667.62704565517
 21
786.1160902873978
 31
0.0
  0
CIRCLE
  5
1AF
330
1F
100
AcDbEntity
  8
0
  6
Continuous
370
    13
100
AcDbCircle
 10
16672.62704565517
 20
786.1160902873978
 30
0.0
 40
5.0
  0
HATCH
  5
1B0
330
1F
100
AcDbEntity
  8
0
  6
Continuous
370
    13
100
AcDbHatch
 10
0.0
 20
0.0
 30
0.0
210
0.0
220
0.0
230
1.0
  2
SOLID
 70
     1
 71
     0
 91
        1
 92
        2
 72
     0
 73
     1
 93
       16
 10
16677.62704565517
 20
786.1160902873978
 10
16677.24644331772
 20
788.0295074492233
 10
16676.1625795611
 20
789.6516241933306
 10
16674.540462817
 20
790.7354879499543
 10
16672.62704565517
 20
791.1160902873978
 10
16670.71362849334
 20
790.7354879499543
 10
16669.09151174924
 20
789.6516241933306
 10
16668.00764799261
 20
788.0295074492233
 10
16667.62704565517
 20
786.1160902873978
 10
16668.00764799261
 20
784.2026731255723
 10
16669.09151174924
 20
782.580556381465
 10
16670.71362849334
 20
781.4966926248413
 10
16672.62704565517
 20
781.1160902873978
 10
16674.540462817
 20
781.4966926248413
 10
16676.1625795611
 20
782.580556381465
 10
16677.24644331772
 20
784.2026731255723
 97
        0
 75
     0
 76
     1
 98
        0
  0
LINE
  5
1B1
330
1F
100
AcDbEntity
  8
0
  6
Continuous
370
    13
100
AcDbLine
 10
16752.90177033783
 20
9.191691713021218
 30
0.0
 11
17127.86923350854
 21
-185.1601156535827
 31
0.0
  0
CIRCLE
  5
1B2
330
1F
100
AcDbEntity
  8
0
  6
Continuous
370
    13
100
AcDbCircle
 10
16748.4626311893
 20
11.49257059294197
 30
0.0
 40
5.0
  0
HATCH
  5
1B3
330
1F
100
AcDbEntity
  8
0
  6
Continuous
370
    13
100
AcDbHatch
 10
0.0
 20
0.0
 30
0.0
210
0.0
220
0.0
230
1.0
  2
SOLID
 70
     1
 71
     0
 91
        1
 92
        2
 72
     0
 73
     1
 93
       16
 10
16753.4626311893
 20
11.49257059294197
 10
16753.08202885186
 20
13.40598775476742
 10
16751.99816509524
 20
15.0281044988747
 10
16750.37604835113
 20
16.1119682554984
 10
16748.4626311893
 20
16.49257059294197
 10
16746.54921402748
 20
16.1119682554984
 10
16744.92709728337
 20
15.02810449887471
 10
16743.84323352675
 20
13.40598775476742
 10
16743.46263118931
 20
11.49257059294197
 10
16743.84323352675
 20
9.57915343111652
 10
16744.92709728337
 20
7.95703668700923
 10
16746.54921402748
 20
6.873172930385534
 10
16748.4626311893
 20
6.492570592941967
 10
16750.37604835113
 20
6.873172930385533
 10
16751.99816509524
 20
7.957036687009231
 10
16753.08202885186
 20
9.579153431116522
 97
        0
 75
     0
 76
     1
 98
        0
  0
LINE
  5
1B4
330
1F
100
AcDbEntity
  8
0
  6
Continuous
 62
     2
370
    25
100
AcDbLine
 10
17181.60292962384
 20
121.1829378556948
 30
0.0
 11
16841.60292962384
 21
121.1829378556948
 31
0.0
  0
LINE
  5
1B5
330
1F
100
AcDbEntity
  8
0
  6
Continuous
 62
     3
370
    50
100
AcDbLine
 10
17181.60292962384
 20
-118.8170621443049
 30
0.0
 11
17081.60292962385
 21
-118.8170621443052
 31
0.0
  0
LINE
  5
1B6
330
1F
100
AcDbEntity
  8
0
  6
Continuous
 62
     3
370
    50
100
AcDbLine
 10
17181.60292962384
 20
251.1829378556945
 30
0.0
 11
17081.60292962385
 21
251.1829378556941
 31
0.0
  0
LINE
  5
1B7
330
1F
100
AcDbEntity
  8
0
  6
Continuous
 62
     2
370
    25
100
AcDbLine
 10
17181.60292962384
 20
171.1829378556941
 30
0.0
 11
17081.60292962385
 21
171.1829378556941
 31
0.0
  0
LINE
  5
1B8
330
1F
100
AcDbEntity
  8
0
  6
Przerywana
370
    13
100
AcDbLine
 10
17181.60292962384
 20
281.1829378556948
 30
0.0
 11
17181.60292962384
 21
-148.8170621443052
 31
0.0
  0
LINE
  5
1B9
330
1F
100
AcDbEntity
  8
0
  6
Continuous
 62
     2
370
    25
100
AcDbLine
 10
17181.60292962384
 20
231.1829378556945
 30
0.0
 11
17091.60292962384
 21
231.1829378556945
 31
0.0
  0
LINE
  5
1BA
330
1F
100
AcDbEntity
  8
0
  6
Continuous
 62
     2
370
    25
100
AcDbLine
 10
15599.63242453391
 20
-72.59376053024936
 30
0.0
 11
15599.63242453391
 21
664.768954324703
 31
0.0
  0
LINE
  5
1BB
330
1F
100
AcDbEntity
  8
0
  6
Continuous
 62
     2
370
    25
100
AcDbLine
 10
15599.63242453391
 20
664.768954324703
 30
0.0
 11
16467.97595349
 21
664.768954324703
 31
0.0
  0
LINE
  5
1BC
330
1F
100
AcDbEntity
  8
0
  6
Przerywana
370
    13
100
AcDbLine
 10
15356.60292962384
 20
36.18293785568805
 30
0.0
 11
15356.60292962384
 21
256.1829378556869
 31
0.0
  0
LINE
  5
1BD
330
1F
100
AcDbEntity
  8
0
  6
Continuous
370
    13
100
AcDbLine
 10
15361.60292962383
 20
36.18293785568805
 30
0.0
 11
15356.60292962384
 21
36.18293785568805
 31
0.0
  0
LINE
  5
1BE
330
1F
100
AcDbEntity
  8
0
  6
Continuous
 62
     2
370
    25
100
AcDbLine
 10
15361.60292962383
 20
-8.817062144313653
 30
0.0
 11
15311.60292962385
 21
-8.817062144313653
 31
0.0
  0
LINE
  5
1BF
330
1F
100
AcDbEntity
  8
0
  6
Przerywana
370
    13
100
AcDbLine
 10
15316.60292962384
 20
-3.817062144311094
 30
0.0
 11
15361.60292962383
 21
-3.817062144311094
 31
0.0
  0
LINE
  5
1C0
330
1F
100
AcDbEntity
  8
0
  6
Continuous
 62
     2
370
    25
100
AcDbLine
 10
15418.60292962384
 20
36.18293785568805
 30
0.0
 11
15361.60292962383
 21
36.18293785568805
 31
0.0
  0
LINE
  5
1C1
330
1F
100
AcDbEntity
  8
0
  6
Continuous
 62
     2
370
    25
100
AcDbLine
 10
15418.60292962384
 20
-3.817062144311094
 30
0.0
 11
15361.60292962383
 21
-3.817062144311094
 31
0.0
  0
LINE
  5
1C2
330
1F
100
AcDbEntity
  8
0
  6
Przerywana
370
    13
100
AcDbLine
 10
15356.60292962384
 20
261.1829378556869
 30
0.0
 11
15316.60292962384
 21
261.1829378556869
 31
0.0
  0
LINE
  5
1C3
330
1F
100
AcDbEntity
  8
0
  6
Przerywana
370
    13
100
AcDbLine
 10
15316.60292962384
 20
-3.817062144311094
 30
0.0
 11
15316.60292962384
 21
256.1829378556869
 31
0.0
  0
LINE
  5
1C4
330
1F
100
AcDbEntity
  8
0
  6
Continuous
 62
     2
370
    25
100
AcDbLine
 10
15311.60292962385
 20
31.18293785567839
 30
0.0
 11
15311.60292962385
 21
61.18293785567953
 31
0.0
  0
LINE
  5
1C5
330
1F
100
AcDbEntity
  8
0
  6
Przerywana
370
    13
100
AcDbLine
 10
15414.06960476073
 20
11.18293785569658
 30
0.0
 11
15487.06960476072
 21
11.18293785569658
 31
0.0
  0
LINE
  5
1C6
330
1F
100
AcDbEntity
  8
0
  6
Przerywana
370
    13
100
AcDbLine
 10
15414.06960476073
 20
21.18293785569459
 30
0.0
 11
15487.06960476072
 21
21.18293785569459
 31
0.0
  0
LINE
  5
1C7
330
1F
100
AcDbEntity
  8
0
  6
Przerywana
370
    13
100
AcDbLine
 10
15487.06960476072
 20
11.18293785569658
 30
0.0
 11
15487.06960476072
 21
21.18293785569459
 31
0.0
  0
LINE
  5
1C8
330
1F
100
AcDbEntity
  8
0
  6
Continuous
 62
     2
370
    25
100
AcDbLine
 10
15431.60292962384
 20
-38.81706214430447
 30
0.0
 11
15418.60292962384
 21
-38.81706214430447
 31
0.0
  0
LINE
  5
1C9
330
1F
100
AcDbEntity
  8
0
  6
Continuous
 62
     2
370
    25
100
AcDbLine
 10
15431.60292962384
 20
78.68155621586743
 30
0.0
 11
15418.60292962384
 21
78.68155621586743
 31
0.0
  0
LINE
  5
1CA
330
1F
100
AcDbEntity
  8
0
  6
Continuous
 62
     2
370
    25
100
AcDbLine
 10
15431.60292962384
 20
-38.81706214430447
 30
0.0
 11
15431.60292962384
 21
78.68155621586743
 31
0.0
  0
LINE
  5
1CB
330
1F
100
AcDbEntity
  8
0
  6
Continuous
 62
     2
370
    25
100
AcDbLine
 10
15418.60292962384
 20
-38.81706214430447
 30
0.0
 11
15418.60292962384
 21
78.68155621586743
 31
0.0
  0
LINE
  5
1CC
330
1F
100
AcDbEntity
  8
0
  6
Continuous
 62
     2
370
    25
100
AcDbLine
 10
15356.60292962384
 20
231.1829378556827
 30
0.0
 11
15316.60292962385
 21
231.1829378556827
 31
0.0
  0
LINE
  5
1CD
330
1F
100
AcDbEntity
  8
0
  6
Continuous
 62
     2
370
    25
100
AcDbLine
 10
15356.60292962384
 20
231.1829378556827
 30
0.0
 11
15356.60292962384
 21
211.1829378556795
 31
0.0
  0
LINE
  5
1CE
330
1F
100
AcDbEntity
  8
0
  6
Continuous
 62
     2
370
    25
100
AcDbLine
 10
15356.60292962384
 20
211.1829378556795
 30
0.0
 11
15316.60292962385
 21
211.1829378556795
 31
0.0
  0
LINE
  5
1CF
330
1F
100
AcDbEntity
  8
0
  6
Continuous
 62
     2
370
    25
100
AcDbLine
 10
15316.60292962385
 20
231.1829378556827
 30
0.0
 11
15316.60292962385
 21
211.1829378556795
 31
0.0
  0
LINE
  5
1D0
330
1F
100
AcDbEntity
  8
0
  6
Continuous
 62
     2
370
    25
100
AcDbLine
 10
15361.60292962383
 20
-8.817062144313653
 30
0.0
 11
15361.60292962383
 21
882.8565818067417
 31
0.0
  0
LINE
  5
1D1
330
1F
100
AcDbEntity
  8
0
  6
Continuous
 62
     2
370
    25
100
AcDbLine
 10
15311.60292962385
 20
-8.817062144313653
 30
0.0
 11
15311.60292962385
 21
882.8565818067417
 31
0.0
  0
LINE
  5
1D2
330
1F
100
AcDbEntity
  8
0
  6
Continuous
370
    13
100
AcDbLine
 10
15497.01084309823
 20
71.08510452188608
 30
0.0
 11
15497.01084309823
 21
221.827018139075
 31
0.0
  0
CIRCLE
  5
1D3
330
1F
100
AcDbEntity
  8
0
  6
Continuous
370
    13
100
AcDbCircle
 10
15497.01084309823
 20
66.08510452188608
 30
0.0
 40
5.0
  0
HATCH
  5
1D4
330
1F
100
AcDbEntity
  8
0
  6
Continuous
370
    13
100
AcDbHatch
 10
0.0
 20
0.0
 30
0.0
210
0.0
220
0.0
230
1.0
  2
SOLID
 70
     1
 71
     0
 91
        1
 92
        2
 72
     0
 73
     1
 93
       16
 10
15502.01084309823
 20
66.08510452188608
 10
15501.63024076079
 20
67.99852168371153
 10
15500.54637700416
 20
69.62063842781882
 10
15498.92426026006
 20
70.70450218444252
 10
15497.01084309823
 20
71.08510452188608
 10
15495.0974259364
 20
70.70450218444252
 10
15493.4753091923
 20
69.62063842781882
 10
15492.39144543567
 20
67.99852168371154
 10
15492.01084309823
 20
66.08510452188608
 10
15492.39144543567
 20
64.17168736006064
 10
15493.4753091923
 20
62.54957061595334
 10
15495.0974259364
 20
61.46570685932965
 10
15497.01084309823
 20
61.08510452188609
 10
15498.92426026006
 20
61.46570685932965
 10
15500.54637700416
 20
62.54957061595334
 10
15501.63024076079
 20
64.17168736006064
 97
        0
 75
     0
 76
     1
 98
        0
  0
LINE
  5
1D5
330
1F
100
AcDbEntity
  8
0
  6
Continuous
370
    13
100
AcDbLine
 10
15411.06960476073
 20
4.182937855691578
 30
0.0
 11
15414.06960476073
 21
4.182937855691578
 31
0.0
  0
LINE
  5
1D6
330
1F
100
AcDbEntity
  8
0
  6
Przerywana
370
    13
100
AcDbLine
 10
15373.83288572825
 20
882.8565818067417
 30
0.0
 11
15298.17600465122
 21
882.8565818067417
 31
0.0
  0
LINE
  5
1D7
330
1F
100
AcDbEntity
  8
0
  6
Continuous
370
    13
100
AcDbLine
 10
15411.06960476073
 20
4.182937855691578
 30
0.0
 11
15411.06960476073
 21
28.18293785569249
 31
0.0
  0
LINE
  5
1D8
330
1F
100
AcDbEntity
  8
0
  6
Continuous
370
    13
100
AcDbLine
 10
15411.06960476073
 20
28.18293785569249
 30
0.0
 11
15414.06960476073
 21
28.18293785569249
 31
0.0
  0
LINE
  5
1D9
330
1F
100
AcDbEntity
  8
0
  6
Continuous
370
    13
100
AcDbLine
 10
15411.06960476073
 20
6.182937855694022
 30
0.0
 11
15403.06960476075
 21
6.182937855694022
 31
0.0
  0
LINE
  5
1DA
330
1F
100
AcDbEntity
  8
0
  6
Continuous
370
    13
100
AcDbLine
 10
15411.06960476073
 20
12.18293785569425
 30
0.0
 11
15403.06960476075
 21
12.18293785569425
 31
0.0
  0
LINE
  5
1DB
330
1F
100
AcDbEntity
  8
0
  6
Continuous
370
    13
100
AcDbLine
 10
15411.06960476073
 20
26.18293785569715
 30
0.0
 11
15403.06960476075
 21
26.18293785569715
 31
0.0
  0
LINE
  5
1DC
330
1F
100
AcDbEntity
  8
0
  6
Continuous
370
    13
100
AcDbLine
 10
15403.06960476075
 20
6.182937855694022
 30
0.0
 11
15403.06960476075
 21
26.18293785569715
 31
0.0
  0
LINE
  5
1DD
330
1F
100
AcDbEntity
  8
0
  6
Continuous
370
    13
100
AcDbLine
 10
15411.06960476073
 20
20.18293785569692
 30
0.0
 11
15403.06960476075
 21
20.18293785569692
 31
0.0
  0
LINE
  5
1DE
330
1F
100
AcDbEntity
  8
0
  6
Continuous
 62
     2
370
    25
100
AcDbLine
 10
15431.60292962384
 20
78.68155621586743
 30
0.0
 11
15981.60292962384
 21
92.87043785569566
 31
0.0
  0
LINE
  5
1DF
330
1F
100
AcDbEntity
  8
Linia Izolacji - ARCHICAD
  6
IZOLACJA GRUBA
370
    13
100
AcDbLine
 10
15413.5928429523
 20
86.25852186976174
 30
0.0
 11
15981.60292962384
 21
100.9172437739529
 31
0.0
  0
LINE
  5
1E0
330
1F
100
AcDbEntity
  8
0
  6
Continuous
370
    13
100
AcDbLine
 10
15331.94490694156
 20
171.0219673585782
 30
0.0
 11
15246.93692720711
 21
208.1039770672617
 31
0.0
  0
CIRCLE
  5
1E1
330
1F
100
AcDbEntity
  8
0
  6
Continuous
370
    13
100
AcDbCircle
 10
15336.52784848384
 20
169.02280582932
 30
0.0
 40
5.0
  0
HATCH
  5
1E2
330
1F
100
AcDbEntity
  8
0
  6
Continuous
370
    13
100
AcDbHatch
 10
0.0
 20
0.0
 30
0.0
210
0.0
220
0.0
230
1.0
  2
SOLID
 70
     1
 71
     0
 91
        1
 92
        2
 72
     0
 73
     1
 93
       16
 10
15341.52784848384
 20
169.02280582932
 10
15341.1472461464
 20
170.9362229911455
 10
15340.06338238977
 20
172.5583397352528
 10
15338.44126564566
 20
173.6422034918765
 10
15336.52784848384
 20
174.02280582932
 10
15334.61443132201
 20
173.6422034918765
 10
15332.99231457791
 20
172.5583397352528
 10
15331.90845082128
 20
170.9362229911455
 10
15331.52784848384
 20
169.02280582932
 10
15331.90845082128
 20
167.1093886674946
 10
15332.99231457791
 20
165.4872719233873
 10
15334.61443132201
 20
164.4034081667636
 10
15336.52784848384
 20
164.02280582932
 10
15338.44126564566
 20
164.4034081667636
 10
15340.06338238977
 20
165.4872719233873
 10
15341.1472461464
 20
167.1093886674946
 97
        0
 75
     0
 76
     1
 98
        0
  0
LINE
  5
1E3
330
1F
100
AcDbEntity
  8
0
  6
Continuous
 62
     3
370
    50
100
AcDbLine
 10
15431.60292962384
 20
-38.81706214430447
 30
0.0
 11
15431.60292962384
 21
78.68155621586743
 31
0.0
  0
LINE
  5
1E4
330
1F
100
AcDbEntity
  8
0
  6
Continuous
 62
     3
370
    50
100
AcDbLine
 10
15481.60292962384
 20
-38.81706214430447
 30
0.0
 11
15496.60292962384
 21
-23.81706214430434
 31
0.0
  0
LINE
  5
1E5
330
1F
100
AcDbEntity
  8
0
  6
Continuous
 62
     3
370
    50
100
AcDbLine
 10
15496.60292962384
 20
-23.81706214430434
 30
0.0
 11
15516.60292962384
 21
-23.81706214430434
 31
0.0
  0
LINE
  5
1E6
330
1F
100
AcDbEntity
  8
0
  6
Continuous
 62
     3
370
    50
100
AcDbLine
 10
15531.60292962384
 20
-38.81706214430447
 30
0.0
 11
15516.60292962384
 21
-23.81706214430434
 31
0.0
  0
LINE
  5
1E7
330
1F
100
AcDbEntity
  8
0
  6
Continuous
 62
     3
370
    50
100
AcDbLine
 10
15481.60292962384
 20
-38.81706214430447
 30
0.0
 11
15431.60292962384
 21
-38.81706214430447
 31
0.0
  0
LINE
  5
1E8
330
1F
100
AcDbEntity
  8
0
  6
Continuous
 62
     3
370
    50
100
AcDbLine
 10
17504.52349542774
 20
642.3343332082761
 30
0.0
 11
17682.45535154926
 21
645.0921037440858
 31
0.0
  0
LINE
  5
1E9
330
1F
100
AcDbEntity
  8
0
  6
Continuous
 62
     3
370
    50
100
AcDbLine
 10
16841.60292962384
 20
-178.8170621443048
 30
0.0
 11
17081.60292962385
 21
-178.8170621443053
 31
0.0
  0
LINE
  5
1EA
330
1F
100
AcDbEntity
  8
0
  6
Continuous
 62
     3
370
    50
100
AcDbLine
 10
16701.60292962384
 20
121.1829378556948
 30
0.0
 11
16841.60292962384
 21
121.1829378556948
 31
0.0
  0
LINE
  5
1EB
330
1F
100
AcDbEntity
  8
0
  6
Continuous
 62
     3
370
    50
100
AcDbLine
 10
16841.60292962384
 20
-38.81706214430444
 30
0.0
 11
16701.60292962384
 21
-38.81706214430444
 31
0.0
  0
LINE
  5
1EC
330
1F
100
AcDbEntity
  8
0
  6
Continuous
 62
     3
370
    50
100
AcDbLine
 10
16841.60219015708
 20
121.1829378556954
 30
0.0
 11
16841.60219015708
 21
-588.8170621443053
 31
0.0
  0
LINE
  5
1ED
330
1F
100
AcDbEntity
  8
0
  6
Continuous
 62
     3
370
    50
100
AcDbLine
 10
16641.60292962385
 20
477.1368719215362
 30
0.0
 11
16835.63109107817
 21
477.1368719215362
 31
0.0
  0
LINE
  5
1EE
330
1F
100
AcDbEntity
  8
0
  6
Continuous
370
    13
100
AcDbLine
 10
16669.31841803027
 20
457.2852494837394
 30
0.0
 11
16547.74263578236
 21
388.8166221956047
 31
0.0
  0
CIRCLE
  5
1EF
330
1F
100
AcDbEntity
  8
0
  6
Continuous
370
    13
100
AcDbCircle
 10
16673.67503572335
 20
459.7387943225995
 30
0.0
 40
5.0
  0
HATCH
  5
1F0
330
1F
100
AcDbEntity
  8
0
  6
Continuous
370
    13
100
AcDbHatch
 10
0.0
 20
0.0
 30
0.0
210
0.0
220
0.0
230
1.0
  2
SOLID
 70
     1
 71
     0
 91
        1
 92
        2
 72
     0
 73
     1
 93
       16
 10
16678.67503572335
 20
459.7387943225995
 10
16678.29443338591
 20
461.652211484425
 10
16677.21056962929
 20
463.2743282285323
 10
16675.58845288518
 20
464.3581919851559
 10
16673.67503572335
 20
464.7387943225995
 10
16671.76161856153
 20
464.3581919851559
 10
16670.13950181742
 20
463.2743282285323
 10
16669.0556380608
 20
461.652211484425
 10
16668.67503572335
 20
459.7387943225995
 10
16669.0556380608
 20
457.8253771607741
 10
16670.13950181742
 20
456.2032604166668
 10
16671.76161856153
 20
455.1193966600431
 10
16673.67503572335
 20
454.7387943225995
 10
16675.58845288518
 20
455.1193966600431
 10
16677.21056962929
 20
456.2032604166668
 10
16678.29443338591
 20
457.8253771607741
 97
        0
 75
     0
 76
     1
 98
        0
  0
LINE
  5
1F1
330
1F
100
AcDbEntity
  8
Linia Izolacji - ARCHICAD
  6
IZOLACJA GRUBA
370
    13
100
AcDbLine
 10
17533.37771669611
 20
643.0320531058104
 30
0.0
 11
17939.0437898389
 21
649.1170442029523
 31
0.0
  0
LINE
  5
1F2
330
1F
100
AcDbEntity
  8
0
  6
Continuous
 62
     2
370
    25
100
AcDbLine
 10
17739.04378983891
 20
-99.18831451121873
 30
0.0
 11
17739.04378983891
 21
-204.0302269720818
 31
0.0
  0
LINE
  5
1F3
330
1F
100
AcDbEntity
  8
0
  6
Continuous
 62
     3
370
    50
100
AcDbLine
 10
17889.0437898389
 20
-444.0302269720819
 30
0.0
 11
17889.0437898389
 21
-544.0302269720827
 31
0.0
  0
LINE
  5
1F4
330
1F
100
AcDbEntity
  8
0
  6
Continuous
 62
     3
370
    50
100
AcDbLine
 10
17509.0437898389
 20
-205.4946172057683
 30
0.0
 11
17509.0437898389
 21
-364.030226972081
 31
0.0
  0
LINE
  5
1F5
330
1F
100
AcDbEntity
  8
0
  6
Continuous
 62
     3
370
    50
100
AcDbLine
 10
17449.0437898389
 20
-364.030226972081
 30
0.0
 11
17449.0437898389
 21
-544.0302269720827
 31
0.0
  0
LINE
  5
1F6
330
1F
100
AcDbEntity
  8
0
  6
Continuous
 62
     3
370
    50
100
AcDbLine
 10
17509.0437898389
 20
-364.030226972081
 30
0.0
 11
17289.0437898389
 21
-364.030226972081
 31
0.0
  0
LINE
  5
1F7
330
1F
100
AcDbEntity
  8
0
  6
Continuous
 62
     2
370
    25
100
AcDbLine
 10
17749.49732068854
 20
-74.03022697208279
 30
0.0
 11
17749.0437898389
 21
-154.0302269720815
 31
0.0
  0
LINE
  5
1F8
330
1F
100
AcDbEntity
  8
0
  6
Continuous
370
    13
100
AcDbLine
 10
17621.25198651928
 20
-79.7790381717101
 30
0.0
 11
17407.9726269022
 21
29.29956087990108
 31
0.0
  0
CIRCLE
  5
1F9
330
1F
100
AcDbEntity
  8
0
  6
Continuous
370
    13
100
AcDbCircle
 10
17625.70357490033
 20
-82.05573773153253
 30
0.0
 40
5.0
  0
HATCH
  5
1FA
330
1F
100
AcDbEntity
  8
0
  6
Continuous
370
    13
100
AcDbHatch
 10
0.0
 20
0.0
 30
0.0
210
0.0
220
0.0
230
1.0
  2
SOLID
 70
     1
 71
     0
 91
        1
 92
        2
 72
     0
 73
     1
 93
       16
 10
17630.70357490033
 20
-82.05573773153253
 10
17630.32297256289
 20
-80.1423205697071
 10
17629.23910880627
 20
-78.5202038255998
 10
17627.61699206216
 20
-77.4363400689761
 10
17625.70357490033
 20
-77.05573773153253
 10
17623.79015773851
 20
-77.4363400689761
 10
17622.1680409944
 20
-78.5202038255998
 10
17621.08417723778
 20
-80.14232056970708
 10
17620.70357490034
 20
-82.05573773153253
 10
17621.08417723778
 20
-83.96915489335798
 10
17622.1680409944
 20
-85.59127163746527
 10
17623.79015773851
 20
-86.67513539408897
 10
17625.70357490033
 20
-87.05573773153253
 10
17627.61699206216
 20
-86.67513539408897
 10
17629.23910880627
 20
-85.59127163746527
 10
17630.32297256289
 20
-83.96915489335798
 97
        0
 75
     0
 76
     1
 98
        0
  0
LINE
  5
1FB
330
1F
100
AcDbEntity
  8
0
  6
Continuous
370
    13
100
AcDbLine
 10
17628.33939457549
 20
-123.0207831621113
 30
0.0
 11
17409.59654278262
 21
-46.9000504975233
 31
0.0
  0
CIRCLE
  5
1FC
330
1F
100
AcDbEntity
  8
0
  6
Continuous
370
    13
100
AcDbCircle
 10
17633.06163560327
 20
-124.6640846181711
 30
0.0
 40
5.0
  0
HATCH
  5
1FD
330
1F
100
AcDbEntity
  8
0
  6
Continuous
370
    13
100
AcDbHatch
 10
0.0
 20
0.0
 30
0.0
210
0.0
220
0.0
230
1.0
  2
SOLID
 70
     1
 71
     0
 91
        1
 92
        2
 72
     0
 73
     1
 93
       16
 10
17638.06163560327
 20
-124.6640846181711
 10
17637.68103326583
 20
-122.7506674563456
 10
17636.5971695092
 20
-121.1285507122383
 10
17634.9750527651
 20
-120.0446869556146
 10
17633.06163560327
 20
-119.6640846181711
 10
17631.14821844145
 20
-120.0446869556146
 10
17629.52610169734
 20
-121.1285507122383
 10
17628.44223794072
 20
-122.7506674563456
 10
17628.06163560327
 20
-124.6640846181711
 10
17628.44223794072
 20
-126.5775017799965
 10
17629.52610169734
 20
-128.1996185241038
 10
17631.14821844145
 20
-129.2834822807275
 10
17633.06163560327
 20
-129.6640846181711
 10
17634.9750527651
 20
-129.2834822807275
 10
17636.5971695092
 20
-128.1996185241038
 10
17637.68103326583
 20
-126.5775017799965
 97
        0
 75
     0
 76
     1
 98
        0
  0
LINE
  5
1FE
330
1F
100
AcDbEntity
  8
0
  6
Continuous
 62
     5
370
    90
100
AcDbLine
 10
17679.78117004277
 20
-234.0302269720811
 30
0.0
 11
17489.0437898389
 21
-334.0302269720803
 31
0.0
  0
LINE
  5
1FF
330
1F
100
AcDbEntity
  8
0
  6
Continuous
 62
     5
370
    90
100
AcDbLine
 10
17489.0437898389
 20
-334.0302269720803
 30
0.0
 11
17489.0437898389
 21
-234.0302269720811
 31
0.0
  0
LINE
  5
200
330
1F
100
AcDbEntity
  8
0
  6
Continuous
 62
     2
370
    25
100
AcDbLine
 10
17649.0437898389
 20
-504.0302269720811
 30
0.0
 11
17889.0437898389
 21
-504.030226972082
 31
0.0
  0
LINE
  5
201
330
1F
100
AcDbEntity
  8
0
  6
Continuous
 62
     3
370
    50
100
AcDbLine
 10
17509.0437898389
 20
-205.4946172057683
 30
0.0
 11
17649.0437898389
 21
-204.0302269720818
 31
0.0
  0
LINE
  5
202
330
1F
100
AcDbEntity
  8
0
  6
Continuous
 62
     3
370
    50
100
AcDbLine
 10
17649.0437898389
 20
-364.030226972081
 30
0.0
 11
17509.0437898389
 21
-364.030226972081
 31
0.0
  0
LINE
  5
203
330
1F
100
AcDbEntity
  8
0
  6
Continuous
 62
     3
370
    50
100
AcDbLine
 10
17649.04305037214
 20
-204.0302269720814
 30
0.0
 11
17649.04305037214
 21
-544.0302269720827
 31
0.0
  0
LINE
  5
204
330
1F
100
AcDbEntity
  8
0
  6
Continuous
 62
   100
370
    20
100
AcDbLine
 10
17693.06050797686
 20
143.9697730279172
 30
0.0
 11
17701.06050797685
 21
143.9697730279172
 31
0.0
  0
LINE
  5
205
330
1F
100
AcDbEntity
  8
0
  6
Continuous
 62
   100
370
    20
100
AcDbLine
 10
17749.06050797685
 20
143.9697730279172
 30
0.0
 11
17757.06050797685
 21
143.9697730279172
 31
0.0
  0
LINE
  5
206
330
1F
100
AcDbEntity
  8
0
  6
Continuous
 62
     2
370
    25
100
AcDbLine
 10
17659.06050797685
 20
139.4803453290929
 30
0.0
 11
17659.06050797685
 21
255.9697730279177
 31
0.0
  0
LINE
  5
207
330
1F
100
AcDbEntity
  8
0
  6
Continuous
 62
     2
370
    25
100
AcDbLine
 10
17795.0437898389
 20
140.8431615720522
 30
0.0
 11
17795.0437898389
 21
255.9697730279177
 31
0.0
  0
LINE
  5
208
330
1F
100
AcDbEntity
  8
0
  6
Continuous
370
    13
100
AcDbLine
 10
17289.0437898389
 20
255.9697730279177
 30
0.0
 11
17939.0437898389
 21
255.9697730279177
 31
0.0
  0
LINE
  5
209
330
1F
100
AcDbEntity
  8
0
  6
Continuous
370
    13
100
AcDbLine
 10
17289.0437898389
 20
-544.0302269720827
 30
0.0
 11
17289.0437898389
 21
255.9697730279177
 31
0.0
  0
LINE
  5
20A
330
1F
100
AcDbEntity
  8
0
  6
Continuous
370
    13
100
AcDbLine
 10
17289.0437898389
 20
-544.0302269720827
 30
0.0
 11
17939.0437898389
 21
-544.0302269720827
 31
0.0
  0
LINE
  5
20B
330
1F
100
AcDbEntity
  8
0
  6
Continuous
370
    13
100
AcDbLine
 10
17939.0437898389
 20
-544.0302269720827
 30
0.0
 11
17939.0437898389
 21
255.9697730279177
 31
0.0
  0
LINE
  5
20C
330
1F
100
AcDbEntity
  8
0
  6
Continuous
 62
     3
370
    50
100
AcDbLine
 10
17633.06163560328
 20
-170.5975050732993
 30
0.0
 11
17633.06163560327
 21
-92.03023000202245
 31
0.0
  0
LINE
  5
20D
330
1F
100
AcDbEntity
  8
Linia Izolacji - ARCHICAD
  6
IZOLACJA GRUBA
370
    13
100
AcDbLine
 10
17641.52272178648
 20
-176.3812649560044
 30
0.0
 11
17641.52272178648
 21
-66.70050485963777
 31
0.0
  0
LINE
  5
20E
330
1F
100
AcDbEntity
  8
0
  6
Continuous
 62
     3
370
    50
100
AcDbLine
 10
17614.87809394761
 20
-190.9312312116982
 30
0.0
 11
17633.64576899563
 21
-171.8799297932611
 31
0.0
  0
LINE
  5
20F
330
1F
100
AcDbEntity
  8
Linia Izolacji - ARCHICAD
  6
IZOLACJA GRUBA
370
    13
100
AcDbLine
 10
17619.39489109212
 20
-197.8480627921986
 30
0.0
 11
17642.83890570191
 21
-176.3812649560044
 31
0.0
  0
LINE
  5
210
330
1F
100
AcDbEntity
  8
0
  6
Continuous
 62
     2
370
    25
100
AcDbLine
 10
17799.04332866884
 20
-154.0302269720815
 30
0.0
 11
17799.04332866884
 21
-94.0302269720819
 31
0.0
  0
LINE
  5
211
330
1F
100
AcDbEntity
  8
0
  6
Continuous
 62
     2
370
    25
100
AcDbLine
 10
17289.0437898389
 20
-208.178798400653
 30
0.0
 11
17509.0437898389
 21
-205.4946172057683
 31
0.0
  0
LINE
  5
212
330
1F
100
AcDbEntity
  8
Linia Izolacji - ARCHICAD
  6
IZOLACJA GRUBA
370
    13
100
AcDbLine
 10
17289.03057810198
 20
-200.1316767499429
 30
0.0
 11
17623.81025282621
 21
-196.2948862499013
 31
0.0
  0
LINE
  5
213
330
1F
100
AcDbEntity
  8
0
  6
Continuous
 62
     5
370
    90
100
AcDbLine
 10
17289.0437898389
 20
-234.0302269720811
 30
0.0
 11
17939.0437898389
 21
-234.0302269720811
 31
0.0
  0
LINE
  5
214
330
1F
100
AcDbEntity
  8
0
  6
Continuous
 62
     2
370
    25
100
AcDbLine
 10
17939.0437898389
 20
-204.0302269720818
 30
0.0
 11
17649.0437898389
 21
-204.0302269720818
 31
0.0
  0
LINE
  5
215
330
1F
100
AcDbEntity
  8
0
  6
Continuous
 62
     3
370
    50
100
AcDbLine
 10
17939.0437898389
 20
-444.0302269720817
 30
0.0
 11
17889.0437898389
 21
-444.0302269720819
 31
0.0
  0
LINE
  5
216
330
1F
100
AcDbEntity
  8
0
  6
Continuous
 62
     3
370
    50
100
AcDbLine
 10
17939.0437898389
 20
-74.03022697208233
 30
0.0
 11
17739.49732068854
 21
-74.03022697208283
 31
0.0
  0
LINE
  5
217
330
1F
100
AcDbEntity
  8
0
  6
Continuous
 62
     2
370
    25
100
AcDbLine
 10
17939.0437898389
 20
-154.030226972082
 30
0.0
 11
17739.04388227225
 21
-154.0302269720815
 31
0.0
  0
LINE
  5
218
330
1F
100
AcDbEntity
  8
0
  6
Continuous
 62
     2
370
    25
100
AcDbLine
 10
17939.0437898389
 20
-94.0302269720819
 30
0.0
 11
17749.04332866883
 21
-94.0302269720819
 31
0.0
  0
LINE
  5
219
330
1F
100
AcDbEntity
  8
0
  6
Continuous
 62
     3
370
    50
100
AcDbLine
 10
15981.60292962384
 20
-38.81706214430447
 30
0.0
 11
15531.60292962384
 21
-38.81706214430447
 31
0.0
  0
LINE
  5
21A
330
1F
100
AcDbEntity
  8
0
  6
Continuous
 62
     3
370
    50
100
AcDbLine
 10
17081.60292962385
 20
882.8565818067412
 30
0.0
 11
17081.60292962385
 21
251.182937855695
 31
0.0
  0
LINE
  5
21B
330
1F
100
AcDbEntity
  8
0
  6
Continuous
 62
     3
370
    50
100
AcDbLine
 10
16841.60292962384
 20
882.8565818067412
 30
0.0
 11
16841.60292962384
 21
121.1829378556948
 31
0.0
  0
LINE
  5
21C
330
1F
100
AcDbEntity
  8
0
  6
Continuous
 62
     2
370
    25
100
AcDbLine
 10
15342.60292962383
 20
882.8565818067417
 30
0.0
 11
15342.60292962383
 21
231.1829378556827
 31
0.0
  0
LINE
  5
21D
330
1F
100
AcDbEntity
  8
0
  6
Continuous
 62
     2
370
    25
100
AcDbLine
 10
15330.60292962383
 20
882.8565818067417
 30
0.0
 11
15330.60292962383
 21
231.1829378556827
 31
0.0
  0
LINE
  5
21E
330
1F
100
AcDbEntity
  8
Linia Izolacji - ARCHICAD
  6
IZOLACJA GRUBA
370
    13
100
AcDbLine
 10
16553.42342828203
 20
120.9687776158814
 30
0.0
 11
16818.92941685991
 21
128.0738874205591
 31
0.0
  0
LINE
  5
21F
330
1F
100
AcDbEntity
  8
Linia Izolacji - ARCHICAD
  6
IZOLACJA GRUBA
370
    13
100
AcDbLine
 10
16817.5156724705
 20
126.0977896170585
 30
0.0
 11
16838.20856608525
 21
144.7311390048499
 31
0.0
  0
LINE
  5
220
330
1F
100
AcDbEntity
  8
0
  6
Continuous
370
    13
100
AcDbLine
 10
15372.08999400113
 20
101.2210823125226
 30
0.0
 11
15239.8944013234
 21
101.3786803199066
 31
0.0
  0
CIRCLE
  5
221
330
1F
100
AcDbEntity
  8
0
  6
Continuous
370
    13
100
AcDbCircle
 10
15377.08999044803
 20
101.2151215277415
 30
0.0
 40
5.0
  0
HATCH
  5
222
330
1F
100
AcDbEntity
  8
0
  6
Continuous
370
    13
100
AcDbHatch
 10
0.0
 20
0.0
 30
0.0
210
0.0
220
0.0
230
1.0
  2
SOLID
 70
     1
 71
     0
 91
        1
 92
        2
 72
     0
 73
     1
 93
       16
 10
15382.08999044803
 20
101.2151215277415
 10
15381.70938811059
 20
103.128538689567
 10
15380.62552435396
 20
104.7506554336743
 10
15379.00340760985
 20
105.8345191902979
 10
15377.08999044803
 20
106.2151215277415
 10
15375.1765732862
 20
105.8345191902979
 10
15373.5544565421
 20
104.7506554336743
 10
15372.47059278547
 20
103.128538689567
 10
15372.08999044803
 20
101.2151215277415
 10
15372.47059278547
 20
99.30170436591607
 10
15373.5544565421
 20
97.67958762180876
 10
15375.1765732862
 20
96.59572386518506
 10
15377.08999044803
 20
96.2151215277415
 10
15379.00340760985
 20
96.59572386518506
 10
15380.62552435396
 20
97.67958762180876
 10
15381.70938811059
 20
99.30170436591607
 97
        0
 75
     0
 76
     1
 98
        0
  0
LINE
  5
223
330
1F
100
AcDbEntity
  8
0
  6
Continuous
370
    13
100
AcDbLine
 10
16605.67720581835
 20
172.8401094896836
 30
0.0
 11
16505.54048514723
 21
176.5662945229224
 31
0.0
  0
LINE
  5
224
330
1F
100
AcDbEntity
  8
0
  6
Continuous
370
    13
100
AcDbLine
 10
16605.58082937734
 20
176.4164064530543
 30
0.0
 11
16505.44410870623
 21
180.1425914862931
 31
0.0
  0
LINE
  5
225
330
1F
100
AcDbEntity
  8
0
  6
Continuous
370
    13
100
AcDbLine
 10
16605.48445293633
 20
179.992703416425
 30
0.0
 11
16505.34773226521
 21
183.7188884496638
 31
0.0
  0
LINE
  5
226
330
1F
100
AcDbEntity
  8
0
  6
Continuous
370
    13
100
AcDbLine
 10
16605.38807649533
 20
183.5690003797958
 30
0.0
 11
16505.25135582421
 21
187.2951854130346
 31
0.0
  0
LINE
  5
227
330
1F
100
AcDbEntity
  8
0
  6
Continuous
370
    13
100
AcDbLine
 10
16605.29170005432
 20
187.1452973431665
 30
0.0
 11
16516.58041761894
 21
190.4463306771397
 31
0.0
  0
LINE
  5
228
330
1F
100
AcDbEntity
  8
0
  6
Continuous
370
    13
100
AcDbLine
 10
16605.19532361331
 20
190.7215943065372
 30
0.0
 11
16572.26512063135
 21
191.9469592742585
 31
0.0
  0
LINE
  5
229
330
1F
100
AcDbEntity
  8
0
  6
Continuous
370
    13
100
AcDbLine
 10
16549.99250280594
 20
171.3394808925653
 30
0.0
 11
16505.63686158824
 21
172.9899975595517
 31
0.0
  0
LINE
  5
22A
330
1F
100
AcDbEntity
  8
0
  6
Continuous
370
    13
100
AcDbLine
 10
16608.17629852409
 20
172.9074567103421
 30
0.0
 11
16628.0133968503
 21
143.4311486115327
 31
0.0
  0
LINE
  5
22B
330
1F
100
AcDbEntity
  8
0
  6
Continuous
370
    13
100
AcDbLine
 10
16503.21440488313
 20
170.0788734426855
 30
0.0
 11
16484.99363985272
 21
139.5769566037987
 31
0.0
  0
LINE
  5
22C
330
1F
100
AcDbEntity
  8
0
  6
Continuous
370
    13
100
AcDbLine
 10
16573.0848854124
 20
171.9617898542765
 30
0.0
 11
16585.37367597807
 21
142.2820649125543
 31
0.0
  0
LINE
  5
22D
330
1F
100
AcDbEntity
  8
0
  6
Continuous
370
    13
100
AcDbLine
 10
16573.0848854124
 20
171.9617898542765
 30
0.0
 11
16573.8930520603
 21
141.9726773854283
 31
0.0
  0
LINE
  5
22E
330
1F
100
AcDbEntity
  8
0
  6
Continuous
370
    13
100
AcDbLine
 10
16538.30581799481
 20
171.0245402987511
 30
0.0
 11
16527.63336072495
 21
140.7260403027771
 31
0.0
  0
LINE
  5
22F
330
1F
100
AcDbEntity
  8
0
  6
Continuous
370
    13
100
AcDbLine
 10
16538.30581799481
 20
171.0245402987511
 30
0.0
 11
16539.11398464271
 21
141.0354278299031
 31
0.0
  0
LINE
  5
230
330
1F
100
AcDbEntity
  8
0
  6
Continuous
370
    13
100
AcDbLine
 10
15455.64335354686
 20
130.3972291076331
 30
0.0
 11
15555.44446351966
 21
139.3964362874122
 31
0.0
  0
LINE
  5
231
330
1F
100
AcDbEntity
  8
0
  6
Continuous
370
    13
100
AcDbLine
 10
15455.55108955916
 20
133.9736345300049
 30
0.0
 11
15555.35219953196
 21
142.972841709784
 31
0.0
  0
LINE
  5
232
330
1F
100
AcDbEntity
  8
0
  6
Continuous
370
    13
100
AcDbLine
 10
15455.45882557147
 20
137.5500399523767
 30
0.0
 11
15555.25993554427
 21
146.5492471321557
 31
0.0
  0
LINE
  5
233
330
1F
100
AcDbEntity
  8
0
  6
Continuous
370
    13
100
AcDbLine
 10
15455.36656158377
 20
141.1264453747486
 30
0.0
 11
15555.16767155656
 21
150.1256525545274
 31
0.0
  0
LINE
  5
234
330
1F
100
AcDbEntity
  8
0
  6
Continuous
370
    13
100
AcDbLine
 10
15455.27429759607
 20
144.7028507971201
 30
0.0
 11
15543.68826197223
 21
152.675262959906
 31
0.0
  0
LINE
  5
235
330
1F
100
AcDbEntity
  8
0
  6
Continuous
370
    13
100
AcDbLine
 10
15455.18203360837
 20
148.2792562194921
 30
0.0
 11
15488.00187019981
 21
151.2386672838916
 31
0.0
  0
LINE
  5
236
330
1F
100
AcDbEntity
  8
0
  6
Continuous
370
    13
100
AcDbLine
 10
15511.32974531928
 20
131.8338247836479
 30
0.0
 11
15555.53672750735
 21
135.8200308650404
 31
0.0
  0
LINE
  5
237
330
1F
100
AcDbEntity
  8
0
  6
Continuous
370
    13
100
AcDbLine
 10
15453.14418505069
 20
130.3327556421965
 30
0.0
 11
15434.88835786379
 21
99.85181105608385
 31
0.0
  0
LINE
  5
238
330
1F
100
AcDbEntity
  8
0
  6
Continuous
370
    13
100
AcDbLine
 10
15558.10926188988
 20
133.040641190536
 30
0.0
 11
15577.91245224726
 21
103.5415418685398
 31
0.0
  0
LINE
  5
239
330
1F
100
AcDbEntity
  8
0
  6
Continuous
370
    13
100
AcDbLine
 10
15488.23666238597
 20
131.2380702010305
 30
0.0
 11
15477.5293718785
 21
100.9518625121875
 31
0.0
  0
LINE
  5
23A
330
1F
100
AcDbEntity
  8
0
  6
Continuous
370
    13
100
AcDbLine
 10
15488.23666238597
 20
131.2380702010305
 30
0.0
 11
15489.01034397121
 21
101.2480482469759
 31
0.0
  0
LINE
  5
23B
330
1F
100
AcDbEntity
  8
0
  6
Continuous
370
    13
100
AcDbLine
 10
15523.01678455459
 20
132.135326631702
 30
0.0
 11
15535.27143823254
 21
102.4414904124359
 31
0.0
  0
LINE
  5
23C
330
1F
100
AcDbEntity
  8
0
  6
Continuous
370
    13
100
AcDbLine
 10
15523.01678455459
 20
132.135326631702
 30
0.0
 11
15523.79046613983
 21
102.1453046776477
 31
0.0
  0
LINE
  5
23D
330
1F
100
AcDbEntity
  8
0
  6
Continuous
370
    13
100
AcDbLine
 10
16296.84349069272
 20
161.7343284592552
 30
0.0
 11
16196.7241896643
 21
165.9024027448593
 31
0.0
  0
LINE
  5
23E
330
1F
100
AcDbEntity
  8
0
  6
Continuous
370
    13
100
AcDbLine
 10
16296.76289818127
 20
165.3110159261294
 30
0.0
 11
16196.64359715287
 21
169.4790902117336
 31
0.0
  0
LINE
  5
23F
330
1F
100
AcDbEntity
  8
0
  6
Continuous
370
    13
100
AcDbLine
 10
16296.68230566983
 20
168.8877033930038
 30
0.0
 11
16196.56300464143
 21
173.0557776786079
 31
0.0
  0
LINE
  5
240
330
1F
100
AcDbEntity
  8
0
  6
Continuous
370
    13
100
AcDbLine
 10
16296.6017131584
 20
172.4643908598781
 30
0.0
 11
16196.48241212998
 21
176.6324651454821
 31
0.0
  0
LINE
  5
241
330
1F
100
AcDbEntity
  8
0
  6
Continuous
370
    13
100
AcDbLine
 10
16296.52112064695
 20
176.0410783267524
 30
0.0
 11
16207.82527030115
 21
179.7335820624826
 31
0.0
  0
LINE
  5
242
330
1F
100
AcDbEntity
  8
0
  6
Continuous
370
    13
100
AcDbLine
 10
16296.44052813551
 20
179.6177657936268
 30
0.0
 11
16263.51605364522
 21
180.988447111618
 31
0.0
  0
LINE
  5
243
330
1F
100
AcDbEntity
  8
0
  6
Continuous
370
    13
100
AcDbLine
 10
16241.15270734865
 20
160.4794634101201
 30
0.0
 11
16196.80478217575
 21
162.3257152779848
 31
0.0
  0
LINE
  5
244
330
1F
100
AcDbEntity
  8
0
  6
Continuous
370
    13
100
AcDbLine
 10
16299.34285627972
 20
161.7906459741439
 30
0.0
 11
16319.04967594639
 21
132.2270794138453
 31
0.0
  0
LINE
  5
245
330
1F
100
AcDbEntity
  8
0
  6
Continuous
370
    13
100
AcDbLine
 10
16194.36950162541
 20
159.4253103488155
 30
0.0
 11
16176.01430231608
 21
129.0041028209369
 31
0.0
  0
LINE
  5
246
330
1F
100
AcDbEntity
  8
0
  6
Continuous
370
    13
100
AcDbLine
 10
16264.24761146169
 20
160.9998545097662
 30
0.0
 11
16276.40529915196
 21
131.2661854423804
 31
0.0
  0
LINE
  5
247
330
1F
100
AcDbEntity
  8
0
  6
Continuous
370
    13
100
AcDbLine
 10
16264.24761146169
 20
160.9998545097662
 30
0.0
 11
16264.92342164035
 21
131.0074674656776
 31
0.0
  0
LINE
  5
248
330
1F
100
AcDbEntity
  8
0
  6
Continuous
370
    13
100
AcDbLine
 10
16229.46474644345
 20
160.2161018131931
 30
0.0
 11
16218.65867911051
 21
129.9649967924019
 31
0.0
  0
LINE
  5
249
330
1F
100
AcDbEntity
  8
0
  6
Continuous
370
    13
100
AcDbLine
 10
16229.46474644345
 20
160.2161018131931
 30
0.0
 11
16230.14055662211
 21
130.2237147691046
 31
0.0
  0
LINE
  5
24A
330
1F
100
AcDbEntity
  8
0
  6
Continuous
 62
     2
370
    25
100
AcDbLine
 10
15424.62186042746
 20
185.4454854547987
 30
0.0
 11
15824.49021809232
 21
195.7068956116527
 31
0.0
  0
LINE
  5
24B
330
1F
100
AcDbEntity
  8
0
  6
Continuous
370
    13
100
AcDbLine
 10
15778.08874732175
 20
138.6689634646909
 30
0.0
 11
15877.89045798739
 21
147.6615064798719
 31
0.0
  0
LINE
  5
24C
330
1F
100
AcDbEntity
  8
0
  6
Continuous
370
    13
100
AcDbLine
 10
15777.99672214606
 20
142.2453750399482
 30
0.0
 11
15877.7984328117
 21
151.2379180551292
 31
0.0
  0
LINE
  5
24D
330
1F
100
AcDbEntity
  8
0
  6
Continuous
370
    13
100
AcDbLine
 10
15777.90469697037
 20
145.8217866152056
 30
0.0
 11
15877.70640763601
 21
154.8143296303865
 31
0.0
  0
LINE
  5
24E
330
1F
100
AcDbEntity
  8
0
  6
Continuous
370
    13
100
AcDbLine
 10
15777.81267179468
 20
149.3981981904631
 30
0.0
 11
15877.61438246031
 21
158.3907412056438
 31
0.0
  0
LINE
  5
24F
330
1F
100
AcDbEntity
  8
0
  6
Continuous
370
    13
100
AcDbLine
 10
15777.72064661898
 20
152.9746097657202
 30
0.0
 11
15866.13514314989
 21
160.9411181343345
 31
0.0
  0
LINE
  5
250
330
1F
100
AcDbEntity
  8
0
  6
Continuous
370
    13
100
AcDbLine
 10
15777.62862144329
 20
156.5510213409777
 30
0.0
 11
15810.44865557402
 21
159.5082408787181
 31
0.0
  0
LINE
  5
251
330
1F
100
AcDbEntity
  8
0
  6
Continuous
370
    13
100
AcDbLine
 10
15833.77523489763
 20
140.1018407203077
 30
0.0
 11
15877.98248316308
 21
144.0850949046145
 31
0.0
  0
LINE
  5
252
330
1F
100
AcDbEntity
  8
0
  6
Continuous
370
    13
100
AcDbLine
 10
15775.58957452599
 20
138.6046568795066
 30
0.0
 11
15757.33171203749
 21
108.1249313805657
 31
0.0
  0
LINE
  5
253
330
1F
100
AcDbEntity
  8
0
  6
Continuous
370
    13
100
AcDbLine
 10
15880.5548319482
 20
141.3055334572455
 30
0.0
 11
15900.35605248112
 21
111.8051118577778
 31
0.0
  0
LINE
  5
254
330
1F
100
AcDbEntity
  8
0
  6
Continuous
370
    13
100
AcDbLine
 10
15810.68211223474
 20
139.5076281623734
 30
0.0
 11
15799.97279941226
 21
109.2221355123725
 31
0.0
  0
LINE
  5
255
330
1F
100
AcDbEntity
  8
0
  6
Continuous
370
    13
100
AcDbLine
 10
15810.68211223474
 20
139.5076281623734
 30
0.0
 11
15811.45379125695
 21
109.5175546131691
 31
0.0
  0
LINE
  5
256
330
1F
100
AcDbEntity
  8
0
  6
Continuous
370
    13
100
AcDbLine
 10
15845.46229423945
 20
140.4025621743786
 30
0.0
 11
15857.71496510635
 21
110.7079077259708
 31
0.0
  0
LINE
  5
257
330
1F
100
AcDbEntity
  8
0
  6
Continuous
370
    13
100
AcDbLine
 10
15845.46229423945
 20
140.4025621743786
 30
0.0
 11
15846.23397326166
 21
110.4124886251744
 31
0.0
  0
LINE
  5
258
330
1F
100
AcDbEntity
  8
0
  6
Continuous
370
    13
100
AcDbLine
 10
17540.80149538377
 20
-152.8934561708553
 30
0.0
 11
17440.69694119681
 21
-148.38507367869
 31
0.0
  0
LINE
  5
259
330
1F
100
AcDbEntity
  8
0
  6
Continuous
370
    13
100
AcDbLine
 10
17540.73306145548
 20
-149.3165154128816
 30
0.0
 11
17440.62850726851
 21
-144.8081329207162
 31
0.0
  0
LINE
  5
25A
330
1F
100
AcDbEntity
  8
0
  6
Continuous
370
    13
100
AcDbLine
 10
17540.66462752718
 20
-145.7395746549077
 30
0.0
 11
17440.56007334022
 21
-141.2311921627424
 31
0.0
  0
LINE
  5
25B
330
1F
100
AcDbEntity
  8
0
  6
Continuous
370
    13
100
AcDbLine
 10
17540.59619359889
 20
-142.1626338969339
 30
0.0
 11
17440.49163941192
 21
-137.6542514047685
 31
0.0
  0
LINE
  5
25C
330
1F
100
AcDbEntity
  8
0
  6
Continuous
370
    13
100
AcDbLine
 10
17540.5277596706
 20
-138.58569313896
 30
0.0
 11
17451.84497357543
 21
-134.5917098138744
 31
0.0
  0
LINE
  5
25D
330
1F
100
AcDbEntity
  8
0
  6
Continuous
370
    13
100
AcDbLine
 10
17540.4593257423
 20
-135.0087523809862
 30
0.0
 11
17507.53970078652
 21
-133.5261598855229
 31
0.0
  0
LINE
  5
25E
330
1F
100
AcDbEntity
  8
0
  6
Continuous
370
    13
100
AcDbLine
 10
17485.10676817269
 20
-153.9590060992064
 30
0.0
 11
17440.7653751251
 21
-151.9620144366639
 31
0.0
  0
LINE
  5
25F
330
1F
100
AcDbEntity
  8
0
  6
Continuous
370
    13
100
AcDbLine
 10
17543.30103796893
 20
-152.8456349935934
 30
0.0
 11
17562.90724930745
 21
-182.4760195015409
 31
0.0
  0
LINE
  5
260
330
1F
100
AcDbEntity
  8
0
  6
Continuous
370
    13
100
AcDbLine
 10
17438.3202493924
 20
-154.8541244385995
 30
0.0
 11
17419.86174630818
 21
-185.2127619743812
 31
0.0
  0
LINE
  5
261
330
1F
100
AcDbEntity
  8
0
  6
Continuous
370
    13
100
AcDbLine
 10
17508.20330780287
 20
-153.5171237634727
 30
0.0
 11
17520.25985255638
 21
-183.2919482766337
 31
0.0
  0
LINE
  5
262
330
1F
100
AcDbEntity
  8
0
  6
Continuous
370
    13
100
AcDbLine
 10
17508.20330780287
 20
-153.5171237634727
 30
0.0
 11
17508.77716193001
 21
-183.5116347853373
 31
0.0
  0
LINE
  5
263
330
1F
100
AcDbEntity
  8
0
  6
Continuous
370
    13
100
AcDbLine
 10
17473.41797955847
 20
-154.1826356687202
 30
0.0
 11
17462.50914305924
 21
-184.3968331992885
 31
0.0
  0
LINE
  5
264
330
1F
100
AcDbEntity
  8
0
  6
Continuous
370
    13
100
AcDbLine
 10
17473.41797955847
 20
-154.1826356687202
 30
0.0
 11
17473.99183368561
 21
-184.1771466905848
 31
0.0
  0
LINE
  5
265
330
1F
100
AcDbEntity
  8
0
  6
Continuous
370
    13
100
AcDbLine
 10
17876.85202290685
 20
690.5868273537286
 30
0.0
 11
17976.75081375709
 21
698.4276735024902
 31
0.0
  0
LINE
  5
266
330
1F
100
AcDbEntity
  8
0
  6
Continuous
370
    13
100
AcDbLine
 10
17876.80125367384
 20
694.1640624415548
 30
0.0
 11
17976.70004452408
 21
702.0049085903164
 31
0.0
  0
LINE
  5
267
330
1F
100
AcDbEntity
  8
0
  6
Continuous
370
    13
100
AcDbLine
 10
17876.75048444084
 20
697.7412975293815
 30
0.0
 11
17976.64927529107
 21
705.5821436781429
 31
0.0
  0
LINE
  5
268
330
1F
100
AcDbEntity
  8
0
  6
Continuous
370
    13
100
AcDbLine
 10
17876.69971520783
 20
701.3185326172076
 30
0.0
 11
17976.59850605807
 21
709.1593787659691
 31
0.0
  0
LINE
  5
269
330
1F
100
AcDbEntity
  8
0
  6
Continuous
370
    13
100
AcDbLine
 10
17876.64894597483
 20
704.895767705034
 30
0.0
 11
17965.14944599794
 21
711.8419859611687
 31
0.0
  0
LINE
  5
26A
330
1F
100
AcDbEntity
  8
0
  6
Continuous
370
    13
100
AcDbLine
 10
17876.59817674182
 20
708.4730027928605
 30
0.0
 11
17909.45013592626
 21
711.0514840283008
 31
0.0
  0
LINE
  5
26B
330
1F
100
AcDbEntity
  8
0
  6
Continuous
370
    13
100
AcDbLine
 10
17932.55133297854
 20
691.3773292865966
 30
0.0
 11
17976.80158299009
 21
694.8504384146637
 31
0.0
  0
LINE
  5
26C
330
1F
100
AcDbEntity
  8
0
  6
Continuous
370
    13
100
AcDbLine
 10
17874.35227464594
 20
690.5513501489054
 30
0.0
 11
17855.7440778081
 21
660.2842356583546
 31
0.0
  0
LINE
  5
26D
330
1F
100
AcDbEntity
  8
0
  6
Continuous
370
    13
100
AcDbLine
 10
17979.34170160429
 20
692.0413927514877
 30
0.0
 11
17998.80135135788
 21
662.3145489801243
 31
0.0
  0
LINE
  5
26E
330
1F
100
AcDbEntity
  8
0
  6
Continuous
370
    13
100
AcDbLine
 10
17909.45289284131
 20
691.0495090397887
 30
0.0
 11
17898.39498381551
 21
660.8895505822566
 31
0.0
  0
LINE
  5
26F
330
1F
100
AcDbEntity
  8
0
  6
Continuous
370
    13
100
AcDbLine
 10
17909.45289284131
 20
691.0495090397887
 30
0.0
 11
17909.87861929919
 21
661.0525299088318
 31
0.0
  0
LINE
  5
270
330
1F
100
AcDbEntity
  8
0
  6
Continuous
370
    13
100
AcDbLine
 10
17944.24108340891
 20
691.5432338606038
 30
0.0
 11
17956.15044535048
 21
661.7092340562227
 31
0.0
  0
LINE
  5
271
330
1F
100
AcDbEntity
  8
0
  6
Continuous
370
    13
100
AcDbLine
 10
17944.24108340891
 20
691.5432338606038
 30
0.0
 11
17944.66680986679
 21
661.5462547296473
 31
0.0
  0
LINE
  5
272
330
1F
100
AcDbEntity
  8
0
  6
Continuous
370
    13
100
AcDbLine
 10
17567.77229069006
 20
686.5513929968738
 30
0.0
 11
17667.66448263941
 21
694.4758658009765
 31
0.0
  0
LINE
  5
273
330
1F
100
AcDbEntity
  8
0
  6
Continuous
370
    13
100
AcDbLine
 10
17567.71852682365
 20
690.1285843302055
 30
0.0
 11
17667.61071877298
 21
698.0530571343082
 31
0.0
  0
LINE
  5
274
330
1F
100
AcDbEntity
  8
0
  6
Continuous
370
    13
100
AcDbLine
 10
17567.66476295723
 20
693.7057756635373
 30
0.0
 11
17667.55695490657
 21
701.6302484676398
 31
0.0
  0
LINE
  5
275
330
1F
100
AcDbEntity
  8
0
  6
Continuous
370
    13
100
AcDbLine
 10
17567.61099909081
 20
697.2829669968692
 30
0.0
 11
17667.50319104015
 21
705.2074398009718
 31
0.0
  0
LINE
  5
276
330
1F
100
AcDbEntity
  8
0
  6
Continuous
370
    13
100
AcDbLine
 10
17567.55723522439
 20
700.8601583302008
 30
0.0
 11
17656.05188927055
 21
707.8804615752524
 31
0.0
  0
LINE
  5
277
330
1F
100
AcDbEntity
  8
0
  6
Continuous
370
    13
100
AcDbLine
 10
17567.50347135797
 20
704.4373496635327
 30
0.0
 11
17600.35326047787
 21
707.0433317270073
 31
0.0
  0
LINE
  5
278
330
1F
100
AcDbEntity
  8
0
  6
Continuous
370
    13
100
AcDbLine
 10
17623.47091948274
 20
687.388522845119
 30
0.0
 11
17667.71824650582
 21
690.8986744676446
 31
0.0
  0
LINE
  5
279
330
1F
100
AcDbEntity
  8
0
  6
Continuous
370
    13
100
AcDbLine
 10
17565.2725730045
 20
686.513823161994
 30
0.0
 11
17546.68972053835
 21
656.2311415871919
 31
0.0
  0
LINE
  5
27A
330
1F
100
AcDbEntity
  8
0
  6
Continuous
370
    13
100
AcDbLine
 10
17670.26071579806
 20
688.0917562269436
 30
0.0
 11
17689.74524430132
 21
658.381213348278
 31
0.0
  0
LINE
  5
27B
330
1F
100
AcDbEntity
  8
0
  6
Continuous
370
    13
100
AcDbLine
 10
17600.37276187114
 20
687.0413660551715
 30
0.0
 11
17589.34010486663
 21
656.8721611335301
 31
0.0
  0
LINE
  5
27C
330
1F
100
AcDbEntity
  8
0
  6
Continuous
370
    13
100
AcDbLine
 10
17600.37276187114
 20
687.0413660551715
 30
0.0
 11
17600.82359988969
 21
657.0447538284376
 31
0.0
  0
LINE
  5
27D
330
1F
100
AcDbEntity
  8
0
  6
Continuous
370
    13
100
AcDbLine
 10
17635.16052693142
 20
687.564213333766
 30
0.0
 11
17647.09485997304
 21
657.74019380194
 31
0.0
  0
LINE
  5
27E
330
1F
100
AcDbEntity
  8
0
  6
Continuous
370
    13
100
AcDbLine
 10
17635.16052693142
 20
687.564213333766
 30
0.0
 11
17635.61136494999
 21
657.5676011070326
 31
0.0
  0
LINE
  5
27F
330
1F
100
AcDbEntity
  8
0
  6
Continuous
370
    13
100
AcDbLine
 10
17567.77229069006
 20
686.5513929968738
 30
0.0
 11
17667.66448263941
 21
694.4758658009765
 31
0.0
  0
LINE
  5
280
330
1F
100
AcDbEntity
  8
0
  6
Continuous
370
    13
100
AcDbLine
 10
17567.71852682365
 20
690.1285843302055
 30
0.0
 11
17667.61071877298
 21
698.0530571343082
 31
0.0
  0
LINE
  5
281
330
1F
100
AcDbEntity
  8
0
  6
Continuous
370
    13
100
AcDbLine
 10
17567.66476295723
 20
693.7057756635373
 30
0.0
 11
17667.55695490657
 21
701.6302484676398
 31
0.0
  0
LINE
  5
282
330
1F
100
AcDbEntity
  8
0
  6
Continuous
370
    13
100
AcDbLine
 10
17567.61099909081
 20
697.2829669968692
 30
0.0
 11
17667.50319104015
 21
705.2074398009718
 31
0.0
  0
LINE
  5
283
330
1F
100
AcDbEntity
  8
0
  6
Continuous
370
    13
100
AcDbLine
 10
17567.55723522439
 20
700.8601583302008
 30
0.0
 11
17656.05188927055
 21
707.8804615752524
 31
0.0
  0
LINE
  5
284
330
1F
100
AcDbEntity
  8
0
  6
Continuous
370
    13
100
AcDbLine
 10
17567.50347135797
 20
704.4373496635327
 30
0.0
 11
17600.35326047787
 21
707.0433317270073
 31
0.0
  0
LINE
  5
285
330
1F
100
AcDbEntity
  8
0
  6
Continuous
370
    13
100
AcDbLine
 10
17623.47091948274
 20
687.388522845119
 30
0.0
 11
17667.71824650582
 21
690.8986744676446
 31
0.0
  0
LINE
  5
286
330
1F
100
AcDbEntity
  8
0
  6
Continuous
370
    13
100
AcDbLine
 10
17565.2725730045
 20
686.513823161994
 30
0.0
 11
17546.68972053835
 21
656.2311415871919
 31
0.0
  0
LINE
  5
287
330
1F
100
AcDbEntity
  8
0
  6
Continuous
370
    13
100
AcDbLine
 10
17670.26071579806
 20
688.0917562269436
 30
0.0
 11
17689.74524430132
 21
658.381213348278
 31
0.0
  0
LINE
  5
288
330
1F
100
AcDbEntity
  8
0
  6
Continuous
370
    13
100
AcDbLine
 10
17600.37276187114
 20
687.0413660551715
 30
0.0
 11
17589.34010486663
 21
656.8721611335301
 31
0.0
  0
LINE
  5
289
330
1F
100
AcDbEntity
  8
0
  6
Continuous
370
    13
100
AcDbLine
 10
17600.37276187114
 20
687.0413660551715
 30
0.0
 11
17600.82359988969
 21
657.0447538284376
 31
0.0
  0
LINE
  5
28A
330
1F
100
AcDbEntity
  8
0
  6
Continuous
370
    13
100
AcDbLine
 10
17635.16052693142
 20
687.564213333766
 30
0.0
 11
17647.09485997304
 21
657.74019380194
 31
0.0
  0
LINE
  5
28B
330
1F
100
AcDbEntity
  8
0
  6
Continuous
370
    13
100
AcDbLine
 10
17635.16052693142
 20
687.564213333766
 30
0.0
 11
17635.61136494999
 21
657.5676011070326
 31
0.0
  0
LINE
  5
28C
330
1F
100
AcDbEntity
  8
0
  6
Continuous
 62
     3
370
    50
100
AcDbLine
 10
15377.10063772601
 20
62.66480798225421
 30
0.0
 11
15377.10063772601
 21
185.4915431495559
 31
0.0
  0
LINE
  5
28D
330
1F
100
AcDbEntity
  8
0
  6
Continuous
 62
     3
370
    50
100
AcDbLine
 10
17472.68894001889
 20
624.7365140956981
 30
0.0
 11
17472.68894001889
 21
738.7365140956981
 31
0.0
  0
LINE
  5
28E
330
1F
100
AcDbEntity
  8
0
  6
Continuous
370
    13
100
AcDbLine
 10
17468.2588651988
 20
696.5495609194498
 30
0.0
 11
17430.75946813379
 21
674.8992739295203
 31
0.0
  0
CIRCLE
  5
28F
330
1F
100
AcDbEntity
  8
0
  6
Continuous
370
    13
100
AcDbCircle
 10
17472.58899221772
 20
699.0495609194498
 30
0.0
 40
5.0
  0
HATCH
  5
290
330
1F
100
AcDbEntity
  8
0
  6
Continuous
370
    13
100
AcDbHatch
 10
0.0
 20
0.0
 30
0.0
210
0.0
220
0.0
230
1.0
  2
SOLID
 70
     1
 71
     0
 91
        1
 92
        2
 72
     0
 73
     1
 93
       16
 10
17477.58899221772
 20
699.0495609194498
 10
17477.20838988028
 20
700.9629780812753
 10
17476.12452612365
 20
702.5850948253826
 10
17474.50240937955
 20
703.6689585820063
 10
17472.58899221772
 20
704.0495609194498
 10
17470.6755750559
 20
703.6689585820063
 10
17469.05345831179
 20
702.5850948253826
 10
17467.96959455517
 20
700.9629780812753
 10
17467.58899221772
 20
699.0495609194498
 10
17467.96959455517
 20
697.1361437576244
 10
17469.05345831179
 20
695.5140270135171
 10
17470.6755750559
 20
694.4301632568934
 10
17472.58899221772
 20
694.0495609194498
 10
17474.50240937955
 20
694.4301632568934
 10
17476.12452612365
 20
695.5140270135171
 10
17477.20838988028
 20
697.1361437576244
 97
        0
 75
     0
 76
     1
 98
        0
  0
LINE
  5
291
330
1F
100
AcDbEntity
  8
0
  6
Continuous
370
    13
100
AcDbLine
 10
17651.11318780399
 20
-38.45838200633195
 30
0.0
 11
17406.95829470662
 21
108.6708352767635
 31
0.0
  0
CIRCLE
  5
292
330
1F
100
AcDbEntity
  8
0
  6
Continuous
370
    13
100
AcDbCircle
 10
17655.39572081911
 20
-41.0390623380279
 30
0.0
 40
5.0
  0
HATCH
  5
293
330
1F
100
AcDbEntity
  8
0
  6
Continuous
370
    13
100
AcDbHatch
 10
0.0
 20
0.0
 30
0.0
210
0.0
220
0.0
230
1.0
  2
SOLID
 70
     1
 71
     0
 91
        1
 92
        2
 72
     0
 73
     1
 93
       16
 10
17660.39572081911
 20
-41.0390623380279
 10
17660.01511848166
 20
-39.12564517620245
 10
17658.93125472504
 20
-37.50352843209516
 10
17657.30913798093
 20
-36.41966467547146
 10
17655.39572081911
 20
-36.0390623380279
 10
17653.48230365728
 20
-36.41966467547146
 10
17651.86018691317
 20
-37.50352843209516
 10
17650.77632315655
 20
-39.12564517620245
 10
17650.39572081911
 20
-41.0390623380279
 10
17650.77632315655
 20
-42.95247949985335
 10
17651.86018691317
 20
-44.57459624396063
 10
17653.48230365728
 20
-45.65846000058433
 10
17655.39572081911
 20
-46.0390623380279
 10
17657.30913798093
 20
-45.65846000058433
 10
17658.93125472504
 20
-44.57459624396063
 10
17660.01511848166
 20
-42.95247949985334
 97
        0
 75
     0
 76
     1
 98
        0
  0
LINE
  5
294
330
1F
100
AcDbEntity
  8
0
  6
Continuous
 62
     2
370
    25
100
AcDbLine
 10
17510.87707856879
 20
629.9256182870035
 30
0.0
 11
17517.48468800984
 21
629.9256182870035
 31
0.0
  0
LINE
  5
295
330
1F
100
AcDbEntity
  8
0
  6
Continuous
 62
     2
370
    25
100
AcDbLine
 10
17410.87707856879
 20
618.2017523406173
 30
0.0
 11
17415.14685542593
 21
613.5515650735786
 31
0.0
  0
LINE
  5
296
330
1F
100
AcDbEntity
  8
0
  6
Continuous
 62
     2
370
    25
100
AcDbLine
 10
16554.05874708804
 20
113.3351774649368
 30
0.0
 11
16701.60292962384
 21
116.3308159613769
 31
0.0
  0
LINE
  5
297
330
1F
100
AcDbEntity
  8
0
  6
Continuous
 62
     2
370
    25
100
AcDbLine
 10
16480.68084188873
 20
114.5301240485861
 30
0.0
 11
16554.05874708804
 21
113.3351774649368
 31
0.0
  0
LWPOLYLINE
  5
298
330
1F
100
AcDbEntity
  8
0
  6
Continuous
 62
   100
370
    20
100
AcDbPolyline
 90
       10
 70
   128
 43
0.0
 10
17717.0437898389
 20
69.5905568957686
 10
17707.0437898389
 20
63.57042782611105
 10
17707.0437898389
 20
57.96977302791733
 10
17712.02707170095
 20
54.96977302791767
 10
17707.02707170094
 20
51.96977302791755
 10
17707.0437898389
 20
33.96977302791776
 10
17712.04378983891
 20
35.96977302791754
 10
17714.5437898389
 20
34.96977302791765
 10
17712.04378983891
 20
35.96977302791754
 10
17717.0437898389
 20
33.96977302791776
  0
LWPOLYLINE
  5
299
330
1F
100
AcDbEntity
  8
0
  6
Continuous
 62
     2
370
    25
100
AcDbPolyline
 90
       26
 70
   129
 43
0.0
 10
17757.06050797685
 20
157.9697730279174
 10
17757.06050797685
 20
121.9697730279174
 10
17693.06050797686
 20
121.9697730279174
 10
17693.06050797686
 20
159.9697730279177
 10
17663.3675100329
 20
151.236538338521
 42
0.3327064143891535
 10
17659.06050797685
 20
145.480345329094
 10
17659.06050797685
 20
77.96977302791736
 10
17669.06050797685
 20
77.96977302791736
 10
17669.06050797685
 20
57.96977302791733
 10
17681.06050797686
 20
57.96977302791733
 10
17681.06050797686
 20
67.96977302791757
 10
17693.06050797686
 20
67.96977302791757
 10
17693.06050797686
 20
57.96977302791733
 10
17707.06050797685
 20
57.96977302791733
 10
17707.06050797685
 20
73.96977302791736
 10
17717.06050797686
 20
73.96977302791736
 10
17717.06050797686
 20
33.96977302791776
 10
17729.06050797686
 20
33.96977302791776
 10
17729.06050797686
 20
17.13318684677623
 10
17753.06050797686
 20
17.13318684677623
 10
17765.0437898389
 20
17.13318684677623
 10
17765.0437898389
 20
-2.030226972082272
 10
17789.0437898389
 20
-2.030226972082272
 42
0.414213562373095
 10
17795.0437898389
 20
3.969773027917511
 10
17795.0437898389
 20
146.8431615720528
 42
0.3690359178246986
 10
17789.97996713122
 20
152.7696758998306
  0
LWPOLYLINE
  5
29A
330
1F
100
AcDbEntity
  8
0
  6
Continuous
 62
     2
370
    25
100
AcDbPolyline
 90
       18
 70
   129
 43
0.0
 10
17739.04378983891
 20
-154.0302269720829
 10
17739.04378983891
 20
-74.03022697208279
 10
17761.0437898389
 20
-74.03022697208279
 10
17761.0437898389
 20
9.96977302791774
 10
17725.0437898389
 20
9.96977302791774
 10
17725.0437898389
 20
21.96977302791775
 10
17701.0437898389
 20
21.96977302791775
 10
17701.0437898389
 20
5.969773027917736
 10
17693.0437898389
 20
5.969773027917736
 10
17693.0437898389
 20
21.96977302791775
 10
17677.04378983891
 20
21.96977302791775
 10
17677.04378983891
 20
-14.03022697208228
 10
17614.87809394761
 20
-31.15402176050513
 10
17614.87794137933
 20
-72.33369710131646
 10
17639.0437898389
 20
-72.33369710131646
 10
17639.0437898389
 20
-66.58922674230308
 10
17649.0437898389
 20
-66.58922674230308
 10
17649.0437898389
 20
-154.0302269720829
  0
LWPOLYLINE
  5
29B
330
1F
100
AcDbEntity
  8
0
  6
Continuous
 62
   100
370
    20
100
AcDbPolyline
 90
        4
 70
   129
 43
0.0
 10
17709.06050797685
 20
127.9697730279176
 10
17741.06050797685
 20
127.9697730279176
 10
17741.06050797685
 20
151.9697730279177
 10
17709.06050797685
 20
151.9697730279177
  0
LWPOLYLINE
  5
29C
330
1F
100
AcDbEntity
  8
0
  6
Continuous
 62
   100
370
    20
100
AcDbPolyline
 90
        4
 70
   129
 43
0.0
 10
17739.06050797685
 20
149.9697730279174
 10
17711.06050797685
 20
149.9697730279174
 10
17711.06050797685
 20
129.9697730279174
 10
17739.06050797685
 20
129.9697730279174
  0
LWPOLYLINE
  5
29D
330
1F
100
AcDbEntity
  8
0
  6
Continuous
 62
   100
370
    20
100
AcDbPolyline
 90
        4
 70
   129
 43
0.0
 10
17701.06050797685
 20
127.9697730279176
 10
17749.06050797685
 20
127.9697730279176
 10
17749.06050797685
 20
121.9697730279174
 10
17701.06050797685
 20
121.9697730279174
  0
LWPOLYLINE
  5
29E
330
1F
100
AcDbEntity
  8
0
  6
Continuous
 62
   100
370
    20
100
AcDbPolyline
 90
        4
 70
   128
 43
0.0
 10
17749.06050797685
 20
255.9697730279177
 10
17749.06050797685
 20
121.9697730279174
 10
17741.06050797685
 20
121.9697730279174
 10
17741.06050797685
 20
255.9697730279177
  0
LWPOLYLINE
  5
29F
330
1F
100
AcDbEntity
  8
0
  6
Continuous
 62
   100
370
    20
100
AcDbPolyline
 90
        4
 70
   128
 43
0.0
 10
17709.06050797685
 20
255.9697730279177
 10
17709.06050797685
 20
121.9697730279174
 10
17701.06050797685
 20
121.9697730279174
 10
17701.06050797685
 20
255.9697730279177
  0
LWPOLYLINE
  5
2A0
330
1F
100
AcDbEntity
  8
0
  6
Continuous
 62
     5
370
    90
100
AcDbPolyline
 90
        4
 70
   129
 43
0.0
 10
16701.60292962384
 20
121.1829378556948
 10
16841.60292962384
 20
121.1829378556948
 10
16841.60292962384
 20
-38.81706214430444
 10
16701.60292962384
 20
-38.81706214430444
  0
LWPOLYLINE
  5
2A1
330
1F
100
AcDbEntity
  8
0
  6
Continuous
 62
     5
370
    90
100
AcDbPolyline
 90
        4
 70
   129
 43
0.0
 10
17509.0437898389
 20
-205.4946172057683
 10
17649.0437898389
 20
-204.0302269720818
 10
17649.0437898389
 20
-364.030226972081
 10
17509.0437898389
 20
-364.030226972081
  0
LWPOLYLINE
  5
2A2
330
1F
100
AcDbEntity
  8
0
  6
Continuous
 62
     2
370
    25
100
AcDbPolyline
 90
        2
 70
   128
 43
0.0
 10
17889.0437898389
 20
255.9697730279177
 10
17889.0437898389
 20
-74.03022697208233
  0
LWPOLYLINE
  5
2A3
330
1F
100
AcDbEntity
  8
0
  6
Continuous
 62
     3
370
    50
100
AcDbPolyline
 90
        4
 70
   129
 43
0.0
 10
17649.0437898389
 20
-204.0302269720818
 10
17739.04378983891
 20
-204.0302269720818
 10
17739.04378983891
 20
-154.0302269720829
 10
17649.0437898389
 20
-154.0302269720829
  0
LWPOLYLINE
  5
2A4
330
1F
100
AcDbEntity
  8
0
  6
Continuous
370
    13
100
AcDbPolyline
 90
        4
 70
   129
 43
0.0
 10
17289.0437898389
 20
255.9697730279177
 10
17939.0437898389
 20
255.9697730279177
 10
17939.0437898389
 20
-544.0302269720827
 10
17289.0437898389
 20
-544.0302269720827
  0
LWPOLYLINE
  5
2A5
330
1F
100
AcDbEntity
  8
0
  6
Continuous
370
    13
100
AcDbPolyline
 90
        4
 70
   129
 43
0.0
 10
17289.36569921226
 20
913.1087701992377
 10
17939.0437898389
 20
913.1087701992377
 10
17939.0437898389
 20
375.9697730279177
 10
17289.36569921226
 20
375.9697730279177
  0
LWPOLYLINE
  5
2A6
330
1F
100
AcDbEntity
  8
0
  6
Continuous
 62
     4
370
   100
100
AcDbPolyline
 90
        4
 70
   128
 43
0.0
 10
16839.60308453657
 20
562.2020165250151
 10
16839.60308453657
 20
472.1829378436964
 10
16643.60308453657
 20
472.1829378436964
 10
16643.60308453657
 20
448.1368719095372
  0
LWPOLYLINE
  5
2A7
330
1F
100
AcDbEntity
  8
0
  6
Continuous
 62
     3
370
    50
100
AcDbPolyline
 90
       29
 70
   128
 43
0.0
 10
17588.06940084545
 20
-49.23058011555243
 10
17588.06940084545
 20
-32.05608739613795
 10
17649.30557588979
 20
-15.56942488420454
 10
17649.30557588979
 20
-20.03022697208039
 10
17649.30557588979
 20
-15.56942488420454
 10
17671.04378983891
 20
-9.716828820979684
 10
17671.04378983891
 20
-14.10715004900415
 10
17671.04378983891
 20
11.96977302791774
 10
17676.04378983891
 20
11.96977302791774
 10
17659.0437898389
 20
11.96977302791774
 10
17659.0437898389
 20
1.969773027917732
 10
17659.0437898389
 20
63.2058410054214
 10
17663.06050797686
 20
65.21420007439694
 10
17663.06050797685
 20
71.96977302791757
 10
17663.06050797686
 20
65.21420007439694
 10
17659.0437898389
 20
63.2058410054214
 10
17659.0437898389
 20
11.96977302791774
 10
17671.04378983891
 20
11.96977302791774
 10
17671.04378983891
 20
27.96977302791775
 10
17697.04655705885
 20
27.96977302791775
 10
17697.02255113825
 20
11.96977302791774
 10
17694.0437898389
 20
11.96977302791774
 10
17700.0437898389
 20
11.96977302791774
 10
17697.02255113825
 20
11.96977302791774
 10
17697.04655705885
 20
27.96977302791775
 10
17705.0437898389
 20
27.96977302791775
 10
17705.0437898389
 20
22.96977302791775
 10
17705.0437898389
 20
49.96977302791755
 10
17701.0437898389
 20
49.96977302791755
  0
LWPOLYLINE
  5
2A8
330
1F
100
AcDbEntity
  8
0
  6
Continuous
 62
     2
370
    25
100
AcDbPolyline
 90
        4
 70
   129
 43
0.0
 10
16648.28881157993
 20
229.1976927671044
 10
16248.49211724014
 20
216.4460969854615
 10
16249.44848692376
 20
186.4613449099771
 10
16649.24518126356
 20
199.2129406916206
  0
LWPOLYLINE
  5
2A9
330
1F
100
AcDbEntity
  8
0
  6
Continuous
370
    13
100
AcDbPolyline
 90
        4
 70
   129
 43
0.0
 10
16615.01553563567
 20
197.5278108310727
 10
16495.05908576027
 20
194.2951442394651
 10
16495.17834900064
 20
189.8695734266086
 10
16615.13479887603
 20
193.102240018216
  0
LWPOLYLINE
  5
2AA
330
1F
100
AcDbEntity
  8
0
  6
Continuous
370
    13
100
AcDbPolyline
 90
        4
 70
   129
 43
0.0
 10
16586.98673810729
 20
216.779733049728
 10
16566.99399646139
 20
216.2409552844601
 10
16567.53277422666
 20
196.2482136385613
 10
16587.52551587256
 20
196.7869914038293
  0
LWPOLYLINE
  5
2AB
330
1F
100
AcDbEntity
  8
0
  6
Continuous
370
    13
100
AcDbPolyline
 90
        4
 70
   129
 43
0.0
 10
16522.01032775811
 20
215.0287053126072
 10
16542.00306940401
 20
215.5674830778752
 10
16542.54184716928
 20
195.5747414319765
 10
16522.54910552339
 20
195.0359636667085
  0
LWPOLYLINE
  5
2AC
330
1F
100
AcDbEntity
  8
0
  6
Continuous
370
    13
100
AcDbPolyline
 90
        4
 70
   129
 43
0.0
 10
16605.13842805308
 20
192.8328511355822
 10
16505.17471982359
 20
190.1389623092425
 10
16505.71349758886
 20
170.146220663344
 10
16605.67720581835
 20
172.8401094896836
  0
LWPOLYLINE
  5
2AD
330
1F
100
AcDbEntity
  8
0
  6
Continuous
370
    13
100
AcDbPolyline
 90
        4
 70
   129
 43
0.0
 10
16608.17629852409
 20
172.9074567103421
 10
16503.21440488312
 20
170.0788734426855
 10
16504.02257153103
 20
140.0897609738375
 10
16608.98446517199
 20
142.9183442414939
  0
LWPOLYLINE
  5
2AE
330
1F
100
AcDbEntity
  8
0
  6
Continuous
370
    13
100
AcDbPolyline
 90
        4
 70
   129
 43
0.0
 10
16631.47629952363
 20
143.5244692274204
 10
16481.53073717939
 20
139.483635987911
 10
16481.66543162071
 20
134.4854505764365
 10
16631.61099396495
 20
138.5262838159458
  0
LWPOLYLINE
  5
2AF
330
1F
100
AcDbEntity
  8
0
  6
Continuous
 62
     2
370
    25
100
AcDbPolyline
 90
        4
 70
   129
 43
0.0
 10
15407.87462836082
 20
185.0157184729067
 10
15824.49021809232
 20
195.7068956116527
 10
15825.25982385409
 20
165.7167687867883
 10
15408.64423412258
 20
155.0255916480423
  0
LWPOLYLINE
  5
2B0
330
1F
100
AcDbEntity
  8
0
  6
Continuous
370
    13
100
AcDbPolyline
 90
        4
 70
   129
 43
0.0
 10
15445.0167176481
 20
154.558388243194
 10
15564.97680546433
 20
157.6531145841539
 10
15565.0909796549
 20
153.2274095562155
 10
15445.13089183868
 20
150.1326832152558
  0
LWPOLYLINE
  5
2B1
330
1F
100
AcDbEntity
  8
0
  6
Continuous
370
    13
100
AcDbPolyline
 90
        4
 70
   129
 43
0.0
 10
15471.9917833825
 20
175.2609443323669
 10
15491.98513135187
 20
175.7767320558603
 10
15492.50091907536
 20
155.7833840864907
 10
15472.50757110599
 20
155.2675963629973
  0
LWPOLYLINE
  5
2B2
330
1F
100
AcDbEntity
  8
0
  6
Continuous
370
    13
100
AcDbPolyline
 90
        4
 70
   129
 43
0.0
 10
15536.97016428296
 20
176.9372544337202
 10
15516.97681631358
 20
176.4214667102268
 10
15517.49260403707
 20
156.4281187408573
 10
15537.48595200645
 20
156.9439064643505
  0
LWPOLYLINE
  5
2B3
330
1F
100
AcDbEntity
  8
0
  6
Continuous
370
    13
100
AcDbPolyline
 90
        4
 70
   129
 43
0.0
 10
15455.12756582337
 20
150.3905770770025
 10
15555.09430567021
 20
152.9695156944687
 10
15555.61009339371
 20
132.9761677250995
 10
15455.64335354686
 20
130.3972291076331
  0
LWPOLYLINE
  5
2B4
330
1F
100
AcDbEntity
  8
0
  6
Continuous
370
    13
100
AcDbPolyline
 90
        4
 70
   129
 43
0.0
 10
15453.14418505069
 20
130.3327556421965
 10
15558.10926188988
 20
133.040641190536
 10
15558.88294347512
 20
103.0506192364816
 10
15453.91786663593
 20
100.3427336881421
  0
LWPOLYLINE
  5
2B5
330
1F
100
AcDbEntity
  8
0
  6
Continuous
370
    13
100
AcDbPolyline
 90
        4
 70
   129
 43
0.0
 10
15431.42535017039
 20
99.76247249921202
 10
15581.37545994066
 20
103.6308804254115
 10
15581.50440687153
 20
98.63254343306926
 10
15431.55429710126
 20
94.76413550686988
  0
LWPOLYLINE
  5
2B6
330
1F
100
AcDbEntity
  8
0
  6
Continuous
370
    13
100
AcDbPolyline
 90
        4
 70
   129
 43
0.0
 10
16306.29068186741
 20
186.3805772652547
 10
16186.32113369106
 20
183.6773365505936
 10
16186.42086474528
 20
179.251282500208
 10
16306.39041292163
 20
181.9545232148691
  0
LWPOLYLINE
  5
2B7
330
1F
100
AcDbEntity
  8
0
  6
Continuous
370
    13
100
AcDbPolyline
 90
        4
 70
   129
 43
0.0
 10
16278.34712029122
 20
205.7560092975373
 10
16258.35219559517
 20
205.3054691784272
 10
16258.80273571427
 20
185.3105444823681
 10
16278.79766041034
 20
185.7610846014783
  0
LWPOLYLINE
  5
2B8
330
1F
100
AcDbEntity
  8
0
  6
Continuous
370
    13
100
AcDbPolyline
 90
        4
 70
   129
 43
0.0
 10
16213.36361502902
 20
204.2917539104292
 10
16233.35853972509
 20
204.7422940295394
 10
16233.8090798442
 20
184.7473693334803
 10
16213.81415514814
 20
184.29682921437
  0
LWPOLYLINE
  5
2B9
330
1F
100
AcDbEntity
  8
0
  6
Continuous
370
    13
100
AcDbPolyline
 90
        4
 70
   129
 43
0.0
 10
16296.39295057361
 20
181.729253155314
 10
16196.41832709331
 20
179.4765525597631
 10
16196.86886721243
 20
159.4816278637043
 10
16296.84349069272
 20
161.7343284592552
  0
LWPOLYLINE
  5
2BA
330
1F
100
AcDbEntity
  8
0
  6
Continuous
370
    13
100
AcDbPolyline
 90
        4
 70
   129
 43
0.0
 10
16299.34285627972
 20
161.7906459741439
 10
16194.36950162541
 20
159.4253103488155
 10
16195.04531180408
 20
129.4329233047269
 10
16300.01866645839
 20
131.7982589300553
  0
LWPOLYLINE
  5
2BB
330
1F
100
AcDbEntity
  8
0
  6
Continuous
370
    13
100
AcDbPolyline
 90
        4
 70
   129
 43
0.0
 10
16322.51295674146
 20
132.3051165640543
 10
16172.55102152102
 20
128.9260656707279
 10
16172.6636565508
 20
123.9273344967132
 10
16322.62559177123
 20
127.3063853900396
  0
LWPOLYLINE
  5
2BC
330
1F
100
AcDbEntity
  8
0
  6
Continuous
 62
     2
370
    25
100
AcDbPolyline
 90
        4
 70
   128
 43
0.0
 10
16001.60292962384
 20
181.4072459512211
 10
16247.31262296304
 20
186.5214364628821
 10
16246.68833952327
 20
216.5149402626518
 10
16001.60292962384
 20
211.4738351113479
  0
LWPOLYLINE
  5
2BD
330
1F
100
AcDbEntity
  8
0
  6
Continuous
370
    13
100
AcDbPolyline
 90
        4
 70
   129
 43
0.0
 10
15767.46372479004
 20
162.8308321320575
 10
15887.42401898686
 20
165.9175482209024
 10
15887.53789765403
 20
161.4918355789345
 10
15767.57760345721
 20
158.4051194900897
  0
LWPOLYLINE
  5
2BE
330
1F
100
AcDbEntity
  8
0
  6
Continuous
370
    13
100
AcDbPolyline
 90
        4
 70
   129
 43
0.0
 10
15794.440172862
 20
183.5315869352206
 10
15814.43355522814
 20
184.0460396166948
 10
15814.94800790961
 20
164.0526572505586
 10
15794.95462554348
 20
163.5382045690844
  0
LWPOLYLINE
  5
2BF
330
1F
100
AcDbEntity
  8
0
  6
Continuous
370
    13
100
AcDbPolyline
 90
        4
 70
   129
 43
0.0
 10
15859.41866555195
 20
185.2035581500117
 10
15839.42528318581
 20
184.6891054685375
 10
15839.93973586728
 20
164.6957231024013
 10
15859.93311823342
 20
165.2101757838754
  0
LWPOLYLINE
  5
2C0
330
1F
100
AcDbEntity
  8
0
  6
Continuous
370
    13
100
AcDbPolyline
 90
        4
 70
   129
 43
0.0
 10
15777.57429464028
 20
158.6623458308268
 10
15877.54120647096
 20
161.2346092381972
 10
15878.05565915243
 20
141.2412268720614
 10
15778.08874732175
 20
138.6689634646909
  0
LWPOLYLINE
  5
2C1
330
1F
100
AcDbEntity
  8
0
  6
Continuous
370
    13
100
AcDbPolyline
 90
        4
 70
   129
 43
0.0
 10
15775.58957452599
 20
138.6046568795066
 10
15880.5548319482
 20
141.3055334572456
 10
15881.32651097041
 20
111.3154599080413
 10
15776.3612535482
 20
108.6145833303023
  0
LWPOLYLINE
  5
2C2
330
1F
100
AcDbEntity
  8
0
  6
Continuous
370
    13
100
AcDbPolyline
 90
        4
 70
   129
 43
0.0
 10
15753.8686983863
 20
108.0358240636438
 10
15903.81906613231
 20
111.8942191746997
 10
15903.94767930268
 20
106.8958735831657
 10
15753.99731155666
 20
103.03747847211
  0
LWPOLYLINE
  5
2C3
330
1F
100
AcDbEntity
  8
0
  6
Continuous
 62
     2
370
    25
100
AcDbPolyline
 90
        4
 70
   128
 43
0.0
 10
15981.51919646026
 20
169.7080525415776
 10
15830.89422064094
 20
165.842718795806
 10
15830.12461487918
 20
195.8328456206704
 10
15981.51919646026
 20
199.7179289671022
  0
LWPOLYLINE
  5
2C4
330
1F
100
AcDbEntity
  8
0
  6
Continuous
 62
     2
370
    25
100
AcDbPolyline
 90
        4
 70
   128
 43
0.0
 10
17289.0437898389
 20
-132.5702951911384
 10
17604.62774485472
 20
-126.714120829351
 10
17604.0711418101
 20
-96.7192847229358
 10
17289.0437898389
 20
-102.5651304085409
  0
LWPOLYLINE
  5
2C5
330
1F
100
AcDbEntity
  8
0
  6
Continuous
370
    13
100
AcDbPolyline
 90
        4
 70
   129
 43
0.0
 10
17550.33241117003
 20
-128.2794632892903
 10
17430.35436708257
 20
-130.5748797978689
 10
17430.43905221884
 20
-135.0012472891428
 10
17550.4170963063
 20
-132.7058307805643
  0
LWPOLYLINE
  5
2C6
330
1F
100
AcDbEntity
  8
0
  6
Continuous
370
    13
100
AcDbPolyline
 90
        4
 70
   129
 43
0.0
 10
17522.45487331523
 20
-108.8091555579298
 10
17502.45853263399
 20
-109.1917249760262
 10
17502.84110205208
 20
-129.1880656572693
 10
17522.83744273333
 20
-128.8054962391728
  0
LWPOLYLINE
  5
2C7
330
1F
100
AcDbEntity
  8
0
  6
Continuous
370
    13
100
AcDbPolyline
 90
        4
 70
   129
 43
0.0
 10
17457.46676610118
 20
-110.0525061667432
 10
17477.46310678243
 20
-109.6699367486467
 10
17477.84567620053
 20
-129.6662774298898
 10
17457.84933551928
 20
-130.0488468479864
  0
LWPOLYLINE
  5
2C8
330
1F
100
AcDbEntity
  8
0
  6
Continuous
370
    13
100
AcDbPolyline
 90
        4
 70
   129
 43
0.0
 10
17540.41892596568
 20
-132.8971154896124
 10
17440.43722255946
 20
-134.8099625800946
 10
17440.81979197756
 20
-154.8063032613375
 10
17540.80149538377
 20
-152.8934561708553
  0
LWPOLYLINE
  5
2C9
330
1F
100
AcDbEntity
  8
0
  6
Continuous
370
    13
100
AcDbPolyline
 90
        4
 70
   129
 43
0.0
 10
17543.30103796893
 20
-152.8456349935934
 10
17438.3202493924
 20
-154.8541244385995
 10
17438.89410351955
 20
-184.8486354604642
 10
17543.87489209607
 20
-182.840146015458
  0
LWPOLYLINE
  5
2CA
330
1F
100
AcDbEntity
  8
0
  6
Continuous
370
    13
100
AcDbPolyline
 90
        4
 70
   129
 43
0.0
 10
17566.37077536248
 20
-182.4097554200995
 10
17416.39822025315
 20
-185.2790260558227
 10
17416.49386260768
 20
-190.2781112261334
 10
17566.46641771699
 20
-187.4088405904102
  0
LWPOLYLINE
  5
2CB
330
1F
100
AcDbEntity
  8
0
  6
Continuous
 62
     2
370
    25
100
AcDbPolyline
 90
        4
 70
   128
 43
0.0
 10
17939.61365331616
 20
716.4698060472763
 10
17503.52379761986
 20
710.0298186552391
 10
17503.08081882527
 20
740.0265479734088
 10
17939.03433200726
 20
746.4645219178466
  0
LWPOLYLINE
  5
2CC
330
1F
100
AcDbEntity
  8
0
  6
Continuous
370
    13
100
AcDbPolyline
 90
        4
 70
   129
 43
0.0
 10
17866.50638667123
 20
714.8696363382489
 10
17986.49430319506
 20
716.5725421697722
 10
17986.55712874844
 20
712.1458104532626
 10
17866.56921222461
 20
710.4429046217393
  0
LWPOLYLINE
  5
2CD
330
1F
100
AcDbEntity
  8
0
  6
Continuous
370
    13
100
AcDbPolyline
 90
        4
 70
   129
 43
0.0
 10
17893.71979990268
 20
735.2578716786109
 10
17913.71778598999
 20
735.5416893171982
 10
17914.00160362858
 20
715.5437032298937
 10
17894.00361754127
 20
715.2598855913063
  0
LWPOLYLINE
  5
2CE
330
1F
100
AcDbEntity
  8
0
  6
Continuous
370
    13
100
AcDbPolyline
 90
        4
 70
   129
 43
0.0
 10
17958.71325468643
 20
736.1802790040196
 10
17938.71526859912
 20
735.8964613654322
 10
17938.99908623771
 20
715.8984752781276
 10
17958.99707232501
 20
716.1822929167146
  0
LWPOLYLINE
  5
2CF
330
1F
100
AcDbEntity
  8
0
  6
Continuous
370
    13
100
AcDbPolyline
 90
        4
 70
   129
 43
0.0
 10
17876.56820526826
 20
710.5848134410329
 10
17976.55813570478
 20
712.0039016339688
 10
17976.84195334337
 20
692.0059155466645
 10
17876.85202290685
 20
690.5868273537286
  0
LWPOLYLINE
  5
2D0
330
1F
100
AcDbEntity
  8
0
  6
Continuous
370
    13
100
AcDbPolyline
 90
        4
 70
   129
 43
0.0
 10
17874.35227464594
 20
690.5513501489054
 10
17979.34170160429
 20
692.0413927514879
 10
17979.76742806216
 20
662.0444136205308
 10
17874.77800110382
 20
660.5543710179485
  0
LWPOLYLINE
  5
2D1
330
1F
100
AcDbEntity
  8
0
  6
Continuous
370
    13
100
AcDbPolyline
 90
        4
 70
   129
 43
0.0
 10
17852.2802667556
 20
660.2350761745377
 10
18002.26516241039
 20
662.3637084639415
 10
18002.33611682003
 20
657.3642119421153
 10
17852.35122116525
 20
655.2355796527116
  0
LWPOLYLINE
  5
2D2
330
1F
100
AcDbEntity
  8
0
  6
Continuous
370
    13
100
AcDbPolyline
 90
        4
 70
   129
 43
0.0
 10
17557.4063299375
 20
710.8255327133489
 10
17677.39277884444
 20
712.6288847875775
 10
17677.45931017571
 20
708.2022072160719
 10
17557.47286126878
 20
706.3988551418435
  0
LWPOLYLINE
  5
2D3
330
1F
100
AcDbEntity
  8
0
  6
Continuous
370
    13
100
AcDbPolyline
 90
        4
 70
   129
 43
0.0
 10
17584.60266579964
 20
731.2365423815155
 10
17604.60040728413
 20
731.5371010605536
 10
17604.90096596316
 20
711.5393595760646
 10
17584.90322447868
 20
711.2388008970263
  0
LWPOLYLINE
  5
2D4
330
1F
100
AcDbEntity
  8
0
  6
Continuous
370
    13
100
AcDbPolyline
 90
        4
 70
   129
 43
0.0
 10
17649.59532562423
 20
732.2133580883893
 10
17629.59758413974
 20
731.912799409351
 10
17629.89814281878
 20
711.915057924862
 10
17649.89588430327
 20
712.2156166039001
  0
LWPOLYLINE
  5
2D5
330
1F
100
AcDbEntity
  8
0
  6
Continuous
370
    13
100
AcDbPolyline
 90
        4
 70
   129
 43
0.0
 10
17567.47173201102
 20
706.5491344813627
 10
17667.46043943346
 20
708.0519278765528
 10
17667.7609981125
 20
688.054186392064
 10
17567.77229069006
 20
686.5513929968738
  0
LWPOLYLINE
  5
2D6
330
1F
100
AcDbEntity
  8
0
  6
Continuous
370
    13
100
AcDbPolyline
 90
        4
 70
   129
 43
0.0
 10
17565.2725730045
 20
686.513823161994
 10
17670.26071579806
 20
688.0917562269436
 10
17670.71155381662
 20
658.09514400021
 10
17565.72341102306
 20
656.5172109352604
  0
LWPOLYLINE
  5
2D7
330
1F
100
AcDbEntity
  8
0
  6
Continuous
370
    13
100
AcDbPolyline
 90
        4
 70
   129
 43
0.0
 10
17543.225951853
 20
656.1790824213423
 10
17693.20901298667
 20
658.4332725141279
 10
17693.28415265643
 20
653.4338371430056
 10
17543.30109152276
 20
651.1796470502204
  0
LWPOLYLINE
  5
2D8
330
1F
100
AcDbEntity
  8
0
  6
Continuous
370
    13
100
AcDbPolyline
 90
        2
 70
   129
 43
0.0
 10
17939.0437898389
 20
-826.8912298007629
 10
16674.77406803763
 20
-826.8912298007629
  0
LWPOLYLINE
  5
2D9
330
1F
100
AcDbEntity
  8
0
  6
Continuous
370
    13
100
AcDbPolyline
 90
        4
 70
   129
 43
0.0
 10
16139.04378983872
 20
-666.8912298007637
 10
16139.04378983872
 20
-886.8912298007634
 10
17939.0437898389
 20
-886.8912298007625
 10
17939.0437898389
 20
-666.8912298007627
  0
LWPOLYLINE
  5
2DA
330
1F
100
AcDbEntity
  8
0
  6
Continuous
370
    13
100
AcDbPolyline
 90
        2
 70
   128
 43
0.0
 10
17629.04378983896
 20
-826.8912298007629
 10
17629.04378983896
 20
-666.8912298007627
  0
LWPOLYLINE
  5
2DB
330
1F
100
AcDbEntity
  8
0
  6
Continuous
370
    13
100
AcDbPolyline
 90
        2
 70
   128
 43
0.0
 10
16674.77406803763
 20
-666.8912298007637
 10
16674.77406803763
 20
-886.8912298007643
  0
LWPOLYLINE
  5
2DC
330
1F
100
AcDbEntity
  8
0
  6
Continuous
370
    13
100
AcDbPolyline
 90
        4
 70
   129
 43
0.0
 10
17557.4063299375
 20
710.8255327133489
 10
17677.39277884444
 20
712.6288847875775
 10
17677.45931017571
 20
708.2022072160719
 10
17557.47286126878
 20
706.3988551418435
  0
LWPOLYLINE
  5
2DD
330
1F
100
AcDbEntity
  8
0
  6
Continuous
370
    13
100
AcDbPolyline
 90
        4
 70
   129
 43
0.0
 10
17584.60266579964
 20
731.2365423815155
 10
17604.60040728413
 20
731.5371010605536
 10
17604.90096596316
 20
711.5393595760646
 10
17584.90322447868
 20
711.2388008970263
  0
LWPOLYLINE
  5
2DE
330
1F
100
AcDbEntity
  8
0
  6
Continuous
370
    13
100
AcDbPolyline
 90
        4
 70
   129
 43
0.0
 10
17649.59532562423
 20
732.2133580883893
 10
17629.59758413974
 20
731.912799409351
 10
17629.89814281878
 20
711.915057924862
 10
17649.89588430327
 20
712.2156166039001
  0
LWPOLYLINE
  5
2DF
330
1F
100
AcDbEntity
  8
0
  6
Continuous
370
    13
100
AcDbPolyline
 90
        4
 70
   129
 43
0.0
 10
17567.47173201102
 20
706.5491344813627
 10
17667.46043943346
 20
708.0519278765528
 10
17667.7609981125
 20
688.054186392064
 10
17567.77229069006
 20
686.5513929968738
  0
LWPOLYLINE
  5
2E0
330
1F
100
AcDbEntity
  8
0
  6
Continuous
370
    13
100
AcDbPolyline
 90
        4
 70
   129
 43
0.0
 10
17565.2725730045
 20
686.513823161994
 10
17670.26071579806
 20
688.0917562269436
 10
17670.71155381662
 20
658.09514400021
 10
17565.72341102306
 20
656.5172109352604
  0
LWPOLYLINE
  5
2E1
330
1F
100
AcDbEntity
  8
0
  6
Continuous
370
    13
100
AcDbPolyline
 90
        4
 70
   129
 43
0.0
 10
17543.225951853
 20
656.1790824213423
 10
17693.20901298667
 20
658.4332725141279
 10
17693.28415265643
 20
653.4338371430056
 10
17543.30109152276
 20
651.1796470502204
  0
LWPOLYLINE
  5
2E2
330
1F
100
AcDbEntity
  8
0
  6
Continuous
 62
     3
370
    50
100
AcDbPolyline
 90
        3
 70
   128
 43
0.0
 10
15414.06960476073
 20
-48.78062585956124
 10
15414.06960476073
 20
79.24959981826213
 10
15621.77793902939
 20
85.6014798486457
  0
LWPOLYLINE
  5
2E4
330
1F
100
AcDbEntity
  8
0
  6
Przerywana b. gęsta
 62
     3
370
    50
100
AcDbPolyline
 90
        2
 70
   128
 43
0.0
 10
15434.59077030397
 20
79.89174884819255
 10
15377.10063772601
 20
78.67994466682927
  0
LWPOLYLINE
  5
2E5
330
1F
100
AcDbEntity
  8
0
  6
Continuous
 62
     3
370
    50
100
AcDbPolyline
 90
        3
 70
   128
 43
0.0
 10
17526.99731269871
 20
521.4244517520624
 10
17526.99731269871
 20
635.4239828236832
 10
17734.70564696737
 20
641.7758628540666
  0
LWPOLYLINE
  5
2E6
330
1F
100
AcDbEntity
  8
0
  6
Continuous
 62
     3
370
    50
100
AcDbPolyline
 90
        2
 70
   128
 43
0.0
 10
17547.01879143496
 20
636.0467480069782
 10
17526.99731269871
 20
635.4239828236832
  0
LWPOLYLINE
  5
2E7
330
1F
100
AcDbEntity
  8
0
  6
Continuous
 62
     3
370
    50
100
AcDbPolyline
 90
        2
 70
   128
 43
0.0
 10
17504.519594081
 20
642.5860488092952
 10
17504.60390368953
 20
622.5550643315069
  0
LWPOLYLINE
  5
2E8
330
1F
100
AcDbEntity
  8
0
  6
Przerywana b. gęsta
 62
     3
370
    50
100
AcDbPolyline
 90
        2
 70
   128
 43
0.0
 10
17504.54995882672
 20
635.3717376428114
 10
17472.68894001889
 20
635.3717376428114
  0
CIRCLE
  5
2E9
330
1F
100
AcDbEntity
  8
0
  6
Continuous
370
    13
100
AcDbCircle
 10
16521.60292962384
 20
374.0953531624444
 30
0.0
 40
29.99999999999936
  0
CIRCLE
  5
2EA
330
1F
100
AcDbEntity
  8
0
  6
Continuous
370
    13
100
AcDbCircle
 10
17148.12566508197
 20
331.2163210941471
 30
0.0
 40
29.99999999999936
  0
CIRCLE
  5
2EB
330
1F
100
AcDbEntity
  8
0
  6
Continuous
370
    13
100
AcDbCircle
 10
16521.60292962384
 20
786.1160902873978
 30
0.0
 40
29.99999999999936
  0
CIRCLE
  5
2EC
330
1F
100
AcDbEntity
  8
0
  6
Continuous
370
    13
100
AcDbCircle
 10
17153.31655347279
 20
-199.5038228905378
 30
0.0
 40
29.99999999999936
  0
CIRCLE
  5
2ED
330
1F
100
AcDbEntity
  8
0
  6
Continuous
370
    13
100
AcDbCircle
 10
15215.57067249787
 20
-417.8609049298263
 30
0.0
 40
29.99999999999936
  0
CIRCLE
  5
2EE
330
1F
100
AcDbEntity
  8
0
  6
Continuous
370
    13
100
AcDbCircle
 10
15215.57067249787
 20
-277.8609049298257
 30
0.0
 40
29.99999999999936
  0
CIRCLE
  5
2EF
330
1F
100
AcDbEntity
  8
0
  6
Continuous
370
    13
100
AcDbCircle
 10
15215.57067249787
 20
-517.8609049298266
 30
0.0
 40
29.99999999999936
  0
CIRCLE
  5
2F0
330
1F
100
AcDbEntity
  8
0
  6
Continuous
370
    13
100
AcDbCircle
 10
15215.57067249787
 20
-207.8609049298254
 30
0.0
 40
29.99999999999936
  0
CIRCLE
  5
2F1
330
1F
100
AcDbEntity
  8
0
  6
Continuous
370
    13
100
AcDbCircle
 10
15215.57067249787
 20
-347.860904929826
 30
0.0
 40
29.99999999999936
  0
CIRCLE
  5
2F2
330
1F
100
AcDbEntity
  8
0
  6
Continuous
370
    13
100
AcDbCircle
 10
15215.57067249787
 20
-587.860904929827
 30
0.0
 40
29.99999999999936
  0
CIRCLE
  5
2F3
330
1F
100
AcDbEntity
  8
0
  6
Continuous
370
    13
100
AcDbCircle
 10
15215.57067249787
 20
-657.8609049298273
 30
0.0
 40
29.99999999999936
  0
CIRCLE
  5
2F4
330
1F
100
AcDbEntity
  8
0
  6
Continuous
370
    13
100
AcDbCircle
 10
15336.60292962385
 20
16.18293785569203
 30
0.0
 40
6.000000000000227
  0
CIRCLE
  5
2F5
330
1F
100
AcDbEntity
  8
0
  6
Continuous
370
    13
100
AcDbCircle
 10
15336.60292962385
 20
241.1829378556838
 30
0.0
 40
6.000000000000227
  0
CIRCLE
  5
2F6
330
1F
100
AcDbEntity
  8
0
  6
Continuous
370
    13
100
AcDbCircle
 10
15497.01084309823
 20
251.8270181390744
 30
0.0
 40
29.99999999999936
  0
CIRCLE
  5
2F7
330
1F
100
AcDbEntity
  8
0
  6
Continuous
370
    13
100
AcDbCircle
 10
15218.08593212188
 20
216.3271201763254
 30
0.0
 40
29.99999999999936
  0
CIRCLE
  5
2F8
330
1F
100
AcDbEntity
  8
0
  6
Continuous
370
    13
100
AcDbCircle
 10
15215.57067249787
 20
-759.7391606277864
 30
0.0
 40
29.99999999999936
  0
CIRCLE
  5
2F9
330
1F
100
AcDbEntity
  8
0
  6
Continuous
370
    13
100
AcDbCircle
 10
17153.31655347279
 20
-199.5038228905378
 30
0.0
 40
29.99999999999936
  0
CIRCLE
  5
2FA
330
1F
100
AcDbEntity
  8
0
  6
Continuous
370
    13
100
AcDbCircle
 10
17381.2630966159
 20
42.95975823883534
 30
0.0
 40
29.99999999999936
  0
CIRCLE
  5
2FB
330
1F
100
AcDbEntity
  8
0
  6
Continuous
370
    13
100
AcDbCircle
 10
17381.2630966159
 20
124.1549172669389
 30
0.0
 40
29.99999999999936
  0
CIRCLE
  5
2FC
330
1F
100
AcDbEntity
  8
0
  6
Continuous
370
    13
100
AcDbCircle
 10
17381.2630966159
 20
-37.04024176116466
 30
0.0
 40
29.99999999999936
  0
ARC
  5
2FD
330
1F
100
AcDbEntity
  8
0
  6
Continuous
 62
   100
370
    20
100
AcDbCircle
 10
17690.63880089763
 20
164.3914801071308
 30
0.0
 40
10.69937585200746
100
AcDbArc
 50
283.0817443909232
 51
346.918255609333
  0
ARC
  5
2FE
330
1F
100
AcDbEntity
  8
0
  6
Continuous
 62
   100
370
    20
100
AcDbCircle
 10
17759.48221505608
 20
162.3914801071311
 30
0.0
 40
10.69937585200746
100
AcDbArc
 50
193.081744390667
 51
256.9182556090768
  0
CIRCLE
  5
2FF
330
1F
100
AcDbEntity
  8
0
  6
Continuous
370
    13
100
AcDbCircle
 10
16521.60292962384
 20
294.0953531624443
 30
0.0
 40
29.99999999999936
  0
CIRCLE
  5
300
330
1F
100
AcDbEntity
  8
0
  6
Continuous
370
    13
100
AcDbCircle
 10
15215.57067249787
 20
-829.7391606277868
 30
0.0
 40
29.99999999999936
  0
CIRCLE
  5
301
330
1F
100
AcDbEntity
  8
0
  6
Continuous
370
    13
100
AcDbCircle
 10
15209.8944013234
 20
101.3786803199066
 30
0.0
 40
29.99999999999936
  0
CIRCLE
  5
302
330
1F
100
AcDbEntity
  8
0
  6
Continuous
370
    13
100
AcDbCircle
 10
17402.15892887579
 20
665.8433833520302
 30
0.0
 40
29.99999999999936
  0
ARC
  5
303
330
1F
100
AcDbEntity
  8
0
  6
Continuous
370
    13
100
AcDbCircle
 10
17630.78763420093
 20
-72.85929374357022
 30
0.0
 40
15.90976579608494
100
AcDbArc
 50
180.0
 51
271.226621207998
  0
ARC
  5
304
330
1F
100
AcDbEntity
  8
0
  6
Continuous
370
    13
100
AcDbCircle
 10
16677.24842411793
 20
467.1621188060794
 30
0.0
 40
15.90976579608494
100
AcDbArc
 50
180.0
 51
271.226621207998
  0
LWPOLYLINE
  5
305
330
1F
100
AcDbEntity
  8
0
  6
Continuous
 62
     2
370
    25
100
AcDbPolyline
 90
        6
 70
   128
 43
0.0
 10
17449.0437898389
 20
255.9697730279177
 10
17449.0437898389
 20
121.9237070937595
 10
17455.01562838458
 20
121.9237070937595
 10
17455.01562838458
 20
145.9697730279187
 10
17469.04378983891
 20
145.9697730279187
 10
17469.04378983891
 20
-99.2249371941272
  0
MTEXT
  5
307
330
1F
100
AcDbEntity
  8
0
  6
Continuous
370
    13
100
AcDbMText
 10
17629.04378983891
 20
-720.3198012293341
 30
0.0
 40
15.0
 41
0.0
 71
     1
 72
     1
  1
{ nr  rys:}
  7
GENERATED_STYLE_1
 73
     1
 44
1.0
  0
MTEXT
  5
308
330
1F
100
AcDbEntity
  8
0
  6
Continuous
370
    13
100
AcDbMText
 10
16153.53980074131
 20
246.8146741667321
 30
0.0
 40
20.0
 41
0.0
 71
     1
 72
     1
  1
{1,5 %}
  7
GENERATED_STYLE_1
 11
0.9997684853097139
 21
0.02151687201989314
 31
0.0
 73
     1
 44
1.0
  0
MTEXT
  5
30A
330
1F
100
AcDbEntity
  8
0
  6
Continuous
370
    13
100
AcDbMText
 10
15255.04328124581
 20
-444.8014591250721
 30
0.0
 40
20.0
 41
0.0
 71
     4
 72
     1
  3
\A1;{\fArial|b0|i0|c238|p38;- TAŚMA USZCZELNIAJĄCA SAMOPRZYLEPNA \fArial|b1|i0|c238|p38;BOTAMENT PB Portaldichtband\fArial|b0|i0|c238|p38;; \P  mocowana do stolarki, w miejscach termołączników; do uszczelniania spoin, przyłączeń, \P  narożnych i dyl
  1
atacyjnych, wklejona w izolację \fArial|b1|i0|c238|p38;BOTAMENT RD2\fArial|b0|i0|c238|p38; }
  7
GENERATED_STYLE_1
 73
     1
 44
0.9293313883084477
  0
MTEXT
  5
30B
330
1F
100
AcDbEntity
  8
0
  6
Continuous
370
    13
100
AcDbMText
 10
15255.04328124581
 20
-219.8210938017191
 30
0.0
 40
20.0
 41
0.0
 71
     4
 72
     1
  1
{- SYSTEM OCIEPLEŃ\P  }
  7
GENERATED_STYLE_1
 73
     1
 44
1.0
  0
MTEXT
  5
30C
330
1F
100
AcDbEntity
  8
0
  6
Continuous
370
    13
100
AcDbMText
 10
15255.04328124581
 20
-332.9350630123865
 30
0.0
 40
20.0
 41
0.0
 71
     1
 72
     1
  1
{- PROFIL OKNA NA PODWALINIE TEROIZOLACYJNEJ}
  7
GENERATED_STYLE_1
 73
     1
 44
1.0
  0
MTEXT
  5
30D
330
1F
100
AcDbEntity
  8
0
  6
Continuous
370
    13
100
AcDbMText
 10
15255.04328124581
 20
-576.1466192155407
 30
0.0
 40
20.0
 41
0.0
 71
     1
 72
     1
  1
{- BALUSTRADA STALOWA\P  (mocowana do spodu lub do czoła płyty balkonowej)}
  7
GENERATED_STYLE_1
 73
     1
 44
0.9216692827178629
  0
MTEXT
  5
30E
330
1F
100
AcDbEntity
  8
0
  6
Continuous
370
    13
100
AcDbMText
 10
15255.04328124581
 20
-646.1466192155409
 30
0.0
 40
20.0
 41
0.0
 71
     1
 72
     1
  1
{- TERMOŁĄCZNIK ZBROJENIA \P  pozwala na konstrukcyjne i termoizolowane połączenie balkonu \P  wspornikowego do wieńca stropu}
  7
GENERATED_STYLE_1
 73
     1
 44
0.9352813638102797
  0
MTEXT
  5
30F
330
1F
100
AcDbEntity
  8
0
  6
Continuous
370
    13
100
AcDbMText
 10
16713.54076858051
 20
-754.7571466303219
 30
0.0
 40
29.99999999999998
 41
0.0
 71
     4
 72
     1
  1
{IZOLACJA BALKONU Z TERMOŁĄCZNIKIEM;\PŚCIANA 2-WARSTWOWA\PPOSADZKA -PŁYTY NA DYSTANSACH}
  7
GENERATED_STYLE_2
 73
     1
 44
0.8581905182950614
  0
MTEXT
  5
310
330
1F
100
AcDbEntity
  8
0
  6
Continuous
370
    13
100
AcDbMText
 10
16521.60292962384
 20
376.351781733873
 30
0.0
 40
30.0
 41
0.0
 71
     5
 72
     1
  1
{02}
  7
GENERATED_STYLE_1
 73
     1
 44
1.0
  0
MTEXT
  5
311
330
1F
100
AcDbEntity
  8
0
  6
Continuous
370
    13
100
AcDbMText
 10
17148.12566508196
 20
333.4727496655757
 30
0.0
 40
30.0
 41
0.0
 71
     5
 72
     1
  1
{04}
  7
GENERATED_STYLE_1
 73
     1
 44
1.0
  0
MTEXT
  5
312
330
1F
100
AcDbEntity
  8
0
  6
Continuous
370
    13
100
AcDbMText
 10
16521.60292962385
 20
788.3725188588263
 30
0.0
 40
30.0
 41
0.0
 71
     5
 72
     1
  1
{01}
  7
GENERATED_STYLE_1
 73
     1
 44
1.0
  0
MTEXT
  5
313
330
1F
100
AcDbEntity
  8
0
  6
Continuous
370
    13
100
AcDbMText
 10
17153.31655347279
 20
-197.2473943191092
 30
0.0
 40
30.0
 41
0.0
 71
     5
 72
     1
  1
{07}
  7
GENERATED_STYLE_1
 73
     1
 44
1.0
  0
MTEXT
  5
314
330
1F
100
AcDbEntity
  8
0
  6
Continuous
370
    13
100
AcDbMText
 10
15215.57067249787
 20
-515.604476358398
 30
0.0
 40
30.0
 41
0.0
 71
     5
 72
     1
  1
{05}
  7
GENERATED_STYLE_1
 73
     1
 44
1.0
  0
MTEXT
  5
315
330
1F
100
AcDbEntity
  8
0
  6
Continuous
370
    13
100
AcDbMText
 10
15215.57067249787
 20
-415.6044763583977
 30
0.0
 40
30.0
 41
0.0
 71
     5
 72
     1
  1
{04}
  7
GENERATED_STYLE_1
 73
     1
 44
1.0
  0
MTEXT
  5
316
330
1F
100
AcDbEntity
  8
0
  6
Continuous
370
    13
100
AcDbMText
 10
15296.57067249787
 20
-149.0083870170277
 30
0.0
 40
30.0
 41
0.0
 71
     5
 72
     1
  1
{\LLEGENDA:}
  7
GENERATED_STYLE_1
 73
     1
 44
1.0
  0
MTEXT
  5
317
330
1F
100
AcDbEntity
  8
0
  6
Continuous
370
    13
100
AcDbMText
 10
15215.57067249787
 20
-205.6044763583969
 30
0.0
 40
30.0
 41
0.0
 71
     5
 72
     1
  1
{01}
  7
GENERATED_STYLE_1
 73
     1
 44
1.0
  0
MTEXT
  5
318
330
1F
100
AcDbEntity
  8
0
  6
Continuous
370
    13
100
AcDbMText
 10
15215.57067249787
 20
-275.6044763583971
 30
0.0
 40
30.0
 41
0.0
 71
     5
 72
     1
  1
{02}
  7
GENERATED_STYLE_1
 73
     1
 44
1.0
  0
MTEXT
  5
319
330
1F
100
AcDbEntity
  8
0
  6
Continuous
370
    13
100
AcDbMText
 10
15215.57067249787
 20
-345.6044763583974
 30
0.0
 40
30.0
 41
0.0
 71
     5
 72
     1
  1
{03}
  7
GENERATED_STYLE_1
 73
     1
 44
1.0
  0
MTEXT
  5
31A
330
1F
100
AcDbEntity
  8
0
  6
Continuous
370
    13
100
AcDbMText
 10
15215.57067249787
 20
-585.6044763583985
 30
0.0
 40
30.0
 41
0.0
 71
     5
 72
     1
  1
{06}
  7
GENERATED_STYLE_1
 73
     1
 44
1.0
  0
MTEXT
  5
31B
330
1F
100
AcDbEntity
  8
0
  6
Continuous
370
    13
100
AcDbMText
 10
15215.57067249787
 20
-655.6044763583988
 30
0.0
 40
30.0
 41
0.0
 71
     5
 72
     1
  1
{07}
  7
GENERATED_STYLE_1
 73
     1
 44
1.0
  0
MTEXT
  5
31C
330
1F
100
AcDbEntity
  8
0
  6
Continuous
370
    13
100
AcDbMText
 10
17654.75807555319
 20
-687.9398012293354
 30
0.0
 40
15.0
 41
0.0
 71
     5
 72
     1
  1
{ data:}
  7
GENERATED_STYLE_1
 73
     1
 44
1.0
  0
MTEXT
  5
31D
330
1F
100
AcDbEntity
  8
0
  6
Continuous
370
    13
100
AcDbMText
 10
17745.32950412462
 20
-699.6726259011514
 30
0.0
 40
20.0
 41
0.0
 71
     5
 72
     1
  1
{2021.11.}
  7
GENERATED_STYLE_1
 73
     1
 44
1.0
  0
MTEXT
  5
31E
330
1F
100
AcDbEntity
  8
0
  6
Continuous
370
    13
100
AcDbMText
 10
15611.23902707825
 20
642.5228783988862
 30
0.0
 40
19.99999999999999
 41
0.0
 71
     1
 72
     1
  3
\A1;{\fArial|b0|i0|c238|p38;• PŁYTY NA PODKŁADACH DYSTANSOWYCH\P  (płyty ceramiczne, kamienne, betonowe itp.)\P• IZOLACJA PRZECIWWILGOCIOWA - \fArial|b1|i0|c238|p38;BOTAMENT\fArial|b0|i0|c238|p38; \fArial|b1|i0|c238|p38;RD2\fArial|b0|i0|c238|p38; \P
  3
  lub \fArial|b1|i0|c238|p38;BOTAMENT RD1\fArial|b0|i0|c238|p38; \fArial|b1|i0|c238|p38;Universal\fArial|b0|i0|c238|p38; \fArial|b1|i0|c238|p38;min.\fArial|b0|i0|c238|p38; \fArial|b1|i0|c238|p38;2 mm\P\fArial|b0|i0|c238|p38;• PŁYTA ŻELBETOWA POZIOMA
  1
 Z WARSTWĄ SPADKOWĄ 1,5%\P  WYKONANĄ Z \fArial|b1|i0|c238|p38;BOTAMENT M100 / BOTAMENT M80\P\fArial|b0|i0|c238|p38;  lub PŁYTA ŻELBETOWA ZE SPADKIEM 1,5%}
  7
GENERATED_STYLE_1
 73
     1
 44
0.896768372881724
  0
MTEXT
  5
31F
330
1F
100
AcDbEntity
  8
0
  6
Continuous
370
    13
100
AcDbMText
 10
15255.04328124581
 20
-262.9350630123862
 30
0.0
 40
20.0
 41
0.0
 71
     1
 72
     1
  1
\A1;{\fArial|b0|i0|c238|p38;- SILIKON - \fArial|b1|i0|c238|p38;BOTAMENT S5 SUPAX \P\fArial|b0|i0|c238|p38;  (wypełnienie spoin elastycznych)}
  7
GENERATED_STYLE_1
 73
     1
 44
0.9216692827178634
  0
MTEXT
  5
320
330
1F
100
AcDbEntity
  8
0
  6
Continuous
370
    13
100
AcDbMText
 10
15497.01084309823
 20
253.226330308747
 30
0.0
 40
30.0
 41
0.0
 71
     5
 72
     1
  1
{08}
  7
GENERATED_STYLE_1
 73
     1
 44
1.0
  0
MTEXT
  5
321
330
1F
100
AcDbEntity
  8
0
  6
Continuous
370
    13
100
AcDbMText
 10
15218.08593212188
 20
218.5835487477541
 30
0.0
 40
30.0
 41
0.0
 71
     5
 72
     1
  1
{06}
  7
GENERATED_STYLE_1
 73
     1
 44
1.0
  0
MTEXT
  5
322
330
1F
100
AcDbEntity
  8
0
  6
Continuous
370
    13
100
AcDbMText
 10
15188.08593212189
 20
-79.51723301311428
 30
0.0
 40
20.0
 41
629.2282939727336
 71
     4
 72
     1
  1
{BALUSTRADA \PMOCOWANA DO CZOŁA}
  7
GENERATED_STYLE_1
 73
     1
 44
0.9237125406573476
  0
MTEXT
  5
323
330
1F
100
AcDbEntity
  8
0
  6
Continuous
370
    13
100
AcDbMText
 10
15255.04328124581
 20
-743.4351606277858
 30
0.0
 40
20.0
 41
0.0
 71
     1
 72
     1
  1
\A1;{\fArial|b0|i0|c238|p38;- BUTYLOWA TAŚMA USZCZELNIAJĄCA\fArial|b1|i0|c238|p38; BOTAMENT BD \P\fArial|b0|i0|c238|p38;  (samoprzylepna)}
  7
GENERATED_STYLE_1
 73
     1
 44
0.9186980100444313
  0
MTEXT
  5
324
330
1F
100
AcDbEntity
  8
0
  6
Continuous
370
    13
100
AcDbMText
 10
15215.57067249787
 20
-758.3398519055745
 30
0.0
 40
30.0
 41
0.0
 71
     5
 72
     1
  1
{08}
  7
GENERATED_STYLE_1
 73
     1
 44
1.0
  0
MTEXT
  5
325
330
1F
100
AcDbEntity
  8
0
  6
Continuous
370
    13
100
AcDbMText
 10
17153.31655347279
 20
-197.2473943191092
 30
0.0
 40
30.0
 41
0.0
 71
     5
 72
     1
  1
{07}
  7
GENERATED_STYLE_1
 73
     1
 44
1.0
  0
MTEXT
  5
326
330
1F
100
AcDbEntity
  8
0
  6
Continuous
370
    13
100
AcDbMText
 10
17381.2630966159
 20
45.21618681026391
 30
0.0
 40
30.0
 41
0.0
 71
     5
 72
     1
  1
{02}
  7
GENERATED_STYLE_1
 73
     1
 44
1.0
  0
MTEXT
  5
327
330
1F
100
AcDbEntity
  8
0
  6
Continuous
370
    13
100
AcDbMText
 10
17381.2630966159
 20
126.4113458383674
 30
0.0
 40
30.0
 41
0.0
 71
     5
 72
     1
  1
{03}
  7
GENERATED_STYLE_1
 73
     1
 44
1.0
  0
MTEXT
  5
328
330
1F
100
AcDbEntity
  8
0
  6
Continuous
370
    13
100
AcDbMText
 10
17381.2630966159
 20
-34.78381318973609
 30
0.0
 40
30.0
 41
0.0
 71
     5
 72
     1
  1
{04}
  7
GENERATED_STYLE_1
 73
     1
 44
1.0
  0
MTEXT
  5
329
330
1F
100
AcDbEntity
  8
0
  6
Continuous
370
    13
100
AcDbMText
 10
15255.04328124581
 20
-500.7188361129128
 30
0.0
 40
20.0
 41
0.0
 71
     1
 72
     1
  1
\A1;{\fArial|b0|i0|c238|p38;- TAŚMA USZCZELNIAJĄCA \fArial|b1|i0|c238|p38;BOTAMENT SB78}
  7
GENERATED_STYLE_1
 73
     1
 44
1.0
  0
MTEXT
  5
32A
330
1F
100
AcDbEntity
  8
0
  6
Continuous
370
    13
100
AcDbMText
 10
16521.60292962384
 20
295.4946396471841
 30
0.0
 40
30.0
 41
0.0
 71
     5
 72
     1
  1
{05}
  7
GENERATED_STYLE_1
 73
     1
 44
1.0
  0
MTEXT
  5
32B
330
1F
100
AcDbEntity
  8
0
  6
Continuous
370
    13
100
AcDbMText
 10
15255.04328124581
 20
-814.1757320563576
 30
0.0
 40
20.0
 41
0.0
 71
     1
 72
     1
  1
{- PROFIL OSŁONOWY UMOŻLIWAJĄCY ODWODNIENIE \P  LUB OBRÓBKA BLACHARSKA}
  7
GENERATED_STYLE_1
 73
     1
 44
0.8097007051757051
  0
MTEXT
  5
32C
330
1F
100
AcDbEntity
  8
0
  6
Continuous
370
    13
100
AcDbMText
 10
15215.57067249787
 20
-828.339851905575
 30
0.0
 40
30.0
 41
0.0
 71
     5
 72
     1
  1
{09}
  7
GENERATED_STYLE_1
 73
     1
 44
1.0
  0
MTEXT
  5
32D
330
1F
100
AcDbEntity
  8
0
  6
Continuous
370
    13
100
AcDbMText
 10
15209.89440132339
 20
102.7779890421185
 30
0.0
 40
29.99999999999999
 41
0.0
 71
     5
 72
     1
  1
{09}
  7
GENERATED_STYLE_1
 73
     1
 44
1.0
  0
MTEXT
  5
32E
330
1F
100
AcDbEntity
  8
0
  6
Continuous
370
    13
100
AcDbMText
 10
17828.61521841025
 20
-680.319801229334
 30
0.0
 40
15.0
 41
0.0
 71
     2
 72
     1
  1
{ skala:}
  7
GENERATED_STYLE_1
 73
     1
 44
1.0
  0
MTEXT
  5
32F
330
1F
100
AcDbEntity
  8
0
  6
Continuous
370
    13
100
AcDbMText
 10
17860.47213056776
 20
-710.4540711246042
 30
0.0
 40
20.0
 41
0.0
 71
     7
 72
     1
  1
{1:10  }
  7
GENERATED_STYLE_1
 73
     1
 44
1.0
  0
MTEXT
  5
330
330
1F
100
AcDbEntity
  8
0
  6
Continuous
 62
    20
370
    20
100
AcDbMText
 10
17929.04378983868
 20
-811.0990670191754
 30
0.0
 40
30.00000000000001
 41
0.0
 71
     9
 72
     1
  1
{\P\C256;\H1.333333x;03.21.10.}
  7
GENERATED_STYLE_2
 73
     1
 44
1.068159463616948
  0
MTEXT
  5
331
330
1F
100
AcDbEntity
  8
0
  6
Continuous
370
    13
100
AcDbMText
 10
16685.043789839
 20
-858.4767130847874
 30
0.0
 40
15.0
 41
0.0
 71
     4
 72
     1
  1
{Rysunek nie wyczerpuje wszystkich aspektów technicznych zagadnienia, a jego integralną częścią są karty techniczne \Pposzczególnych produktów. Szczegółowych informacji udzielają technicy zastosowań i doradcy handlowo-techniczni Botament. }
  7
GENERATED_STYLE_1
 73
     1
 44
0.9278263558916976
  0
MTEXT
  5
332
330
1F
100
AcDbEntity
  8
0
  6
Continuous
370
    13
100
AcDbMText
 10
16406.65943533723
 20
-856.621659754252
 30
0.0
 40
15.0
 41
0.0
 71
     5
 72
     1
  1
{ ul. Prądzyńskiego 20, 63-000 Środa Wlkp., botament.pl\P +48 606-318-643, 61-286-45-17, technik@botament.pl  }
  7
GENERATED_STYLE_1
 73
     1
 44
0.9181612291118321
  0
MTEXT
  5
333
330
1F
100
AcDbEntity
  8
0
  6
Continuous
370
    13
100
AcDbMText
 10
17402.15892887579
 20
667.2426920742421
 30
0.0
 40
29.99999999999999
 41
0.0
 71
     5
 72
     1
  1
{09}
  7
GENERATED_STYLE_1
 73
     1
 44
1.0
  0
HATCH
  5
334
330
1F
100
AcDbEntity
  8
0
  6
Continuous
370
    13
100
AcDbHatch
 10
0.0
 20
0.0
 30
0.0
210
0.0
220
0.0
230
1.0
  2
beton_zbrojony_0002
 70
     0
 71
     0
 91
        1
 92
        2
 72
     0
 73
     1
 93
       18
 10
17533.37771669611
 20
609.3746792318258
 10
17533.37771669611
 20
514.8559392212886
 10
17579.52987588812
 20
514.8559392212886
 10
17579.52987588812
 20
579.7297789885994
 10
17589.52987588812
 20
579.7297789885994
 10
17589.52987588812
 20
514.8559392212886
 10
17658.85113216172
 20
514.8559392212886
 10
17658.85113216172
 20
579.7297789885994
 10
17668.85113216172
 20
579.7297789885994
 10
17668.85113216172
 20
514.8559392212886
 10
17938.7895190179
 20
514.8559392212886
 10
17938.7895190179
 20
640.9371162561152
 10
17533.37771669611
 20
634.8559392212885
 10
17533.37771669611
 20
625.7592838052957
 10
17533.37771669611
 20
616.3371992107511
 10
17586.01018410775
 20
616.3371992107511
 10
17590.18178909829
 20
612.8559392212884
 10
17586.01018410775
 20
609.3746792318258
 97
        0
 75
     0
 76
     2
 52
0.0
 41
1.0
 77
     0
 78
     2
 53
44.99999999999999
 43
0.0
 44
0.0
 45
-18.38477563650066
 46
18.38477563650066
 79
     0
 53
44.99999999999999
 43
-9.192387818250328
 44
9.19238781825033
 45
-18.38477563650066
 46
18.38477563650066
 79
     2
 49
19.49999928474426
 49
-6.49999976158142
 98
        0
  0
LINE
  5
335
330
1F
100
AcDbEntity
  8
0
  6
Continuous
 62
     2
370
    25
100
AcDbLine
 10
17464.3777166961
 20
913.1087701992377
 30
0.0
 11
17464.3777166961
 21
789.7855448150328
 31
0.0
  0
LINE
  5
336
330
1F
100
AcDbEntity
  8
0
  6
Continuous
 62
     2
370
    25
100
AcDbLine
 10
17452.3777166961
 20
913.1087701992377
 30
0.0
 11
17452.3777166961
 21
784.8559392212758
 31
0.0
  0
LINE
  5
337
330
1F
100
AcDbEntity
  8
0
  6
Continuous
 62
     3
370
    50
100
AcDbLine
 10
17533.37771669611
 20
514.8559392212886
 30
0.0
 11
17533.37771669611
 21
635.3421073990435
 31
0.0
  0
LINE
  5
338
330
1F
100
AcDbEntity
  8
0
  6
Continuous
 62
     2
370
    25
100
AcDbLine
 10
17410.87707856879
 20
618.2017523406173
 30
0.0
 11
17410.87707856879
 21
608.2017523406175
 31
0.0
  0
LINE
  5
339
330
1F
100
AcDbEntity
  8
0
  6
Continuous
 62
     2
370
    25
100
AcDbLine
 10
17510.87707856879
 20
629.9256182870035
 30
0.0
 11
17510.87707856879
 21
608.2017523406175
 31
0.0
  0
LINE
  5
33A
330
1F
100
AcDbEntity
  8
0
  6
Continuous
 62
     2
370
    25
100
AcDbLine
 10
17517.87996361343
 20
608.2017523406175
 30
0.0
 11
17517.87996361343
 21
624.062885418721
 31
0.0
  0
LINE
  5
33B
330
1F
100
AcDbEntity
  8
0
  6
Continuous
 62
     2
370
    25
100
AcDbLine
 10
17525.87771669611
 20
624.182851714961
 30
0.0
 11
17517.87996361343
 21
624.062885418721
 31
0.0
  0
LINE
  5
33C
330
1F
100
AcDbEntity
  8
0
  6
Continuous
370
    13
100
AcDbLine
 10
17596.52987588812
 20
503.7297789886059
 30
0.0
 11
17596.52987588812
 21
506.729778988606
 31
0.0
  0
LINE
  5
33D
330
1F
100
AcDbEntity
  8
0
  6
Continuous
370
    13
100
AcDbLine
 10
17596.52987588812
 20
503.7297789886059
 30
0.0
 11
17572.52987588812
 21
503.7297789886059
 31
0.0
  0
LINE
  5
33E
330
1F
100
AcDbEntity
  8
0
  6
Continuous
370
    13
100
AcDbLine
 10
17572.52987588812
 20
503.7297789886059
 30
0.0
 11
17572.52987588812
 21
506.729778988606
 31
0.0
  0
LINE
  5
33F
330
1F
100
AcDbEntity
  8
0
  6
Continuous
370
    13
100
AcDbLine
 10
17594.52987588812
 20
503.7297789886059
 30
0.0
 11
17594.52987588812
 21
495.7297789886246
 31
0.0
  0
LINE
  5
340
330
1F
100
AcDbEntity
  8
0
  6
Continuous
370
    13
100
AcDbLine
 10
17588.52987588812
 20
503.7297789886059
 30
0.0
 11
17588.52987588812
 21
495.7297789886246
 31
0.0
  0
LINE
  5
341
330
1F
100
AcDbEntity
  8
0
  6
Continuous
370
    13
100
AcDbLine
 10
17574.52987588812
 20
503.7297789886059
 30
0.0
 11
17574.52987588812
 21
495.7297789886246
 31
0.0
  0
LINE
  5
342
330
1F
100
AcDbEntity
  8
0
  6
Continuous
370
    13
100
AcDbLine
 10
17594.52987588812
 20
495.7297789886246
 30
0.0
 11
17574.52987588812
 21
495.7297789886246
 31
0.0
  0
LINE
  5
343
330
1F
100
AcDbEntity
  8
0
  6
Continuous
370
    13
100
AcDbLine
 10
17580.52987588812
 20
503.7297789886059
 30
0.0
 11
17580.52987588812
 21
495.7297789886246
 31
0.0
  0
LINE
  5
344
330
1F
100
AcDbEntity
  8
0
  6
Continuous
370
    13
100
AcDbLine
 10
17675.85113216173
 20
503.7297789886059
 30
0.0
 11
17675.85113216173
 21
506.729778988606
 31
0.0
  0
LINE
  5
345
330
1F
100
AcDbEntity
  8
0
  6
Continuous
370
    13
100
AcDbLine
 10
17675.85113216173
 20
503.7297789886059
 30
0.0
 11
17651.85113216172
 21
503.7297789886059
 31
0.0
  0
LINE
  5
346
330
1F
100
AcDbEntity
  8
0
  6
Continuous
370
    13
100
AcDbLine
 10
17651.85113216172
 20
503.7297789886059
 30
0.0
 11
17651.85113216172
 21
506.729778988606
 31
0.0
  0
LINE
  5
347
330
1F
100
AcDbEntity
  8
0
  6
Continuous
370
    13
100
AcDbLine
 10
17673.85113216172
 20
503.7297789886059
 30
0.0
 11
17673.85113216172
 21
495.7297789886246
 31
0.0
  0
LINE
  5
348
330
1F
100
AcDbEntity
  8
0
  6
Continuous
370
    13
100
AcDbLine
 10
17667.85113216172
 20
503.7297789886059
 30
0.0
 11
17667.85113216172
 21
495.7297789886246
 31
0.0
  0
LINE
  5
349
330
1F
100
AcDbEntity
  8
0
  6
Continuous
370
    13
100
AcDbLine
 10
17653.85113216172
 20
503.7297789886059
 30
0.0
 11
17653.85113216172
 21
495.7297789886246
 31
0.0
  0
LINE
  5
34A
330
1F
100
AcDbEntity
  8
0
  6
Continuous
370
    13
100
AcDbLine
 10
17673.85113216172
 20
495.7297789886246
 30
0.0
 11
17653.85113216172
 21
495.7297789886246
 31
0.0
  0
LINE
  5
34B
330
1F
100
AcDbEntity
  8
0
  6
Continuous
370
    13
100
AcDbLine
 10
17659.85113216172
 20
503.7297789886059
 30
0.0
 11
17659.85113216172
 21
495.7297789886246
 31
0.0
  0
LINE
  5
34C
330
1F
100
AcDbEntity
  8
0
  6
Continuous
370
    13
100
AcDbLine
 10
17521.37771669611
 20
591.5190331529736
 30
0.0
 11
17524.37771669611
 21
591.5190331529736
 31
0.0
  0
LINE
  5
34D
330
1F
100
AcDbEntity
  8
0
  6
Continuous
370
    13
100
AcDbLine
 10
17521.37771669611
 20
608.4978517905429
 30
0.0
 11
17524.37771669611
 21
608.4978517905429
 31
0.0
  0
LINE
  5
34E
330
1F
100
AcDbEntity
  8
0
  6
Continuous
370
    13
100
AcDbLine
 10
17521.37771669611
 20
591.5190331529736
 30
0.0
 11
17521.37771669611
 21
608.4978517905429
 31
0.0
  0
LINE
  5
34F
330
1F
100
AcDbEntity
  8
0
  6
Przerywana
370
    13
100
AcDbLine
 10
17525.87771669611
 20
603.4897024612209
 30
0.0
 11
17578.51018410775
 21
603.4897024612209
 31
0.0
  0
LINE
  5
350
330
1F
100
AcDbEntity
  8
0
  6
Przerywana
370
    13
100
AcDbLine
 10
17578.51018410775
 20
603.4897024612209
 30
0.0
 11
17582.68178909829
 21
600.0084424717583
 31
0.0
  0
LINE
  5
351
330
1F
100
AcDbEntity
  8
0
  6
Przerywana
370
    13
100
AcDbLine
 10
17582.68178909829
 20
600.008442471759
 30
0.0
 11
17578.51018410775
 21
596.5271824822955
 31
0.0
  0
LINE
  5
352
330
1F
100
AcDbEntity
  8
0
  6
Continuous
 62
     2
370
    25
100
AcDbLine
 10
17511.2102768033
 20
581.4454809468241
 30
0.0
 11
17525.87771669611
 21
570.2354202760613
 31
0.0
  0
LINE
  5
353
330
1F
100
AcDbEntity
  8
0
  6
Przerywana
370
    13
100
AcDbLine
 10
17525.87771669611
 20
596.5271824822955
 30
0.0
 11
17578.51018410775
 21
596.5271824822955
 31
0.0
  0
LINE
  5
354
330
1F
100
AcDbEntity
  8
0
  6
Przerywana
370
    13
100
AcDbLine
 10
17668.85113216172
 20
506.729778988606
 30
0.0
 11
17668.85113216172
 21
579.7297789885994
 31
0.0
  0
LINE
  5
355
330
1F
100
AcDbEntity
  8
0
  6
Przerywana
370
    13
100
AcDbLine
 10
17658.85113216172
 20
506.729778988606
 30
0.0
 11
17658.85113216172
 21
579.7297789885994
 31
0.0
  0
LINE
  5
356
330
1F
100
AcDbEntity
  8
0
  6
Przerywana
370
    13
100
AcDbLine
 10
17668.85113216172
 20
579.7297789885994
 30
0.0
 11
17658.85113216172
 21
579.7297789885994
 31
0.0
  0
LINE
  5
357
330
1F
100
AcDbEntity
  8
0
  6
Przerywana
370
    13
100
AcDbLine
 10
17589.52987588812
 20
506.729778988606
 30
0.0
 11
17589.52987588812
 21
579.7297789885994
 31
0.0
  0
LINE
  5
358
330
1F
100
AcDbEntity
  8
0
  6
Przerywana
370
    13
100
AcDbLine
 10
17579.52987588812
 20
506.729778988606
 30
0.0
 11
17579.52987588812
 21
579.7297789885994
 31
0.0
  0
LINE
  5
359
330
1F
100
AcDbEntity
  8
0
  6
Przerywana
370
    13
100
AcDbLine
 10
17589.52987588812
 20
579.7297789885994
 30
0.0
 11
17579.52987588812
 21
579.7297789885994
 31
0.0
  0
LINE
  5
35A
330
1F
100
AcDbEntity
  8
0
  6
Continuous
370
    13
100
AcDbLine
 10
17552.82719009848
 20
820.2470455144716
 30
0.0
 11
17469.14418877316
 21
793.7328496938186
 31
0.0
  0
CIRCLE
  5
35B
330
1F
100
AcDbEntity
  8
0
  6
Continuous
370
    13
100
AcDbCircle
 10
17464.3777166961
 20
792.2226364841665
 30
0.0
 40
5.0
  0
HATCH
  5
35C
330
1F
100
AcDbEntity
  8
0
  6
Continuous
370
    13
100
AcDbHatch
 10
0.0
 20
0.0
 30
0.0
210
0.0
220
0.0
230
1.0
  2
SOLID
 70
     1
 71
     0
 91
        1
 92
        2
 72
     0
 73
     1
 93
       16
 10
17469.3777166961
 20
792.2226364841665
 10
17468.99711435866
 20
794.136053645992
 10
17467.91325060203
 20
795.7581703900992
 10
17466.29113385793
 20
796.842034146723
 10
17464.3777166961
 20
797.2226364841665
 10
17462.46429953427
 20
796.842034146723
 10
17460.84218279017
 20
795.7581703900992
 10
17459.75831903354
 20
794.136053645992
 10
17459.3777166961
 20
792.2226364841665
 10
17459.75831903354
 20
790.309219322341
 10
17460.84218279017
 20
788.6871025782337
 10
17462.46429953427
 20
787.60323882161
 10
17464.3777166961
 20
787.2226364841665
 10
17466.29113385793
 20
787.60323882161
 10
17467.91325060203
 20
788.6871025782337
 10
17468.99711435866
 20
790.309219322341
 97
        0
 75
     0
 76
     1
 98
        0
  0
LINE
  5
35D
330
1F
100
AcDbEntity
  8
0
  6
Continuous
 62
     2
370
    25
100
AcDbLine
 10
17533.37771669611
 20
635.3421073990435
 30
0.0
 11
17939.0437898389
 21
641.1950726896478
 31
0.0
  0
LINE
  5
35E
330
1F
100
AcDbEntity
  8
0
  6
Continuous
 62
     3
370
    50
100
AcDbLine
 10
17939.0437898389
 20
514.8559392212886
 30
0.0
 11
17533.37771669611
 21
514.8559392212886
 31
0.0
  0
LINE
  5
35F
330
1F
100
AcDbEntity
  8
0
  6
Continuous
370
    13
100
AcDbLine
 10
17309.04378983891
 20
913.1087701992377
 30
0.0
 11
17939.0437898389
 21
913.1087701992377
 31
0.0
  0
LINE
  5
360
330
1F
100
AcDbEntity
  8
0
  6
Continuous
370
    13
100
AcDbLine
 10
17939.0437898389
 20
325.9697730279178
 30
0.0
 11
17939.0437898389
 21
913.1087701992379
 31
0.0
  0
LINE
  5
361
330
1F
100
AcDbEntity
  8
0
  6
Continuous
370
    13
100
AcDbLine
 10
17289.36569921226
 20
913.1087701992377
 30
0.0
 11
17289.36569921226
 21
375.9697730279177
 31
0.0
  0
LINE
  5
362
330
1F
100
AcDbEntity
  8
0
  6
Continuous
370
    13
100
AcDbLine
 10
17289.36569921226
 20
375.9697730279177
 30
0.0
 11
17939.0437898389
 21
375.9697730279177
 31
0.0
  0
LINE
  5
363
330
1F
100
AcDbEntity
  8
0
  6
Continuous
370
    13
100
AcDbLine
 10
17641.55544928544
 20
650.0285861748392
 30
0.0
 11
17663.29357180775
 21
799.6201481058092
 31
0.0
  0
CIRCLE
  5
364
330
1F
100
AcDbEntity
  8
0
  6
Continuous
370
    13
100
AcDbCircle
 10
17640.83641895432
 20
645.08055673041
 30
0.0
 40
5.0
  0
HATCH
  5
365
330
1F
100
AcDbEntity
  8
0
  6
Continuous
370
    13
100
AcDbHatch
 10
0.0
 20
0.0
 30
0.0
210
0.0
220
0.0
230
1.0
  2
SOLID
 70
     1
 71
     0
 91
        1
 92
        2
 72
     0
 73
     1
 93
       16
 10
17645.83641895432
 20
645.08055673041
 10
17645.45581661688
 20
646.9939738922354
 10
17644.37195286026
 20
648.6160906363427
 10
17642.74983611615
 20
649.6999543929664
 10
17640.83641895432
 20
650.08055673041
 10
17638.9230017925
 20
649.6999543929664
 10
17637.30088504839
 20
648.6160906363427
 10
17636.21702129177
 20
646.9939738922354
 10
17635.83641895433
 20
645.08055673041
 10
17636.21702129177
 20
643.1671395685845
 10
17637.30088504839
 20
641.5450228244772
 10
17638.9230017925
 20
640.4611590678535
 10
17640.83641895432
 20
640.08055673041
 10
17642.74983611615
 20
640.4611590678535
 10
17644.37195286026
 20
641.5450228244772
 10
17645.45581661688
 20
643.1671395685845
 97
        0
 75
     0
 76
     1
 98
        0
  0
LWPOLYLINE
  5
366
330
1F
100
AcDbEntity
  8
0
  6
Continuous
 62
     2
370
    25
100
AcDbPolyline
 90
        5
 70
   128
 43
0.0
 10
17452.3777166961
 20
808.5653755746845
 10
17452.3777166961
 20
784.8559392212758
 10
17441.9056314152
 20
779.097446032647
 42
-0.0226681399403444
 10
17434.89349422139
 20
775.6457067193217
 42
1.253776701396221
 10
17633.59509938438
 20
506.729778988606
  0
LWPOLYLINE
  5
367
330
1F
100
AcDbEntity
  8
0
  6
Continuous
 62
     2
370
    25
100
AcDbPolyline
 90
        5
 70
   128
 43
0.0
 10
17464.3777166961
 20
808.5653755746845
 10
17464.3777166961
 20
789.7855448150347
 42
-0.2685765875863883
 10
17455.4796113201
 20
774.4276310870935
 42
-0.0107769715529641
 10
17447.20319909626
 20
769.91316413002
 42
1.226139821720905
 10
17619.82677362131
 20
506.729778988606
  0
LWPOLYLINE
  5
368
330
1F
100
AcDbEntity
  8
0
  6
Continuous
 62
     2
370
    25
100
AcDbPolyline
 90
        6
 70
   128
 43
0.0
 10
17668.85113216172
 20
514.8559392212886
 10
17693.85113216172
 20
514.8559392212886
 10
17693.85113216172
 20
506.729778988606
 10
17554.52987588812
 20
506.729778988606
 10
17554.52987588812
 20
514.8559392212886
 10
17579.52987588812
 20
514.8559392212886
  0
ARC
  5
369
330
1F
100
AcDbEntity
  8
0
  6
Continuous
 62
     2
370
    25
100
AcDbCircle
 10
17460.87707856879
 20
608.2017523406175
 30
0.0
 40
50.00000000000071
100
AcDbArc
 50
180.0
 51
0.0
  0
ARC
  5
36A
330
1F
100
AcDbEntity
  8
0
  6
Continuous
 62
     2
370
    25
100
AcDbCircle
 10
17460.87707856879
 20
608.2017523406175
 30
0.0
 40
57.00288504464287
100
AcDbArc
 50
170.0828902871491
 51
0.0
  0
CIRCLE
  5
36B
330
1F
100
AcDbEntity
  8
0
  6
Continuous
370
    13
100
AcDbCircle
 10
17581.42602256084
 20
829.3083247723841
 30
0.0
 40
29.99999999999936
  0
CIRCLE
  5
36C
330
1F
100
AcDbEntity
  8
0
  6
Continuous
370
    13
100
AcDbCircle
 10
17667.60775379443
 20
829.3083247723841
 30
0.0
 40
29.99999999999936
  0
MTEXT
  5
36D
330
1F
100
AcDbEntity
  8
0
  6
Continuous
370
    13
100
AcDbMText
 10
17581.42602256084
 20
830.7076386991055
 30
0.0
 40
30.0
 41
0.0
 71
     5
 72
     1
  1
{06}
  7
GENERATED_STYLE_1
 73
     1
 44
1.0
  0
MTEXT
  5
36E
330
1F
100
AcDbEntity
  8
0
  6
Continuous
370
    13
100
AcDbMText
 10
17289.3014163927
 20
355.5163252192212
 30
0.0
 40
20.0
 41
0.0
 71
     4
 72
     1
  1
{BALUSTRADA MOCOWANA OD SPODU}
  7
GENERATED_STYLE_1
 73
     1
 44
1.0
  0
MTEXT
  5
36F
330
1F
100
AcDbEntity
  8
0
  6
Continuous
370
    13
100
AcDbMText
 10
17667.60775379443
 20
830.7076728848235
 30
0.0
 40
29.99999999999999
 41
0.0
 71
     5
 72
     1
  1
{08}
  7
GENERATED_STYLE_1
 73
     1
 44
1.0
  0
MTEXT
  5
370
330
1F
100
AcDbEntity
  8
0
  6
Continuous
370
    13
100
AcDbMText
 10
17289.0437898389
 20
-584.4938956863788
 30
0.0
 40
20.0
 41
0.0
 71
     4
 72
     1
  1
{POŁĄCZENIE W STREFIE DRZWI \PBALKONOWYCH}
  7
GENERATED_STYLE_1
 73
     1
 44
0.9237125406573473
  0
HATCH
  5
371
330
1F
100
AcDbEntity
  8
0
  6
Continuous
 62
    91
370
    20
100
AcDbHatch
 10
0.0
 20
0.0
 30
0.0
210
0.0
220
0.0
230
1.0
  2
SOLID
 70
     1
 71
     1
 91
        1
 92
        2
 72
     0
 73
     1
 93
        4
 10
16481.53073717939
 20
139.483635987911
 10
16481.66543162071
 20
134.4854505764365
 10
16631.61099396495
 20
138.5262838159458
 10
16631.47629952363
 20
143.5244692274204
 97
        1
330
372
 75
     0
 76
     1
 98
        0
  0
LWPOLYLINE
  5
372
102
{ACAD_REACTORS
330
371
102
}
330
1F
100
AcDbEntity
  8
0
  6
Continuous
370
    13
100
AcDbPolyline
 90
        4
 70
   129
 43
0.0
 10
16481.53073717939
 20
139.483635987911
 10
16481.66543162071
 20
134.4854505764365
 10
16631.61099396495
 20
138.5262838159458
 10
16631.47629952363
 20
143.5244692274204
  0
HATCH
  5
373
330
1F
100
AcDbEntity
  8
0
  6
Continuous
 62
    91
370
    20
100
AcDbHatch
 10
0.0
 20
0.0
 30
0.0
210
0.0
220
0.0
230
1.0
  2
SOLID
 70
     1
 71
     0
 91
        1
 92
        2
 72
     0
 73
     1
 93
        4
 10
18022.81584506594
 20
644.2155607625731
 10
18022.81584506594
 20
746.6796585428908
 10
17939.44384238103
 20
746.6796585428908
 10
17939.44384238103
 20
644.2155607625731
 97
        0
 75
     0
 76
     1
 98
        0
  0
MTEXT
  5
374
330
1F
100
AcDbEntity
  8
0
  6
Continuous
370
    13
100
AcDbMText
 10
15267.62945650557
 20
919.5459610722536
 30
0.0
 40
20.00000000000001
 41
0.0
 71
     9
 72
     1
  1
{druk:2021-11-03}
  7
GENERATED_STYLE_1
 73
     1
 44
1.0
  0
LWPOLYLINE
  5
375
330
1F
100
AcDbEntity
  8
0
  6
Continuous
370
    13
100
AcDbPolyline
 90
        4
 70
   129
 43
0.0
 10
15069.0437898389
 20
913.1087701992377
 10
17939.0437898389
 20
913.1087701992377
 10
17939.0437898389
 20
-886.8912298007625
 10
15069.0437898389
 20
-886.8912298007625
  0
HATCH
  5
376
330
1F
100
AcDbEntity
  8
0
  6
Continuous
100
AcDbHatch
 10
0.0
 20
0.0
 30
0.0
210
0.0
220
0.0
230
1.0
  2
SOLID
 70
     1
 71
     0
 91
        1
 92
        2
 72
     0
 73
     1
 93
        5
 10
16704.05250740139
 20
121.1829378556948
 10
16701.60292962384
 20
121.1829378556948
 10
16701.60292962384
 20
-38.81706214430447
 10
16841.60292962384
 20
-38.81706214430447
 10
16841.60292962384
 20
121.1829378556948
 97
        0
 75
     0
 76
     1
 98
        0
  0
HATCH
  5
377
330
1F
100
AcDbEntity
  8
0
  6
Continuous
 62
    91
370
    20
100
AcDbHatch
 10
0.0
 20
0.0
 30
0.0
210
0.0
220
0.0
230
1.0
  2
SOLID
 70
     1
 71
     0
 91
        1
 92
        2
 72
     0
 73
     1
 93
        4
 10
16679.52242552028
 20
467.1621188060794
 10
16693.51674296965
 20
467.1621188060794
 10
16693.51674296965
 20
157.3007928031533
 10
16679.52242552028
 20
157.3007928031533
 97
        0
 75
     0
 76
     1
 98
        0
  0
HATCH
  5
378
330
1F
100
AcDbEntity
  8
0
  6
Continuous
 62
    91
370
    20
100
AcDbHatch
 10
0.0
 20
0.0
 30
0.0
210
0.0
220
0.0
230
1.0
  2
SOLID
 70
     1
 71
     0
 91
        1
 92
        2
 72
     0
 73
     1
 93
        4
 10
16001.728187658
 20
103.12759262577
 10
16473.18454426357
 20
116.6271496065871
 10
16472.99818240268
 20
123.1356212604632
 10
16001.54182579711
 20
109.6360642796195
 97
        0
 75
     0
 76
     1
 98
        0
  0
HATCH
  5
379
330
1F
100
AcDbEntity
  8
0
  6
Continuous
 62
    91
370
    20
100
AcDbHatch
 10
0.0
 20
0.0
 30
0.0
210
0.0
220
0.0
230
1.0
  2
SOLID
 70
     1
 71
     0
 91
        1
 92
        2
 72
     0
 73
     1
 93
        4
 10
16828.76481566239
 20
467.1621188060794
 10
16828.76481566239
 20
157.3007928031533
 10
16839.03885684573
 20
157.3007928031533
 10
16839.03885684573
 20
467.1621188060794
 97
        0
 75
     0
 76
     1
 98
        0
  0
LINE
  5
37A
330
1F
100
AcDbEntity
  8
Linia Izolacji - ARCHICAD
  6
IZOLACJA GRUBA
370
    13
100
AcDbLine
 10
16001.60292962384
 20
112.1804573707736
 30
0.0
 11
16474.45909035034
 21
122.6780808724069
 31
0.0
  0
LINE
  5
37B
330
1F
100
AcDbEntity
  8
Linia Izolacji - ARCHICAD
  6
IZOLACJA GRUBA
370
    13
100
AcDbLine
 10
16686.14296881352
 20
146.0663850409052
 30
0.0
 11
16686.14296881352
 21
474.2932280691896
 31
0.0
  0
LINE
  5
37C
330
1F
100
AcDbEntity
  8
0
  6
Continuous
370
    13
100
AcDbLine
 10
16846.22275152546
 20
203.2357300934034
 30
0.0
 11
17121.58841533788
 21
317.2243814137464
 31
0.0
  0
CIRCLE
  5
37D
330
1F
100
AcDbEntity
  8
0
  6
Continuous
370
    13
100
AcDbCircle
 10
16841.60292962384
 20
201.3233374565918
 30
0.0
 40
5.0
  0
HATCH
  5
37E
330
1F
100
AcDbEntity
  8
0
  6
Continuous
370
    13
100
AcDbHatch
 10
0.0
 20
0.0
 30
0.0
210
0.0
220
0.0
230
1.0
  2
SOLID
 70
     1
 71
     0
 91
        1
 92
        2
 72
     0
 73
     1
 93
       16
 10
16846.60292962384
 20
201.3233374565918
 10
16846.2223272864
 20
203.2367546184173
 10
16845.13846352978
 20
204.8588713625246
 10
16843.51634678567
 20
205.9427351191483
 10
16841.60292962384
 20
206.3233374565918
 10
16839.68951246202
 20
205.9427351191483
 10
16838.06739571791
 20
204.8588713625246
 10
16836.98353196129
 20
203.2367546184173
 10
16836.60292962385
 20
201.3233374565918
 10
16836.98353196129
 20
199.4099202947664
 10
16838.06739571791
 20
197.7878035506591
 10
16839.68951246202
 20
196.7039397940354
 10
16841.60292962384
 20
196.3233374565918
 10
16843.51634678567
 20
196.7039397940354
 10
16845.13846352978
 20
197.7878035506591
 10
16846.2223272864
 20
199.4099202947664
 97
        0
 75
     0
 76
     1
 98
        0
  0
LINE
  5
37F
330
1F
100
AcDbEntity
  8
Linia Izolacji - ARCHICAD
  6
IZOLACJA GRUBA
370
    13
100
AcDbLine
 10
16836.01562481707
 20
139.4637885303966
 30
0.0
 11
16836.01562481707
 21
471.518366227248
 31
0.0
  0
LINE
  5
380
330
1F
100
AcDbEntity
  8
0
  6
Continuous
370
    13
100
AcDbLine
 10
16672.6526456496
 20
205.2948871379178
 30
0.0
 11
16547.46486912062
 21
278.8914034958293
 31
0.0
  0
CIRCLE
  5
381
330
1F
100
AcDbEntity
  8
0
  6
Continuous
370
    13
100
AcDbCircle
 10
16676.96296889906
 20
202.7608955268152
 30
0.0
 40
5.0
  0
HATCH
  5
382
330
1F
100
AcDbEntity
  8
0
  6
Continuous
370
    13
100
AcDbHatch
 10
0.0
 20
0.0
 30
0.0
210
0.0
220
0.0
230
1.0
  2
SOLID
 70
     1
 71
     0
 91
        1
 92
        2
 72
     0
 73
     1
 93
       16
 10
16681.96296889906
 20
202.7608955268152
 10
16681.58236656162
 20
204.6743126886406
 10
16680.49850280499
 20
206.2964294327479
 10
16678.87638606089
 20
207.3802931893716
 10
16676.96296889906
 20
207.7608955268152
 10
16675.04955173723
 20
207.3802931893716
 10
16673.42743499313
 20
206.2964294327479
 10
16672.3435712365
 20
204.6743126886406
 10
16671.96296889906
 20
202.7608955268152
 10
16672.3435712365
 20
200.8474783649898
 10
16673.42743499313
 20
199.2253616208825
 10
16675.04955173723
 20
198.1414978642588
 10
16676.96296889906
 20
197.7608955268152
 10
16678.87638606089
 20
198.1414978642588
 10
16680.49850280499
 20
199.2253616208825
 10
16681.58236656162
 20
200.8474783649898
 97
        0
 75
     0
 76
     1
 98
        0
  0
LINE
  5
383
330
1F
100
AcDbEntity
  8
Linia Izolacji - ARCHICAD
  6
IZOLACJA GRUBA
370
    13
100
AcDbLine
 10
16506.39950810263
 20
130.41603273586
 30
0.0
 11
16655.50117215957
 21
136.8669877055446
 31
0.0
  0
LINE
  5
384
330
1F
100
AcDbEntity
  8
Linia Izolacji - ARCHICAD
  6
IZOLACJA GRUBA
370
    13
100
AcDbLine
 10
16466.09373036591
 20
121.3891807889185
 30
0.0
 11
16507.65307380003
 21
130.6967803753185
 31
0.0
  0
VIEWPORT
  5
5D
330
1B
100
AcDbEntity
 67
     1
  8
0
  6
Continuous
370
     0
100
AcDbViewport
 10
148.5
 20
105.0
 30
0.0
 40
356.4
 41
252.0
 68
     1
 69
     1
 12
148.5
 22
105.0
 13
0.0
 23
0.0
 14
0.5
 24
0.5
 15
0.0
 25
0.0
 16
0.0
 26
0.0
 36
1.0
 17
0.0
 27
0.0
 37
0.0
 42
50.0
 43
0.0
 44
0.0
 45
252.0
 50
0.0
 51
0.0
 72
   100
 90
   557152
  1

281
     0
 71
     1
 74
     0
110
0.0
120
0.0
130
0.0
111
1.0
121
0.0
131
0.0
112
0.0
122
1.0
132
0.0
 79
     0
146
0.0
170
     0
  0
INSERT
  5
38B
102
{ACAD_XDICTIONARY
360
38C
102
}
330
1B
100
AcDbEntity
 67
     1
  8
0
370
    13
100
AcDbBlockReference
  2
Rysunek_1
 10
0.0
 20
0.0
 30
0.0
  0
VIEWPORT
  5
38F
330
1B
100
AcDbEntity
 67
     1
  8
NonPlottable_0
  6
Continuous
 62
    65
370
    20
100
AcDbViewport
 10
148.5
 20
105.0
 30
0.0
 40
297.0
 41
210.0
 68
     2
 69
     2
 12
0.0
 22
0.0
 13
0.0
 23
0.0
 14
0.5
 24
0.5
 15
0.0
 25
0.0
 16
0.0
 26
0.0
 36
1.0
 17
16504.0437898389
 27
113.1087701992358
 37
0.0
 42
50.0
 43
0.0
 44
0.0
 45
2100.0
 50
0.0
 51
0.0
 72
   100
 90
   622688
340
391
  1

281
     0
 71
     1
 74
     0
110
0.0
120
0.0
130
0.0
111
1.0
121
0.0
131
0.0
112
0.0
122
1.0
132
0.0
 79
     0
146
0.0
170
     0
  0
LWPOLYLINE
  5
391
102
{ACAD_REACTORS
330
38F
102
}
330
1B
100
AcDbEntity
 67
     1
  8
NonPlottable_0
  6
Continuous
 62
    65
370
    20
100
AcDbPolyline
 90
        4
 70
   129
 43
0.0
 10
-0.0000000000000009
 20
0.0000000000000002
 10
297.0
 20
0.0000000000000002
 10
297.0
 20
210.0
 10
-0.0000000000000009
 20
210.0
  0
ENDSEC
  0
SECTION
  2
OBJECTS
  0
DICTIONARY
  5
C
330
0
100
AcDbDictionary
281
     1
  3
ACAD_GROUP
350
D
  3
ACAD_LAYOUT
350
1A
  3
ACAD_MLEADERSTYLE
350
398
  3
ACAD_MLINESTYLE
350
17
  3
ACAD_PLOTSETTINGS
350
19
  3
ACAD_PLOTSTYLENAME
350
E
  3
ACAD_SCALELIST
350
3B
  3
ACAD_TABLESTYLE
350
397
  3
ACAD_VISUALSTYLE
350
2A
  3
WATERMARKS
350
395
  0
DICTIONARY
  5
38C
330
38B
100
AcDbDictionary
280
     1
281
     1
  3
ACAD_FILTER
360
38D
  0
DICTIONARY
  5
D
102
{ACAD_REACTORS
330
C
102
}
330
C
100
AcDbDictionary
281
     1
  0
DICTIONARY
  5
1A
102
{ACAD_REACTORS
330
C
102
}
330
C
100
AcDbDictionary
281
     1
  3
01 03.21.10_BALKON_T-ŁĄCZNIK_2W
350
1E
  3
Layout2
350
26
  3
Model
350
22
  0
DICTIONARY
  5
398
102
{ACAD_REACTORS
330
C
102
}
330
C
100
AcDbDictionary
281
     1
  0
DICTIONARY
  5
17
102
{ACAD_REACTORS
330
C
102
}
330
C
100
AcDbDictionary
281
     1
  3
Standard
350
18
  0
DICTIONARY
  5
19
102
{ACAD_REACTORS
330
C
102
}
330
C
100
AcDbDictionary
281
     1
  0
ACDBDICTIONARYWDFLT
  5
E
102
{ACAD_REACTORS
330
C
102
}
330
C
100
AcDbDictionary
281
     1
  3
Normal
350
F
100
AcDbDictionaryWithDefault
340
F
  0
DICTIONARY
  5
3B
102
{ACAD_REACTORS
330
C
102
}
330
C
100
AcDbDictionary
281
     1
  3
A0
350
3C
  3
A1
350
3D
  3
A2
350
3E
  3
A3
350
3F
  3
A4
350
40
  3
A5
350
41
  3
A6
350
42
  3
A7
350
43
  3
A8
350
44
  3
A9
350
45
  3
B0
350
46
  3
B1
350
47
  3
B2
350
48
  3
B3
350
49
  3
B4
350
4A
  3
B5
350
4B
  3
B6
350
4C
  3
B7
350
4D
  3
B8
350
4E
  3
B9
350
4F
  3
C0
350
50
  3
C1
350
51
  3
C2
350
52
  3
C3
350
53
  3
C4
350
54
  3
C5
350
55
  3
C6
350
56
  3
C7
350
57
  3
C8
350
58
  3
C9
350
59
  3
D0
350
5A
  3
D1
350
5B
  3
D2
350
5C
  0
DICTIONARY
  5
397
102
{ACAD_REACTORS
330
C
102
}
330
C
100
AcDbDictionary
281
     1
  0
DICTIONARY
  5
2A
102
{ACAD_REACTORS
330
C
102
}
330
C
100
AcDbDictionary
281
     1
  3
2dWireframe
350
2F
  3
3D Hidden
350
31
  3
3dWireframe
350
30
  3
Basic
350
32
  3
Brighten
350
36
  3
ColorChange
350
3A
  3
Conceptual
350
34
  3
Dim
350
35
  3
Facepattern
350
39
  3
Flat
350
2B
  3
FlatWithEdges
350
2C
  3
Gouraud
350
2D
  3
GouraudWithEdges
350
2E
  3
Linepattern
350
38
  3
Realistic
350
33
  3
Thicken
350
37
  0
DICTIONARY
  5
395
102
{ACAD_REACTORS
330
C
102
}
330
C
100
AcDbDictionary
281
     1
  3
AC_WATERMARK
350
396
  0
DICTIONARY
  5
38D
102
{ACAD_REACTORS
330
38C
102
}
330
38C
100
AcDbDictionary
280
     1
281
     1
  3
SPATIAL
360
38E
  0
LAYOUT
  5
1E
102
{ACAD_REACTORS
330
1A
102
}
330
1A
100
AcDbPlotSettings
  1

  2
none_device
  4

  6

 40
5.0
 41
5.0
 42
5.0
 43
5.0
 44
297.0
 45
210.0
 46
0.0
 47
0.0
 48
0.0
 49
0.0
140
0.0
141
0.0
142
1.0
143
1.0
 70
   688
 72
     1
 73
     0
 74
     5
  7

 75
    16
 76
     0
 77
     2
 78
   300
147
1.0
148
-5.0
149
-5.0
100
AcDbLayout
  1
01 03.21.10_BALKON_T-ŁĄCZNIK_2W
 70
     0
 71
     1
 10
0.0
 20
0.0
 11
297.0
 21
210.0
 12
0.0
 22
0.0
 32
0.0
 14
-0.0000000000000009
 24
0.0
 34
0.0
 15
297.0
 25
210.0
 35
0.0
146
0.0
 13
0.0
 23
0.0
 33
0.0
 16
1.0
 26
0.0
 36
0.0
 17
0.0
 27
1.0
 37
0.0
 76
     0
330
1B
331
5D
  0
LAYOUT
  5
26
102
{ACAD_REACTORS
330
1A
102
}
330
1A
100
AcDbPlotSettings
  1

  2
none_device
  4

  6

 40
0.0
 41
0.0
 42
0.0
 43
0.0
 44
0.0
 45
0.0
 46
0.0
 47
0.0
 48
0.0
 49
0.0
140
0.0
141
0.0
142
1.0
143
1.0
 70
   688
 72
     0
 73
     0
 74
     5
  7

 75
    16
 76
     0
 77
     2
 78
   300
147
1.0
148
0.0
149
0.0
100
AcDbLayout
  1
Layout2
 70
     1
 71
     2
 10
0.0
 20
0.0
 11
0.0
 21
0.0
 12
0.0
 22
0.0
 32
0.0
 14
0.0
 24
0.0
 34
0.0
 15
0.0
 25
0.0
 35
0.0
146
0.0
 13
0.0
 23
0.0
 33
0.0
 16
1.0
 26
0.0
 36
0.0
 17
0.0
 27
1.0
 37
0.0
 76
     0
330
23
  0
LAYOUT
  5
22
102
{ACAD_REACTORS
330
1A
102
}
330
1A
100
AcDbPlotSettings
  1

  2
none_device
  4

  6

 40
0.0
 41
0.0
 42
0.0
 43
0.0
 44
0.0
 45
0.0
 46
0.0
 47
0.0
 48
0.0
 49
0.0
140
0.0
141
0.0
142
1.0
143
1.0
 70
  1712
 72
     0
 73
     0
 74
     0
  7

 75
     0
 76
     0
 77
     2
 78
   300
147
1.0
148
0.0
149
0.0
100
AcDbLayout
  1
Model
 70
     1
 71
     0
 10
0.0
 20
0.0
 11
12.0
 21
9.0
 12
0.0
 22
0.0
 32
0.0
 14
1.000000000000000E+20
 24
1.000000000000000E+20
 34
1.000000000000000E+20
 15
-1.000000000000000E+20
 25
-1.000000000000000E+20
 35
-1.000000000000000E+20
146
0.0
 13
0.0
 23
0.0
 33
0.0
 16
1.0
 26
0.0
 36
0.0
 17
0.0
 27
1.0
 37
0.0
 76
     0
330
1F
331
29
  0
MLINESTYLE
  5
18
102
{ACAD_REACTORS
330
17
102
}
330
17
100
AcDbMlineStyle
  2
Standard
 70
     0
  3

 62
   256
 51
90.0
 52
90.0
 71
     2
 49
0.5
 62
   256
  6
BYLAYER
 49
-0.5
 62
   256
  6
BYLAYER
  0
ACDBPLACEHOLDER
  5
F
102
{ACAD_REACTORS
330
E
102
}
330
E
  0
SCALE
  5
3C
102
{ACAD_REACTORS
330
3B
102
}
330
3B
100
AcDbScale
 70
     0
300
1:1
140
1.0
141
1.0
290
     1
  0
SCALE
  5
3D
102
{ACAD_REACTORS
330
3B
102
}
330
3B
100
AcDbScale
 70
     0
300
1:2
140
1.0
141
2.0
290
     0
  0
SCALE
  5
3E
102
{ACAD_REACTORS
330
3B
102
}
330
3B
100
AcDbScale
 70
     0
300
1:4
140
1.0
141
4.0
290
     0
  0
SCALE
  5
3F
102
{ACAD_REACTORS
330
3B
102
}
330
3B
100
AcDbScale
 70
     0
300
1:5
140
1.0
141
5.0
290
     0
  0
SCALE
  5
40
102
{ACAD_REACTORS
330
3B
102
}
330
3B
100
AcDbScale
 70
     0
300
1:8
140
1.0
141
8.0
290
     0
  0
SCALE
  5
41
102
{ACAD_REACTORS
330
3B
102
}
330
3B
100
AcDbScale
 70
     0
300
1:10
140
1.0
141
10.0
290
     0
  0
SCALE
  5
42
102
{ACAD_REACTORS
330
3B
102
}
330
3B
100
AcDbScale
 70
     0
300
1:16
140
1.0
141
16.0
290
     0
  0
SCALE
  5
43
102
{ACAD_REACTORS
330
3B
102
}
330
3B
100
AcDbScale
 70
     0
300
1:20
140
1.0
141
20.0
290
     0
  0
SCALE
  5
44
102
{ACAD_REACTORS
330
3B
102
}
330
3B
100
AcDbScale
 70
     0
300
1:30
140
1.0
141
30.0
290
     0
  0
SCALE
  5
45
102
{ACAD_REACTORS
330
3B
102
}
330
3B
100
AcDbScale
 70
     0
300
1:40
140
1.0
141
40.0
290
     0
  0
SCALE
  5
46
102
{ACAD_REACTORS
330
3B
102
}
330
3B
100
AcDbScale
 70
     0
300
1:50
140
1.0
141
50.0
290
     0
  0
SCALE
  5
47
102
{ACAD_REACTORS
330
3B
102
}
330
3B
100
AcDbScale
 70
     0
300
1:100
140
1.0
141
100.0
290
     0
  0
SCALE
  5
48
102
{ACAD_REACTORS
330
3B
102
}
330
3B
100
AcDbScale
 70
     0
300
2:1
140
2.0
141
1.0
290
     0
  0
SCALE
  5
49
102
{ACAD_REACTORS
330
3B
102
}
330
3B
100
AcDbScale
 70
     0
300
4:1
140
4.0
141
1.0
290
     0
  0
SCALE
  5
4A
102
{ACAD_REACTORS
330
3B
102
}
330
3B
100
AcDbScale
 70
     0
300
8:1
140
8.0
141
1.0
290
     0
  0
SCALE
  5
4B
102
{ACAD_REACTORS
330
3B
102
}
330
3B
100
AcDbScale
 70
     0
300
10:1
140
10.0
141
1.0
290
     0
  0
SCALE
  5
4C
102
{ACAD_REACTORS
330
3B
102
}
330
3B
100
AcDbScale
 70
     0
300
100:1
140
100.0
141
1.0
290
     0
  0
SCALE
  5
4D
102
{ACAD_REACTORS
330
3B
102
}
330
3B
100
AcDbScale
 70
     0
300
1/128" = 1'-0"
140
0.0078125
141
12.0
290
     0
  0
SCALE
  5
4E
102
{ACAD_REACTORS
330
3B
102
}
330
3B
100
AcDbScale
 70
     0
300
1/64" = 1'-0"
140
0.015625
141
12.0
290
     0
  0
SCALE
  5
4F
102
{ACAD_REACTORS
330
3B
102
}
330
3B
100
AcDbScale
 70
     0
300
1/32" = 1'-0"
140
0.03125
141
12.0
290
     0
  0
SCALE
  5
50
102
{ACAD_REACTORS
330
3B
102
}
330
3B
100
AcDbScale
 70
     0
300
1/16" = 1'-0"
140
0.0625
141
12.0
290
     0
  0
SCALE
  5
51
102
{ACAD_REACTORS
330
3B
102
}
330
3B
100
AcDbScale
 70
     0
300
3/32" = 1'-0"
140
0.09375
141
12.0
290
     0
  0
SCALE
  5
52
102
{ACAD_REACTORS
330
3B
102
}
330
3B
100
AcDbScale
 70
     0
300
1/8" = 1'-0"
140
0.125
141
12.0
290
     0
  0
SCALE
  5
53
102
{ACAD_REACTORS
330
3B
102
}
330
3B
100
AcDbScale
 70
     0
300
3/16" = 1'-0"
140
0.1875
141
12.0
290
     0
  0
SCALE
  5
54
102
{ACAD_REACTORS
330
3B
102
}
330
3B
100
AcDbScale
 70
     0
300
1/4" = 1'-0"
140
0.25
141
12.0
290
     0
  0
SCALE
  5
55
102
{ACAD_REACTORS
330
3B
102
}
330
3B
100
AcDbScale
 70
     0
300
3/8" = 1'-0"
140
0.375
141
12.0
290
     0
  0
SCALE
  5
56
102
{ACAD_REACTORS
330
3B
102
}
330
3B
100
AcDbScale
 70
     0
300
1/2" = 1'-0"
140
0.5
141
12.0
290
     0
  0
SCALE
  5
57
102
{ACAD_REACTORS
330
3B
102
}
330
3B
100
AcDbScale
 70
     0
300
3/4" = 1'-0"
140
0.75
141
12.0
290
     0
  0
SCALE
  5
58
102
{ACAD_REACTORS
330
3B
102
}
330
3B
100
AcDbScale
 70
     0
300
1" = 1'-0"
140
1.0
141
12.0
290
     0
  0
SCALE
  5
59
102
{ACAD_REACTORS
330
3B
102
}
330
3B
100
AcDbScale
 70
     0
300
1-1/2" = 1'-0"
140
1.5
141
12.0
290
     0
  0
SCALE
  5
5A
102
{ACAD_REACTORS
330
3B
102
}
330
3B
100
AcDbScale
 70
     0
300
3" = 1'-0"
140
3.0
141
12.0
290
     0
  0
SCALE
  5
5B
102
{ACAD_REACTORS
330
3B
102
}
330
3B
100
AcDbScale
 70
     0
300
6" = 1'-0"
140
6.0
141
12.0
290
     0
  0
SCALE
  5
5C
102
{ACAD_REACTORS
330
3B
102
}
330
3B
100
AcDbScale
 70
     0
300
1'-0" = 1'-0"
140
12.0
141
12.0
290
     0
  0
VISUALSTYLE
  5
2F
102
{ACAD_REACTORS
330
2A
102
}
330
2A
100
AcDbVisualStyle
  2
2dWireframe
 70
     4
 71
     0
 72
     2
 73
     0
 90
        0
 40
-0.6
 41
-30.0
 62
     5
 63
     7
421
 16777215
 74
     1
 91
        4
 64
     7
 65
   257
 75
     1
175
     1
 42
1.0
 92
        0
 66
   257
 43
1.0
 76
     1
 77
     6
 78
     2
 67
     7
 79
     5
170
     0
171
     0
290
     0
174
     0
 93
        1
 44
0.0
173
     0
291
     0
 45
0.0
1001
ACAD
1000
AcDbSavedByObjectVersion
1070
     0
  0
VISUALSTYLE
  5
31
102
{ACAD_REACTORS
330
2A
102
}
330
2A
100
AcDbVisualStyle
  2
3D Hidden
 70
     6
 71
     1
 72
     2
 73
     2
 90
        0
 40
-0.6
 41
-30.0
 62
     5
 63
     7
421
 16777215
 74
     2
 91
        2
 64
     7
 65
   257
 75
     2
175
     1
 42
40.0
 92
        0
 66
   257
 43
1.0
 76
     1
 77
     6
 78
     2
 67
     7
 79
     3
170
     0
171
     0
290
     0
174
     0
 93
        1
 44
0.0
173
     0
291
     0
 45
0.0
1001
ACAD
1000
AcDbSavedByObjectVersion
1070
     0
  0
VISUALSTYLE
  5
30
102
{ACAD_REACTORS
330
2A
102
}
330
2A
100
AcDbVisualStyle
  2
3dWireframe
 70
     5
 71
     0
 72
     2
 73
     0
 90
        0
 40
-0.6
 41
-30.0
 62
     5
 63
     7
421
 16777215
 74
     1
 91
        4
 64
     7
 65
   257
 75
     1
175
     1
 42
1.0
 92
        0
 66
   257
 43
1.0
 76
     1
 77
     6
 78
     2
 67
     7
 79
     5
170
     0
171
     0
290
     0
174
     0
 93
        1
 44
0.0
173
     0
291
     0
 45
0.0
1001
ACAD
1000
AcDbSavedByObjectVersion
1070
     0
  0
VISUALSTYLE
  5
32
102
{ACAD_REACTORS
330
2A
102
}
330
2A
100
AcDbVisualStyle
  2
Basic
 70
     7
 71
     1
 72
     0
 73
     1
 90
        0
 40
-0.6
 41
-30.0
 62
     5
 63
     7
421
 16777215
 74
     0
 91
        4
 64
     7
 65
   257
 75
     1
175
     1
 42
1.0
 92
        8
 66
     7
 43
1.0
 76
     1
 77
     6
 78
     2
 67
     7
 79
     5
170
     0
171
     0
290
     0
174
     0
 93
        1
 44
0.0
173
     0
291
     1
 45
0.0
1001
ACAD
1000
AcDbSavedByObjectVersion
1070
     0
  0
VISUALSTYLE
  5
36
102
{ACAD_REACTORS
330
2A
102
}
330
2A
100
AcDbVisualStyle
  2
Brighten
 70
    12
 71
     2
 72
     2
 73
     0
 90
        0
 40
-0.6
 41
-30.0
 62
     5
 63
     7
421
 16777215
 74
     1
 91
        4
 64
     7
 65
   257
 75
     1
175
     1
 42
1.0
 92
        8
 66
     7
 43
1.0
 76
     1
 77
     6
 78
     2
 67
     7
 79
     5
170
     0
171
     0
290
     0
174
     0
 93
        1
 44
50.0
173
     0
291
     1
 45
0.0
1001
ACAD
1000
AcDbSavedByObjectVersion
1070
     0
  0
VISUALSTYLE
  5
3A
102
{ACAD_REACTORS
330
2A
102
}
330
2A
100
AcDbVisualStyle
  2
ColorChange
 70
    16
 71
     2
 72
     2
 73
     3
 90
        0
 40
-0.6
 41
-30.0
 62
     5
 63
     8
421
  8421504
 74
     1
 91
        4
 64
     7
 65
   257
 75
     1
175
     1
 42
1.0
 92
        8
 66
     8
424
  8421504
 43
1.0
 76
     1
 77
     6
 78
     2
 67
     7
 79
     5
170
     0
171
     0
290
     0
174
     0
 93
        1
 44
0.0
173
     0
291
     1
 45
0.0
1001
ACAD
1000
AcDbSavedByObjectVersion
1070
     0
  0
VISUALSTYLE
  5
34
102
{ACAD_REACTORS
330
2A
102
}
330
2A
100
AcDbVisualStyle
  2
Conceptual
 70
     9
 71
     3
 72
     2
 73
     0
 90
        0
 40
-0.6
 41
-30.0
 62
     5
 63
     7
421
 16777215
 74
     2
 91
        2
 64
     7
 65
   257
 75
     1
175
     1
 42
40.0
 92
        8
 66
     7
 43
1.0
 76
     1
 77
     6
 78
     2
 67
     7
 79
     3
170
     0
171
     0
290
     0
174
     0
 93
        1
 44
0.0
173
     0
291
     0
 45
0.0
1001
ACAD
1000
AcDbSavedByObjectVersion
1070
     0
  0
VISUALSTYLE
  5
35
102
{ACAD_REACTORS
330
2A
102
}
330
2A
100
AcDbVisualStyle
  2
Dim
 70
    11
 71
     2
 72
     2
 73
     0
 90
        0
 40
-0.6
 41
-30.0
 62
     5
 63
     7
421
 16777215
 74
     1
 91
        4
 64
     7
 65
   257
 75
     1
175
     1
 42
1.0
 92
        8
 66
     7
 43
1.0
 76
     1
 77
     6
 78
     2
 67
     7
 79
     5
170
     0
171
     0
290
     0
174
     0
 93
        1
 44
-50.0
173
     0
291
     1
 45
0.0
1001
ACAD
1000
AcDbSavedByObjectVersion
1070
     0
  0
VISUALSTYLE
  5
39
102
{ACAD_REACTORS
330
2A
102
}
330
2A
100
AcDbVisualStyle
  2
Facepattern
 70
    15
 71
     2
 72
     2
 73
     0
 90
        0
 40
-0.6
 41
-30.0
 62
     5
 63
     7
421
 16777215
 74
     1
 91
        4
 64
     7
 65
   257
 75
     1
175
     1
 42
1.0
 92
        8
 66
     7
 43
1.0
 76
     1
 77
     6
 78
     2
 67
     7
 79
     5
170
     0
171
     0
290
     0
174
     0
 93
        1
 44
0.0
173
     0
291
     1
 45
0.0
1001
ACAD
1000
AcDbSavedByObjectVersion
1070
     0
  0
VISUALSTYLE
  5
2B
102
{ACAD_REACTORS
330
2A
102
}
330
2A
100
AcDbVisualStyle
  2
Flat
 70
     0
 71
     2
 72
     1
 73
     1
 90
        2
 40
-0.6
 41
30.0
 62
     5
 63
     7
421
 16777215
 74
     0
 91
        4
 64
     7
 65
   257
 75
     1
175
     1
 42
1.0
 92
        8
 66
     7
 43
1.0
 76
     1
 77
     6
 78
     2
 67
     7
 79
     5
170
     0
171
     0
290
     0
174
     0
 93
       13
 44
0.0
173
     0
291
     1
 45
0.0
1001
ACAD
1000
AcDbSavedByObjectVersion
1070
     0
  0
VISUALSTYLE
  5
2C
102
{ACAD_REACTORS
330
2A
102
}
330
2A
100
AcDbVisualStyle
  2
FlatWithEdges
 70
     1
 71
     2
 72
     1
 73
     1
 90
        2
 40
-0.6
 41
30.0
 62
     5
 63
     7
421
 16777215
 74
     1
 91
        4
 64
     7
 65
   257
 75
     1
175
     1
 42
1.0
 92
        0
 66
   257
 43
1.0
 76
     1
 77
     6
 78
     2
 67
     7
 79
     5
170
     0
171
     0
290
     0
174
     0
 93
       13
 44
0.0
173
     0
291
     1
 45
0.0
1001
ACAD
1000
AcDbSavedByObjectVersion
1070
     0
  0
VISUALSTYLE
  5
2D
102
{ACAD_REACTORS
330
2A
102
}
330
2A
100
AcDbVisualStyle
  2
Gouraud
 70
     2
 71
     2
 72
     2
 73
     1
 90
        2
 40
-0.6
 41
30.0
 62
     5
 63
     7
421
 16777215
 74
     0
 91
        4
 64
     7
 65
   257
 75
     1
175
     1
 42
1.0
 92
        0
 66
     7
 43
1.0
 76
     1
 77
     6
 78
     2
 67
     7
 79
     5
170
     0
171
     0
290
     0
174
     0
 93
       13
 44
0.0
173
     0
291
     1
 45
0.0
1001
ACAD
1000
AcDbSavedByObjectVersion
1070
     0
  0
VISUALSTYLE
  5
2E
102
{ACAD_REACTORS
330
2A
102
}
330
2A
100
AcDbVisualStyle
  2
GouraudWithEdges
 70
     3
 71
     2
 72
     2
 73
     1
 90
        2
 40
-0.6
 41
30.0
 62
     5
 63
     7
421
 16777215
 74
     1
 91
        4
 64
     7
 65
   257
 75
     1
175
     1
 42
1.0
 92
        0
 66
   257
 43
1.0
 76
     1
 77
     6
 78
     2
 67
     7
 79
     5
170
     0
171
     0
290
     0
174
     0
 93
       13
 44
0.0
173
     0
291
     1
 45
0.0
1001
ACAD
1000
AcDbSavedByObjectVersion
1070
     0
  0
VISUALSTYLE
  5
38
102
{ACAD_REACTORS
330
2A
102
}
330
2A
100
AcDbVisualStyle
  2
Linepattern
 70
    14
 71
     2
 72
     2
 73
     0
 90
        0
 40
-0.6
 41
-30.0
 62
     5
 63
     7
421
 16777215
 74
     1
 91
        4
 64
     7
 65
   257
 75
     7
175
     7
 42
1.0
 92
        8
 66
     7
 43
1.0
 76
     1
 77
     6
 78
     2
 67
     7
 79
     5
170
     0
171
     0
290
     0
174
     0
 93
        1
 44
0.0
173
     0
291
     1
 45
0.0
1001
ACAD
1000
AcDbSavedByObjectVersion
1070
     0
  0
VISUALSTYLE
  5
33
102
{ACAD_REACTORS
330
2A
102
}
330
2A
100
AcDbVisualStyle
  2
Realistic
 70
     8
 71
     2
 72
     2
 73
     0
 90
        0
 40
-0.6
 41
-30.0
 62
     5
 63
     7
421
 16777215
 74
     1
 91
        0
 64
     7
 65
   257
 75
     1
175
     1
 42
1.0
 92
        8
 66
     8
424
  7895160
 43
1.0
 76
     1
 77
     6
 78
     2
 67
     7
 79
     5
170
     0
171
     0
290
     0
174
     0
 93
       13
 44
0.0
173
     0
291
     0
 45
0.0
1001
ACAD
1000
AcDbSavedByObjectVersion
1070
     0
  0
VISUALSTYLE
  5
37
102
{ACAD_REACTORS
330
2A
102
}
330
2A
100
AcDbVisualStyle
  2
Thicken
 70
    13
 71
     2
 72
     2
 73
     0
 90
        0
 40
-0.6
 41
-30.0
 62
     5
 63
     7
421
 16777215
 74
     1
 91
        4
 64
     7
 65
   257
 75
     1
175
     1
 42
1.0
 92
       12
 66
     7
 43
1.0
 76
     1
 77
     6
 78
     2
 67
     7
 79
     5
170
     0
171
     0
290
     0
174
     0
 93
        1
 44
0.0
173
     0
291
     1
 45
0.0
1001
ACAD
1000
AcDbSavedByObjectVersion
1070
     0
  0
XRECORD
  5
396
102
{ACAD_REACTORS
330
395
102
}
330
395
100
AcDbXrecord
280
     1
1000
Ten plik DWG został utworzony w programie ArchiCAD(TM)®
  0
SPATIAL_FILTER
  5
38E
102
{ACAD_REACTORS
330
38D
102
}
330
38D
100
AcDbFilter
100
AcDbSpatialFilter
 70
     4
 10
0.0
 20
0.0
 10
297.0
 20
0.0
 10
297.0
 20
210.0
 10
0.0
 20
210.0
210
0.0
220
0.0
230
1.0
 11
0.0
 21
0.0
 31
0.0
 71
     1
 72
     0
 73
     0
 40
1.0
 40
0.0
 40
0.0
 40
0.0
 40
0.0
 40
1.0
 40
0.0
 40
0.0
 40
0.0
 40
0.0
 40
1.0
 40
0.0
 40
1.0
 40
0.0
 40
0.0
 40
0.0
 40
0.0
 40
1.0
 40
0.0
 40
0.0
 40
0.0
 40
0.0
 40
1.0
 40
0.0
  0
ENDSEC
  0
EOF
