  0
SECTION
  2
HEADER
  9
$ACADVER
  1
AC1015
  9
$ACADMAINTVER
 70
     6
  9
$DWGCODEPAGE
  3
ANSI_1250
  9
$INSBASE
 10
0.0
 20
0.0
 30
0.0
  9
$EXTMIN
 10
1.000000000000000E+20
 20
1.000000000000000E+20
 30
1.000000000000000E+20
  9
$EXTMAX
 10
-1.000000000000000E+20
 20
-1.000000000000000E+20
 30
-1.000000000000000E+20
  9
$LIMMIN
 10
0.0
 20
0.0
  9
$LIMMAX
 10
12.0
 20
9.0
  9
$ORTHOMODE
 70
     0
  9
$REGENMODE
 70
     1
  9
$FILLMODE
 70
     1
  9
$QTEXTMODE
 70
     0
  9
$MIRRTEXT
 70
     1
  9
$LTSCALE
 40
1.0
  9
$ATTMODE
 70
     1
  9
$TEXTSIZE
 40
0.2
  9
$TRACEWID
 40
0.05
  9
$TEXTSTYLE
  7
Standard
  9
$CLAYER
  8
0
  9
$CELTYPE
  6
ByLayer
  9
$CECOLOR
 62
   256
  9
$CELTSCALE
 40
1.0
  9
$DISPSILH
 70
     0
  9
$DIMSCALE
 40
1.0
  9
$DIMASZ
 40
0.18
  9
$DIMEXO
 40
0.0625
  9
$DIMDLI
 40
0.38
  9
$DIMRND
 40
0.0
  9
$DIMDLE
 40
0.0
  9
$DIMEXE
 40
0.18
  9
$DIMTP
 40
0.0
  9
$DIMTM
 40
0.0
  9
$DIMTXT
 40
0.18
  9
$DIMCEN
 40
0.09
  9
$DIMTSZ
 40
0.0
  9
$DIMTOL
 70
     0
  9
$DIMLIM
 70
     0
  9
$DIMTIH
 70
     1
  9
$DIMTOH
 70
     1
  9
$DIMSE1
 70
     0
  9
$DIMSE2
 70
     0
  9
$DIMTAD
 70
     0
  9
$DIMZIN
 70
     0
  9
$DIMBLK
  1

  9
$DIMASO
 70
     1
  9
$DIMSHO
 70
     1
  9
$DIMPOST
  1

  9
$DIMAPOST
  1

  9
$DIMALT
 70
     0
  9
$DIMALTD
 70
     2
  9
$DIMALTF
 40
25.4
  9
$DIMLFAC
 40
1.0
  9
$DIMTOFL
 70
     0
  9
$DIMTVP
 40
0.0
  9
$DIMTIX
 70
     0
  9
$DIMSOXD
 70
     0
  9
$DIMSAH
 70
     0
  9
$DIMBLK1
  1

  9
$DIMBLK2
  1

  9
$DIMSTYLE
  2
Standard
  9
$DIMCLRD
 70
     0
  9
$DIMCLRE
 70
     0
  9
$DIMCLRT
 70
     0
  9
$DIMTFAC
 40
1.0
  9
$DIMGAP
 40
0.09
  9
$DIMJUST
 70
     0
  9
$DIMSD1
 70
     0
  9
$DIMSD2
 70
     0
  9
$DIMTOLJ
 70
     1
  9
$DIMTZIN
 70
     0
  9
$DIMALTZ
 70
     0
  9
$DIMALTTZ
 70
     0
  9
$DIMUPT
 70
     0
  9
$DIMDEC
 70
     4
  9
$DIMTDEC
 70
     4
  9
$DIMALTU
 70
     2
  9
$DIMALTTD
 70
     2
  9
$DIMTXSTY
  7
Standard
  9
$DIMAUNIT
 70
     0
  9
$DIMADEC
 70
     0
  9
$DIMALTRND
 40
0.0
  9
$DIMAZIN
 70
     0
  9
$DIMDSEP
 70
    46
  9
$DIMATFIT
 70
     3
  9
$DIMFRAC
 70
     0
  9
$DIMLDRBLK
  1

  9
$DIMLUNIT
 70
     2
  9
$DIMLWD
 70
    -2
  9
$DIMLWE
 70
    -2
  9
$DIMTMOVE
 70
     0
  9
$LUNITS
 70
     2
  9
$LUPREC
 70
     4
  9
$SKETCHINC
 40
0.1
  9
$FILLETRAD
 40
0.5
  9
$AUNITS
 70
     0
  9
$AUPREC
 70
     0
  9
$MENU
  1
.
  9
$ELEVATION
 40
0.0
  9
$PELEVATION
 40
0.0
  9
$THICKNESS
 40
0.0
  9
$LIMCHECK
 70
     0
  9
$CHAMFERA
 40
0.5
  9
$CHAMFERB
 40
0.5
  9
$CHAMFERC
 40
1.0
  9
$CHAMFERD
 40
0.0
  9
$SKPOLY
 70
     0
  9
$TDCREATE
 40
2458996.587987014
  9
$TDUCREATE
 40
2458996.504653681
  9
$TDUPDATE
 40
2458996.587987025
  9
$TDUUPDATE
 40
2458996.504653692
  9
$TDINDWG
 40
0.0000000116
  9
$TDUSRTIMER
 40
0.0000000116
  9
$USRTIMER
 70
     1
  9
$ANGBASE
 50
0.0
  9
$ANGDIR
 70
     0
  9
$PDMODE
 70
     0
  9
$PDSIZE
 40
0.0
  9
$PLINEWID
 40
0.0
  9
$SPLFRAME
 70
     0
  9
$SPLINETYPE
 70
     6
  9
$SPLINESEGS
 70
     8
  9
$HANDSEED
  5
21C
  9
$SURFTAB1
 70
     6
  9
$SURFTAB2
 70
     6
  9
$SURFTYPE
 70
     6
  9
$SURFU
 70
     6
  9
$SURFV
 70
     6
  9
$UCSBASE
  2

  9
$UCSNAME
  2

  9
$UCSORG
 10
0.0
 20
0.0
 30
0.0
  9
$UCSXDIR
 10
1.0
 20
0.0
 30
0.0
  9
$UCSYDIR
 10
0.0
 20
1.0
 30
0.0
  9
$UCSORTHOREF
  2

  9
$UCSORTHOVIEW
 70
     0
  9
$UCSORGTOP
 10
0.0
 20
0.0
 30
0.0
  9
$UCSORGBOTTOM
 10
0.0
 20
0.0
 30
0.0
  9
$UCSORGLEFT
 10
0.0
 20
0.0
 30
0.0
  9
$UCSORGRIGHT
 10
0.0
 20
0.0
 30
0.0
  9
$UCSORGFRONT
 10
0.0
 20
0.0
 30
0.0
  9
$UCSORGBACK
 10
0.0
 20
0.0
 30
0.0
  9
$PUCSBASE
  2

  9
$PUCSNAME
  2

  9
$PUCSORG
 10
0.0
 20
0.0
 30
0.0
  9
$PUCSXDIR
 10
1.0
 20
0.0
 30
0.0
  9
$PUCSYDIR
 10
0.0
 20
1.0
 30
0.0
  9
$PUCSORTHOREF
  2

  9
$PUCSORTHOVIEW
 70
     0
  9
$PUCSORGTOP
 10
0.0
 20
0.0
 30
0.0
  9
$PUCSORGBOTTOM
 10
0.0
 20
0.0
 30
0.0
  9
$PUCSORGLEFT
 10
0.0
 20
0.0
 30
0.0
  9
$PUCSORGRIGHT
 10
0.0
 20
0.0
 30
0.0
  9
$PUCSORGFRONT
 10
0.0
 20
0.0
 30
0.0
  9
$PUCSORGBACK
 10
0.0
 20
0.0
 30
0.0
  9
$USERI1
 70
     0
  9
$USERI2
 70
     0
  9
$USERI3
 70
     0
  9
$USERI4
 70
     0
  9
$USERI5
 70
     0
  9
$USERR1
 40
0.0
  9
$USERR2
 40
0.0
  9
$USERR3
 40
0.0
  9
$USERR4
 40
0.0
  9
$USERR5
 40
0.0
  9
$WORLDVIEW
 70
     1
  9
$SHADEDGE
 70
     3
  9
$SHADEDIF
 70
    70
  9
$TILEMODE
 70
     1
  9
$MAXACTVP
 70
    64
  9
$PINSBASE
 10
0.0
 20
0.0
 30
0.0
  9
$PLIMCHECK
 70
     0
  9
$PEXTMIN
 10
1.000000000000000E+20
 20
1.000000000000000E+20
 30
1.000000000000000E+20
  9
$PEXTMAX
 10
-1.000000000000000E+20
 20
-1.000000000000000E+20
 30
-1.000000000000000E+20
  9
$PLIMMIN
 10
0.0
 20
0.0
  9
$PLIMMAX
 10
12.0
 20
9.0
  9
$UNITMODE
 70
     0
  9
$VISRETAIN
 70
     1
  9
$PLINEGEN
 70
     0
  9
$PSLTSCALE
 70
     1
  9
$TREEDEPTH
 70
  3020
  9
$CMLSTYLE
  2
Standard
  9
$CMLJUST
 70
     0
  9
$CMLSCALE
 40
1.0
  9
$PROXYGRAPHICS
 70
     1
  9
$MEASUREMENT
 70
     0
  9
$CELWEIGHT
370
    -1
  9
$ENDCAPS
280
     0
  9
$JOINSTYLE
280
     0
  9
$LWDISPLAY
290
     1
  9
$INSUNITS
 70
     0
  9
$HYPERLINKBASE
  1

  9
$STYLESHEET
  1

  9
$XEDIT
290
     1
  9
$CEPSNTYPE
380
     0
  9
$PSTYLEMODE
290
     1
  9
$FINGERPRINTGUID
  2
{247E8F71-912E-49EE-8D0E-6A8A6B60549D}
  9
$VERSIONGUID
  2
{FAEB1C32-E019-11D5-929B-00C0DF256EC4}
  9
$EXTNAMES
290
     1
  9
$PSVPSCALE
 40
0.0
  9
$OLESTARTUP
290
     0
  0
ENDSEC
  0
SECTION
  2
CLASSES
  0
CLASS
  1
ACDBDICTIONARYWDFLT
  2
AcDbDictionaryWithDefault
  3
ObjectDBX Classes
 90
        0
280
     0
281
     0
  0
CLASS
  1
VISUALSTYLE
  2
AcDbVisualStyle
  3
ObjectDBX Classes
 90
     4095
280
     0
281
     0
  0
CLASS
  1
SCALE
  2
AcDbScale
  3
ObjectDBX Classes
 90
     1153
280
     0
281
     0
  0
CLASS
  1
WIPEOUT
  2
AcDbWipeout
  3
WipeOut|AutoCAD Express Tool|expresstools@autodesk.com
 90
      127
280
     0
281
     1
  0
CLASS
  1
DICTIONARYVAR
  2
AcDbDictionaryVar
  3
ObjectDBX Classes
 90
        0
280
     0
281
     0
  0
CLASS
  1
ACDBPLACEHOLDER
  2
AcDbPlaceHolder
  3
ObjectDBX Classes
 90
        0
280
     0
281
     0
  0
CLASS
  1
LAYOUT
  2
AcDbLayout
  3
ObjectDBX Classes
 90
        0
280
     0
281
     0
  0
ENDSEC
  0
SECTION
  2
TABLES
  0
TABLE
  2
VPORT
  5
8
330
0
100
AcDbSymbolTable
 70
     1
  0
VPORT
  5
29
330
8
100
AcDbSymbolTableRecord
100
AcDbViewportTableRecord
  2
*Active
 70
     0
 10
0.0
 20
0.0
 11
1.0
 21
1.0
 12
0.0
 22
0.0
 13
0.0
 23
0.0
 14
0.5
 24
0.5
 15
0.5
 25
0.5
 16
0.0
 26
0.0
 36
1.0
 17
-899.5722239564083
 27
1304.144683322634
 37
0.0
 40
3296.344846021831
 41
0.8047922129055362
 42
50.0
 43
0.0
 44
0.0
 50
0.0
 51
0.0
 71
     0
 72
   100
 73
     1
 74
     3
 75
     0
 76
     0
 77
     0
 78
     0
281
     0
 65
     1
110
0.0
120
0.0
130
0.0
111
1.0
121
0.0
131
0.0
112
0.0
122
1.0
132
0.0
 79
     0
146
0.0
  0
ENDTAB
  0
TABLE
  2
LTYPE
  5
5
330
0
100
AcDbSymbolTable
 70
     4
  0
LTYPE
  5
14
330
5
100
AcDbSymbolTableRecord
100
AcDbLinetypeTableRecord
  2
ByBlock
 70
     0
  3

 72
    65
 73
     0
 40
0.0
  0
LTYPE
  5
15
330
5
100
AcDbSymbolTableRecord
100
AcDbLinetypeTableRecord
  2
ByLayer
 70
     0
  3

 72
    65
 73
     0
 40
0.0
  0
LTYPE
  5
16
330
5
100
AcDbSymbolTableRecord
100
AcDbLinetypeTableRecord
  2
Continuous
 70
     0
  3
Solid line
 72
    65
 73
     0
 40
0.0
  0
LTYPE
  5
5E
330
5
100
AcDbSymbolTableRecord
100
AcDbLinetypeTableRecord
  2
Wipeout_Contour
 70
     0
  3
- - - - - 
 72
    65
 73
     2
 40
1000.0
 49
0.0
 74
     0
 49
-1000.0
 74
     0
  0
LTYPE
  5
E4
330
5
100
AcDbSymbolTableRecord
100
AcDbLinetypeTableRecord
  2
Przerywana gęsta
 70
     0
  3
- - - - - 
 72
    65
 73
     2
 40
30.0
 49
20.0
 74
     0
 49
-10.0
 74
     0
  0
LTYPE
  5
E7
330
5
100
AcDbSymbolTableRecord
100
AcDbLinetypeTableRecord
  2
Kropki i Kreski
 70
     0
  3
- - - - - 
 72
    65
 73
     4
 40
67.02777624130249
 49
35.27777671813965
 74
     0
 49
-17.63888835906982
 74
     0
 49
0.0
 74
     0
 49
-14.11111116409302
 74
     0
  0
ENDTAB
  0
TABLE
  2
LAYER
  5
2
330
0
100
AcDbSymbolTable
 70
     3
  0
LAYER
  5
10
330
2
100
AcDbSymbolTableRecord
100
AcDbLayerTableRecord
  2
0
 70
     0
 62
     7
  6
Continuous
370
    -3
390
F
  0
LAYER
  5
5F
330
2
100
AcDbSymbolTableRecord
100
AcDbLayerTableRecord
  2
@__WIDOCZNE
 70
     0
 62
     7
  6
Continuous
370
    -3
390
F
  0
LAYER
  5
65
330
2
100
AcDbSymbolTableRecord
100
AcDbLayerTableRecord
  2
2D - Ogólne
 70
     0
 62
     7
  6
Continuous
370
    -3
390
F
  0
ENDTAB
  0
TABLE
  2
STYLE
  5
3
330
0
100
AcDbSymbolTable
 70
     4
  0
STYLE
  5
11
330
3
100
AcDbSymbolTableRecord
100
AcDbTextStyleTableRecord
  2
Standard
 70
     0
 40
0.0
 41
1.0
 50
0.0
 71
     0
 42
0.2
  3
txt
  4
BIGFONT.SHX
  0
STYLE
  5
119
330
3
100
AcDbSymbolTableRecord
100
AcDbTextStyleTableRecord
  2
GENERATED_STYLE_1
 70
     0
 40
0.0
 41
1.0
 50
0.0
 71
     0
 42
0.2
  3

  4

1001
ACAD
1000
Arial
1071
    60966
  0
STYLE
  5
11B
330
3
100
AcDbSymbolTableRecord
100
AcDbTextStyleTableRecord
  2
GENERATED_STYLE_2
 70
     0
 40
0.0
 41
1.0
 50
0.0
 71
     0
 42
0.2
  3

  4

1001
ACAD
1000
Arial
1071
 33615398
  0
STYLE
  5
120
330
3
100
AcDbSymbolTableRecord
100
AcDbTextStyleTableRecord
  2
GENERATED_STYLE_3
 70
     0
 40
0.0
 41
1.0
 50
0.0
 71
     0
 42
0.2
  3

  4

1001
ACAD
1000
Arial
1071
    41254
  0
ENDTAB
  0
TABLE
  2
VIEW
  5
6
330
0
100
AcDbSymbolTable
 70
     0
  0
ENDTAB
  0
TABLE
  2
UCS
  5
7
330
0
100
AcDbSymbolTable
 70
     0
  0
ENDTAB
  0
TABLE
  2
APPID
  5
9
330
0
100
AcDbSymbolTable
 70
     1
  0
APPID
  5
12
330
9
100
AcDbSymbolTableRecord
100
AcDbRegAppTableRecord
  2
ACAD
 70
     0
  0
ENDTAB
  0
TABLE
  2
DIMSTYLE
  5
A
330
0
100
AcDbSymbolTable
 70
     1
100
AcDbDimStyleTable
  0
DIMSTYLE
105
27
330
A
100
AcDbSymbolTableRecord
100
AcDbDimStyleTableRecord
  2
Standard
 70
     0
340
11
  0
ENDTAB
  0
TABLE
  2
BLOCK_RECORD
  5
1
330
0
100
AcDbSymbolTable
 70
    12
  0
BLOCK_RECORD
  5
1F
330
1
100
AcDbSymbolTableRecord
100
AcDbBlockTableRecord
  2
*Model_Space
340
22
  0
BLOCK_RECORD
  5
1B
330
1
100
AcDbSymbolTableRecord
100
AcDbBlockTableRecord
  2
*Paper_Space
340
1E
  0
BLOCK_RECORD
  5
23
330
1
100
AcDbSymbolTableRecord
100
AcDbBlockTableRecord
  2
*Paper_Space0
340
26
  0
BLOCK_RECORD
  5
61
330
1
100
AcDbSymbolTableRecord
100
AcDbBlockTableRecord
  2
*X1
340
0
102
{BLKREFS
331
6C
102
}
  0
BLOCK_RECORD
  5
AD
330
1
100
AcDbSymbolTableRecord
100
AcDbBlockTableRecord
  2
Izolacja cieplna 12_61
340
0
102
{BLKREFS
331
DD
102
}
  0
BLOCK_RECORD
  5
139
330
1
100
AcDbSymbolTableRecord
100
AcDbBlockTableRecord
  2
*X3
340
0
102
{BLKREFS
331
143
102
}
  0
BLOCK_RECORD
  5
152
330
1
100
AcDbSymbolTableRecord
100
AcDbBlockTableRecord
  2
*X4
340
0
102
{BLKREFS
331
15A
102
}
  0
BLOCK_RECORD
  5
15F
330
1
100
AcDbSymbolTableRecord
100
AcDbBlockTableRecord
  2
*X5
340
0
102
{BLKREFS
331
166
102
}
  0
BLOCK_RECORD
  5
16B
330
1
100
AcDbSymbolTableRecord
100
AcDbBlockTableRecord
  2
*X6
340
0
102
{BLKREFS
331
173
102
}
  0
BLOCK_RECORD
  5
178
330
1
100
AcDbSymbolTableRecord
100
AcDbBlockTableRecord
  2
*X7
340
0
102
{BLKREFS
331
180
102
}
  0
BLOCK_RECORD
  5
185
330
1
100
AcDbSymbolTableRecord
100
AcDbBlockTableRecord
  2
*X8
340
0
102
{BLKREFS
331
18D
102
}
  0
BLOCK_RECORD
  5
192
330
1
100
AcDbSymbolTableRecord
100
AcDbBlockTableRecord
  2
*X9
340
0
102
{BLKREFS
331
19A
102
}
  0
BLOCK_RECORD
  5
1A1
330
1
100
AcDbSymbolTableRecord
100
AcDbBlockTableRecord
  2
*X10
340
0
102
{BLKREFS
331
1A8
102
}
  0
BLOCK_RECORD
  5
213
330
1
100
AcDbSymbolTableRecord
100
AcDbBlockTableRecord
  2
Bez nazwy_STORY_MARKER
340
0
  0
ENDTAB
  0
ENDSEC
  0
SECTION
  2
BLOCKS
  0
BLOCK
  5
20
330
1F
100
AcDbEntity
  8
0
100
AcDbBlockBegin
  2
*Model_Space
 70
     0
 10
0.0
 20
0.0
 30
0.0
  3
*Model_Space
  1

  0
ENDBLK
  5
21
330
1F
100
AcDbEntity
  8
0
100
AcDbBlockEnd
  0
BLOCK
  5
1C
330
1B
100
AcDbEntity
 67
     1
  8
0
100
AcDbBlockBegin
  2
*Paper_Space
 70
     0
 10
0.0
 20
0.0
 30
0.0
  3
*Paper_Space
  1

  0
ENDBLK
  5
1D
330
1B
100
AcDbEntity
 67
     1
  8
0
100
AcDbBlockEnd
  0
BLOCK
  5
24
330
23
100
AcDbEntity
  8
0
100
AcDbBlockBegin
  2
*Paper_Space0
 70
     0
 10
0.0
 20
0.0
 30
0.0
  3
*Paper_Space0
  1

  0
ENDBLK
  5
25
330
23
100
AcDbEntity
  8
0
100
AcDbBlockEnd
  0
BLOCK
  5
62
330
61
100
AcDbEntity
  8
0
100
AcDbBlockBegin
  2
*X1
 70
     1
 10
0.0
 20
0.0
 30
0.0
  3
*X1
  1

  0
HATCH
  5
64
330
61
100
AcDbEntity
  8
2D - Ogólne
  6
Continuous
370
    13
100
AcDbHatch
 10
0.0
 20
0.0
 30
0.0
210
0.0
220
0.0
230
1.0
  2
SOLID
 70
     1
 71
     0
 91
        1
 92
        2
 72
     0
 73
     1
 93
        4
 10
-1009.329004988913
 20
499.9999992281851
 10
-1025.922529683141
 20
499.9999992281851
 10
-1025.922529683141
 20
474.9999983341146
 10
-1009.329004988913
 20
474.9999983341146
 97
        0
 75
     0
 76
     1
 98
        0
  0
HATCH
  5
66
330
61
100
AcDbEntity
  8
2D - Ogólne
  6
Continuous
370
    13
100
AcDbHatch
 10
0.0
 20
0.0
 30
0.0
210
0.0
220
0.0
230
1.0
  2
SOLID
 70
     1
 71
     0
 91
        1
 92
        2
 72
     0
 73
     1
 93
        4
 10
-1009.329004988913
 20
599.9999987811499
 10
-1025.922529683141
 20
599.9999987811499
 10
-1025.922529683141
 20
575.0000019103967
 10
-1009.329004988913
 20
575.0000019103967
 97
        0
 75
     0
 76
     1
 98
        0
  0
HATCH
  5
67
330
61
100
AcDbEntity
  8
2D - Ogólne
  6
Continuous
370
    13
100
AcDbHatch
 10
0.0
 20
0.0
 30
0.0
210
0.0
220
0.0
230
1.0
  2
SOLID
 70
     1
 71
     0
 91
        1
 92
        2
 72
     0
 73
     1
 93
        4
 10
-1009.329004988913
 20
699.9999983341145
 10
-1025.922529683141
 20
699.9999983341145
 10
-1025.922529683141
 20
675.0000014633615
 10
-1009.329004988913
 20
675.0000014633615
 97
        0
 75
     0
 76
     1
 98
        0
  0
HATCH
  5
68
330
61
100
AcDbEntity
  8
2D - Ogólne
  6
Continuous
370
    13
100
AcDbHatch
 10
0.0
 20
0.0
 30
0.0
210
0.0
220
0.0
230
1.0
  2
SOLID
 70
     1
 71
     0
 91
        1
 92
        2
 72
     0
 73
     1
 93
        4
 10
-1009.329004988913
 20
525.0000001222556
 10
-1025.922529683141
 20
525.0000001222556
 10
-1025.922529683141
 20
499.9999992281851
 10
-1009.329004988913
 20
499.9999992281851
 97
        0
 75
     0
 76
     1
 98
        0
  0
HATCH
  5
69
330
61
100
AcDbEntity
  8
2D - Ogólne
  6
Continuous
370
    13
100
AcDbHatch
 10
0.0
 20
0.0
 30
0.0
210
0.0
220
0.0
230
1.0
  2
SOLID
 70
     1
 71
     0
 91
        1
 92
        2
 72
     0
 73
     1
 93
        4
 10
-1009.329004988913
 20
624.9999996752204
 10
-1025.922529683141
 20
624.9999996752204
 10
-1025.922529683141
 20
599.9999987811499
 10
-1009.329004988913
 20
599.9999987811499
 97
        0
 75
     0
 76
     1
 98
        0
  0
HATCH
  5
6A
330
61
100
AcDbEntity
  8
2D - Ogólne
  6
Continuous
370
    13
100
AcDbHatch
 10
0.0
 20
0.0
 30
0.0
210
0.0
220
0.0
230
1.0
  2
SOLID
 70
     1
 71
     0
 91
        1
 92
        2
 72
     0
 73
     1
 93
        4
 10
-1025.922528797584
 20
700.0000001744004
 10
-1009.329005215526
 20
700.0000001744004
 10
-1009.329005215526
 20
720.1556496585239
 10
-1025.922528797584
 20
720.1556496585239
 97
        0
 75
     0
 76
     1
 98
        0
  0
ENDBLK
  5
63
330
61
100
AcDbEntity
  8
0
100
AcDbBlockEnd
  0
BLOCK
  5
AE
330
AD
100
AcDbEntity
  8
0
100
AcDbBlockBegin
  2
Izolacja cieplna 12_61
 70
     0
 10
-987.2273276714977
 20
720.1556545320572
 30
0.0
  3
Izolacja cieplna 12_61
  1

  0
LINE
  5
B0
330
AD
100
AcDbEntity
  8
@__WIDOCZNE
  6
Continuous
370
    13
100
AcDbLine
 10
-951.8335754018916
 20
764.8543840142992
 30
0.0
 11
-924.667541472801
 21
825.4582966128544
 31
0.0
  0
LINE
  5
B1
330
AD
100
AcDbEntity
  8
@__WIDOCZNE
  6
Continuous
370
    13
100
AcDbLine
 10
-984.4847508109457
 20
825.4582966128544
 30
0.0
 11
-957.3187413642388
 21
764.8543840142992
 31
0.0
  0
LINE
  5
B2
330
AD
100
AcDbEntity
  8
@__WIDOCZNE
  6
Continuous
370
    13
100
AcDbLine
 10
-886.5297892051047
 20
764.8543840142992
 30
0.0
 11
-859.3637552760141
 21
825.4582966128544
 31
0.0
  0
LINE
  5
B3
330
AD
100
AcDbEntity
  8
@__WIDOCZNE
  6
Continuous
370
    13
100
AcDbLine
 10
-919.1809646141588
 20
825.4582966128544
 30
0.0
 11
-892.0149551674518
 21
764.8543840142992
 31
0.0
  0
LINE
  5
B4
330
AD
100
AcDbEntity
  8
@__WIDOCZNE
  6
Continuous
370
    13
100
AcDbLine
 10
-821.2260030083178
 20
764.8543840142992
 30
0.0
 11
-794.0599690792271
 21
825.4582966128544
 31
0.0
  0
LINE
  5
B5
330
AD
100
AcDbEntity
  8
@__WIDOCZNE
  6
Continuous
370
    13
100
AcDbLine
 10
-853.8771784173719
 20
825.4582966128544
 30
0.0
 11
-826.711168970665
 21
764.8543840142992
 31
0.0
  0
LINE
  5
B6
330
AD
100
AcDbEntity
  8
@__WIDOCZNE
  6
Continuous
370
    13
100
AcDbLine
 10
-755.9222168115309
 20
764.8543840142992
 30
0.0
 11
-728.7561828824403
 21
825.4582966128544
 31
0.0
  0
LINE
  5
B7
330
AD
100
AcDbEntity
  8
@__WIDOCZNE
  6
Continuous
370
    13
100
AcDbLine
 10
-788.573392220585
 20
825.4582966128544
 30
0.0
 11
-761.4073827738781
 21
764.8543840142992
 31
0.0
  0
LINE
  5
B8
330
AD
100
AcDbEntity
  8
@__WIDOCZNE
  6
Continuous
370
    13
100
AcDbLine
 10
-690.618430614744
 20
764.8543840142992
 30
0.0
 11
-663.4523966856534
 21
825.4582966128544
 31
0.0
  0
LINE
  5
B9
330
AD
100
AcDbEntity
  8
@__WIDOCZNE
  6
Continuous
370
    13
100
AcDbLine
 10
-723.2696060237981
 20
825.4582966128544
 30
0.0
 11
-696.1035965770913
 21
764.8543840142992
 31
0.0
  0
LINE
  5
BA
330
AD
100
AcDbEntity
  8
@__WIDOCZNE
  6
Continuous
370
    13
100
AcDbLine
 10
-625.3146444179572
 20
764.8543840142992
 30
0.0
 11
-598.1486104888664
 21
825.4582966128544
 31
0.0
  0
LINE
  5
BB
330
AD
100
AcDbEntity
  8
@__WIDOCZNE
  6
Continuous
370
    13
100
AcDbLine
 10
-657.9658198270112
 20
825.4582966128544
 30
0.0
 11
-630.7998103803043
 21
764.8543840142992
 31
0.0
  0
LINE
  5
BC
330
AD
100
AcDbEntity
  8
@__WIDOCZNE
  6
Continuous
370
    13
100
AcDbLine
 10
-560.0108582211702
 20
764.8543840142992
 30
0.0
 11
-532.8448242920796
 21
825.4582966128544
 31
0.0
  0
LINE
  5
BD
330
AD
100
AcDbEntity
  8
@__WIDOCZNE
  6
Continuous
370
    13
100
AcDbLine
 10
-592.6620336302243
 20
825.4582966128544
 30
0.0
 11
-565.4960241835174
 21
764.8543840142992
 31
0.0
  0
LINE
  5
BE
330
AD
100
AcDbEntity
  8
@__WIDOCZNE
  6
Continuous
370
    13
100
AcDbLine
 10
-494.7070720243833
 20
764.8543840142992
 30
0.0
 11
-467.5410380952927
 21
825.4582966128544
 31
0.0
  0
LINE
  5
BF
330
AD
100
AcDbEntity
  8
@__WIDOCZNE
  6
Continuous
370
    13
100
AcDbLine
 10
-527.3582474334374
 20
825.4582966128544
 30
0.0
 11
-500.1922379867305
 21
764.8543840142992
 31
0.0
  0
LINE
  5
C0
330
AD
100
AcDbEntity
  8
@__WIDOCZNE
  6
Continuous
370
    13
100
AcDbLine
 10
-429.4032858275963
 20
764.8543840142992
 30
0.0
 11
-402.2372518985057
 21
825.4582966128544
 31
0.0
  0
LINE
  5
C1
330
AD
100
AcDbEntity
  8
@__WIDOCZNE
  6
Continuous
370
    13
100
AcDbLine
 10
-462.0544612366504
 20
825.4582966128544
 30
0.0
 11
-434.8884517899435
 21
764.8543840142992
 31
0.0
  0
LINE
  5
C2
330
AD
100
AcDbEntity
  8
@__WIDOCZNE
  6
Continuous
370
    13
100
AcDbLine
 10
-364.0994996308095
 20
764.8543840142992
 30
0.0
 11
-336.9334657017188
 21
825.4582966128544
 31
0.0
  0
LINE
  5
C3
330
AD
100
AcDbEntity
  8
@__WIDOCZNE
  6
Continuous
370
    13
100
AcDbLine
 10
-396.7506750398635
 20
825.4582966128544
 30
0.0
 11
-369.5846655931566
 21
764.8543840142992
 31
0.0
  0
LINE
  5
C4
330
AD
100
AcDbEntity
  8
@__WIDOCZNE
  6
Continuous
370
    13
100
AcDbLine
 10
-298.7957134340226
 20
764.8543840142992
 30
0.0
 11
-271.6296795049319
 21
825.4582966128544
 31
0.0
  0
LINE
  5
C5
330
AD
100
AcDbEntity
  8
@__WIDOCZNE
  6
Continuous
370
    13
100
AcDbLine
 10
-331.4468888430766
 20
825.4582966128544
 30
0.0
 11
-304.2808793963697
 21
764.8543840142992
 31
0.0
  0
ELLIPSE
  5
C6
330
AD
100
AcDbEntity
  8
@__WIDOCZNE
  6
Continuous
370
    13
100
AcDbEllipse
 10
-987.2273276714977
 20
752.0566715717534
 30
0.0
 11
32.65118458999934
 21
0.0
 31
0.0
210
0.0
220
0.0
230
1.0
 40
0.9770248899173052
 41
4.71238898038469
 42
6.695978724992978
  0
ELLIPSE
  5
C7
330
AD
100
AcDbEntity
  8
@__WIDOCZNE
  6
Continuous
370
    13
100
AcDbEllipse
 10
-954.5761277799571
 20
838.2560210155699
 30
0.0
 11
32.65118458999934
 21
0.0
 31
0.0
210
0.0
220
0.0
230
1.0
 40
0.9770248899173052
 41
5.870391545941215
 42
9.837571270799234
  0
ELLIPSE
  5
C8
330
AD
100
AcDbEntity
  8
@__WIDOCZNE
  6
Continuous
370
    13
100
AcDbEllipse
 10
-921.9249646120538
 20
752.0566835317729
 30
0.0
 11
32.65118458999934
 21
0.0
 31
0.0
210
0.0
220
0.0
230
1.0
 40
0.9770248899173052
 41
2.728799880001596
 42
6.695979068410936
  0
ELLIPSE
  5
C9
330
AD
100
AcDbEntity
  8
@__WIDOCZNE
  6
Continuous
370
    13
100
AcDbEllipse
 10
-889.2723415831703
 20
838.2560210155699
 30
0.0
 11
32.65118458999934
 21
0.0
 31
0.0
210
0.0
220
0.0
230
1.0
 40
0.9770248899173052
 41
5.870391545941215
 42
9.837571270799234
  0
ELLIPSE
  5
CA
330
AD
100
AcDbEntity
  8
@__WIDOCZNE
  6
Continuous
370
    13
100
AcDbEllipse
 10
-856.621178415267
 20
752.0566835317729
 30
0.0
 11
32.65118458999934
 21
0.0
 31
0.0
210
0.0
220
0.0
230
1.0
 40
0.9770248899173052
 41
2.728799880001596
 42
6.695979068410936
  0
ELLIPSE
  5
CB
330
AD
100
AcDbEntity
  8
@__WIDOCZNE
  6
Continuous
370
    13
100
AcDbEllipse
 10
-823.9685553863834
 20
838.2560210155699
 30
0.0
 11
32.65118458999934
 21
0.0
 31
0.0
210
0.0
220
0.0
230
1.0
 40
0.9770248899173052
 41
5.870391545941215
 42
9.837571270799234
  0
ELLIPSE
  5
CC
330
AD
100
AcDbEntity
  8
@__WIDOCZNE
  6
Continuous
370
    13
100
AcDbEllipse
 10
-791.3173922184801
 20
752.0566835317729
 30
0.0
 11
32.65118458999934
 21
0.0
 31
0.0
210
0.0
220
0.0
230
1.0
 40
0.9770248899173052
 41
2.728799880001596
 42
6.695979068410936
  0
ELLIPSE
  5
CD
330
AD
100
AcDbEntity
  8
@__WIDOCZNE
  6
Continuous
370
    13
100
AcDbEllipse
 10
-758.6647691895963
 20
838.2560210155699
 30
0.0
 11
32.65118458999934
 21
0.0
 31
0.0
210
0.0
220
0.0
230
1.0
 40
0.9770248899173052
 41
5.870391545941215
 42
9.837571270799232
  0
ELLIPSE
  5
CE
330
AD
100
AcDbEntity
  8
@__WIDOCZNE
  6
Continuous
370
    13
100
AcDbEllipse
 10
-726.013606021693
 20
752.0566835317729
 30
0.0
 11
32.65118458999934
 21
0.0
 31
0.0
210
0.0
220
0.0
230
1.0
 40
0.9770248899173052
 41
2.728799880001598
 42
6.695979068410938
  0
ELLIPSE
  5
CF
330
AD
100
AcDbEntity
  8
@__WIDOCZNE
  6
Continuous
370
    13
100
AcDbEllipse
 10
-693.3609829928095
 20
838.2560210155699
 30
0.0
 11
32.65118458999934
 21
0.0
 31
0.0
210
0.0
220
0.0
230
1.0
 40
0.9770248899173052
 41
5.870391545941215
 42
9.837571270799232
  0
ELLIPSE
  5
D0
330
AD
100
AcDbEntity
  8
@__WIDOCZNE
  6
Continuous
370
    13
100
AcDbEllipse
 10
-660.7098198249062
 20
752.0566835317729
 30
0.0
 11
32.65118458999934
 21
0.0
 31
0.0
210
0.0
220
0.0
230
1.0
 40
0.9770248899173052
 41
2.728799880001598
 42
6.695979068410938
  0
ELLIPSE
  5
D1
330
AD
100
AcDbEntity
  8
@__WIDOCZNE
  6
Continuous
370
    13
100
AcDbEllipse
 10
-628.0571967960226
 20
838.2560210155699
 30
0.0
 11
32.65118458999934
 21
0.0
 31
0.0
210
0.0
220
0.0
230
1.0
 40
0.9770248899173052
 41
5.870391545941215
 42
9.837571270799232
  0
ELLIPSE
  5
D2
330
AD
100
AcDbEntity
  8
@__WIDOCZNE
  6
Continuous
370
    13
100
AcDbEllipse
 10
-595.4060336281193
 20
752.0566835317729
 30
0.0
 11
32.65118458999934
 21
0.0
 31
0.0
210
0.0
220
0.0
230
1.0
 40
0.9770248899173052
 41
2.728799880001598
 42
6.695979068410938
  0
ELLIPSE
  5
D3
330
AD
100
AcDbEntity
  8
@__WIDOCZNE
  6
Continuous
370
    13
100
AcDbEllipse
 10
-562.7534105992356
 20
838.2560210155699
 30
0.0
 11
32.65118458999934
 21
0.0
 31
0.0
210
0.0
220
0.0
230
1.0
 40
0.9770248899173052
 41
5.870391545941215
 42
9.837571270799232
  0
ELLIPSE
  5
D4
330
AD
100
AcDbEntity
  8
@__WIDOCZNE
  6
Continuous
370
    13
100
AcDbEllipse
 10
-530.1022474313323
 20
752.0566835317729
 30
0.0
 11
32.65118458999934
 21
0.0
 31
0.0
210
0.0
220
0.0
230
1.0
 40
0.9770248899173052
 41
2.728799880001598
 42
6.695979068410938
  0
ELLIPSE
  5
D5
330
AD
100
AcDbEntity
  8
@__WIDOCZNE
  6
Continuous
370
    13
100
AcDbEllipse
 10
-497.4496244024488
 20
838.2560210155699
 30
0.0
 11
32.65118458999934
 21
0.0
 31
0.0
210
0.0
220
0.0
230
1.0
 40
0.9770248899173052
 41
5.870391545941215
 42
9.837571270799232
  0
ELLIPSE
  5
D6
330
AD
100
AcDbEntity
  8
@__WIDOCZNE
  6
Continuous
370
    13
100
AcDbEllipse
 10
-464.7984612345456
 20
752.0566835317729
 30
0.0
 11
32.65118458999934
 21
0.0
 31
0.0
210
0.0
220
0.0
230
1.0
 40
0.9770248899173052
 41
2.728799880001596
 42
6.695979068410936
  0
ELLIPSE
  5
D7
330
AD
100
AcDbEntity
  8
@__WIDOCZNE
  6
Continuous
370
    13
100
AcDbEllipse
 10
-432.1458382056619
 20
838.2560210155699
 30
0.0
 11
32.65118458999934
 21
0.0
 31
0.0
210
0.0
220
0.0
230
1.0
 40
0.9770248899173052
 41
5.870391545941215
 42
9.837571270799234
  0
ELLIPSE
  5
D8
330
AD
100
AcDbEntity
  8
@__WIDOCZNE
  6
Continuous
370
    13
100
AcDbEllipse
 10
-399.4946750377586
 20
752.0566835317729
 30
0.0
 11
32.65118458999934
 21
0.0
 31
0.0
210
0.0
220
0.0
230
1.0
 40
0.9770248899173052
 41
2.728799880001596
 42
6.695979068410936
  0
ELLIPSE
  5
D9
330
AD
100
AcDbEntity
  8
@__WIDOCZNE
  6
Continuous
370
    13
100
AcDbEllipse
 10
-366.842052008875
 20
838.2560210155699
 30
0.0
 11
32.65118458999934
 21
0.0
 31
0.0
210
0.0
220
0.0
230
1.0
 40
0.9770248899173052
 41
5.870391545941215
 42
9.837571270799234
  0
ELLIPSE
  5
DA
330
AD
100
AcDbEntity
  8
@__WIDOCZNE
  6
Continuous
370
    13
100
AcDbEllipse
 10
-334.1908888409717
 20
752.0566835317729
 30
0.0
 11
32.65118458999934
 21
0.0
 31
0.0
210
0.0
220
0.0
230
1.0
 40
0.9770248899173052
 41
2.728799880001596
 42
6.695979068410936
  0
ELLIPSE
  5
DB
330
AD
100
AcDbEntity
  8
@__WIDOCZNE
  6
Continuous
370
    13
100
AcDbEllipse
 10
-301.5382658120881
 20
838.2560210155699
 30
0.0
 11
32.65118458999934
 21
0.0
 31
0.0
210
0.0
220
0.0
230
1.0
 40
0.9770248899173052
 41
5.870391545941215
 42
9.837571270799234
  0
ELLIPSE
  5
DC
330
AD
100
AcDbEntity
  8
@__WIDOCZNE
  6
Continuous
370
    13
100
AcDbEllipse
 10
-268.8871026441848
 20
752.0566835317729
 30
0.0
 11
32.65118458999934
 21
0.0
 31
0.0
210
0.0
220
0.0
230
1.0
 40
0.9770248899173052
 41
2.728799880001596
 42
4.71238898038469
  0
ENDBLK
  5
AF
330
AD
100
AcDbEntity
  8
0
100
AcDbBlockEnd
  0
BLOCK
  5
13A
330
139
100
AcDbEntity
  8
0
100
AcDbBlockBegin
  2
*X3
 70
     1
 10
0.0
 20
0.0
 30
0.0
  3
*X3
  1

  0
HATCH
  5
13C
330
139
100
AcDbEntity
  8
2D - Ogólne
  6
Continuous
370
    13
100
AcDbHatch
 10
0.0
 20
0.0
 30
0.0
210
0.0
220
0.0
230
1.0
  2
SOLID
 70
     1
 71
     0
 91
        1
 92
        2
 72
     0
 73
     1
 93
        4
 10
-1009.329004988913
 20
900.0000001222556
 10
-1025.922529683141
 20
900.0000001222556
 10
-1025.922529683141
 20
874.9999992281852
 10
-1009.329004988913
 20
874.9999992281852
 97
        0
 75
     0
 76
     1
 98
        0
  0
HATCH
  5
13D
330
139
100
AcDbEntity
  8
2D - Ogólne
  6
Continuous
370
    13
100
AcDbHatch
 10
0.0
 20
0.0
 30
0.0
210
0.0
220
0.0
230
1.0
  2
SOLID
 70
     1
 71
     0
 91
        1
 92
        2
 72
     0
 73
     1
 93
        4
 10
-1009.329004988913
 20
999.9999996752205
 10
-1025.922529683141
 20
999.9999996752205
 10
-1025.922529683141
 20
974.9999987811499
 10
-1009.329004988913
 20
974.9999987811499
 97
        0
 75
     0
 76
     1
 98
        0
  0
HATCH
  5
13E
330
139
100
AcDbEntity
  8
2D - Ogólne
  6
Continuous
370
    13
100
AcDbHatch
 10
0.0
 20
0.0
 30
0.0
210
0.0
220
0.0
230
1.0
  2
SOLID
 70
     1
 71
     0
 91
        1
 92
        2
 72
     0
 73
     1
 93
        4
 10
-1009.329004988913
 20
1099.999999228185
 10
-1025.922529683141
 20
1099.999999228185
 10
-1025.922529683141
 20
1074.999998334114
 10
-1009.329004988913
 20
1074.999998334114
 97
        0
 75
     0
 76
     1
 98
        0
  0
HATCH
  5
13F
330
139
100
AcDbEntity
  8
2D - Ogólne
  6
Continuous
370
    13
100
AcDbHatch
 10
0.0
 20
0.0
 30
0.0
210
0.0
220
0.0
230
1.0
  2
SOLID
 70
     1
 71
     0
 91
        1
 92
        2
 72
     0
 73
     1
 93
        4
 10
-1009.329004988913
 20
925.0000010163262
 10
-1025.922529683141
 20
925.0000010163262
 10
-1025.922529683141
 20
900.0000001222556
 10
-1009.329004988913
 20
900.0000001222556
 97
        0
 75
     0
 76
     1
 98
        0
  0
HATCH
  5
140
330
139
100
AcDbEntity
  8
2D - Ogólne
  6
Continuous
370
    13
100
AcDbHatch
 10
0.0
 20
0.0
 30
0.0
210
0.0
220
0.0
230
1.0
  2
SOLID
 70
     1
 71
     0
 91
        1
 92
        2
 72
     0
 73
     1
 93
        4
 10
-1009.329004988913
 20
1025.000000569291
 10
-1025.922529683141
 20
1025.000000569291
 10
-1025.922529683141
 20
999.9999996752205
 10
-1009.329004988913
 20
999.9999996752205
 97
        0
 75
     0
 76
     1
 98
        0
  0
HATCH
  5
141
330
139
100
AcDbEntity
  8
2D - Ogólne
  6
Continuous
370
    13
100
AcDbHatch
 10
0.0
 20
0.0
 30
0.0
210
0.0
220
0.0
230
1.0
  2
SOLID
 70
     1
 71
     0
 91
        1
 92
        2
 72
     0
 73
     1
 93
        4
 10
-1009.329004988913
 20
1125.000000122256
 10
-1025.922529683141
 20
1125.000000122256
 10
-1025.922529683141
 20
1099.999999228185
 10
-1009.329004988913
 20
1099.999999228185
 97
        0
 75
     0
 76
     1
 98
        0
  0
ENDBLK
  5
13B
330
139
100
AcDbEntity
  8
0
100
AcDbBlockEnd
  0
BLOCK
  5
153
330
152
100
AcDbEntity
  8
0
100
AcDbBlockBegin
  2
*X4
 70
     1
 10
0.0
 20
0.0
 30
0.0
  3
*X4
  1

  0
HATCH
  5
155
330
152
100
AcDbEntity
  8
2D - Ogólne
  6
Continuous
370
    13
100
AcDbHatch
 10
0.0
 20
0.0
 30
0.0
210
0.0
220
0.0
230
1.0
  2
SOLID
 70
     1
 71
     0
 91
        1
 92
        2
 72
     0
 73
     1
 93
        4
 10
-1008.885678287993
 20
2400.000000228883
 10
-1025.88567960222
 20
2400.000000228883
 10
-1025.88567960222
 20
2399.891688065995
 10
-1008.885678287993
 20
2399.891688065995
 97
        0
 75
     0
 76
     1
 98
        0
  0
HATCH
  5
156
330
152
100
AcDbEntity
  8
2D - Ogólne
  6
Continuous
370
    13
100
AcDbHatch
 10
0.0
 20
0.0
 30
0.0
210
0.0
220
0.0
230
1.0
  2
SOLID
 70
     1
 71
     0
 91
        1
 92
        2
 72
     0
 73
     1
 93
        4
 10
-1008.885679739409
 20
2499.999998956324
 10
-1025.885679859131
 20
2499.999998956324
 10
-1025.885679859131
 20
2475.000001042501
 10
-1008.885679739409
 20
2475.000001042501
 97
        0
 75
     0
 76
     1
 98
        0
  0
HATCH
  5
157
330
152
100
AcDbEntity
  8
2D - Ogólne
  6
Continuous
370
    13
100
AcDbHatch
 10
0.0
 20
0.0
 30
0.0
210
0.0
220
0.0
230
1.0
  2
SOLID
 70
     1
 71
     0
 91
        1
 92
        2
 72
     0
 73
     1
 93
        4
 10
-1008.885679739409
 20
2425.000000690375
 10
-1025.885679859131
 20
2425.000000690375
 10
-1025.885679859131
 20
2400.000000514313
 10
-1008.885679739409
 20
2400.000000514313
 97
        0
 75
     0
 76
     1
 98
        0
  0
HATCH
  5
158
330
152
100
AcDbEntity
  8
2D - Ogólne
  6
Continuous
370
    13
100
AcDbHatch
 10
0.0
 20
0.0
 30
0.0
210
0.0
220
0.0
230
1.0
  2
SOLID
 70
     1
 71
     0
 91
        1
 92
        2
 72
     0
 73
     1
 93
        4
 10
-1008.885679739409
 20
2524.999999132387
 10
-1025.885679859131
 20
2524.999999132387
 10
-1025.885679859131
 20
2499.999998956324
 10
-1008.885679739409
 20
2499.999998956324
 97
        0
 75
     0
 76
     1
 98
        0
  0
ENDBLK
  5
154
330
152
100
AcDbEntity
  8
0
100
AcDbBlockEnd
  0
BLOCK
  5
160
330
15F
100
AcDbEntity
  8
0
100
AcDbBlockBegin
  2
*X5
 70
     1
 10
0.0
 20
0.0
 30
0.0
  3
*X5
  1

  0
HATCH
  5
162
330
15F
100
AcDbEntity
  8
2D - Ogólne
  6
Continuous
370
    13
100
AcDbHatch
 10
0.0
 20
0.0
 30
0.0
210
0.0
220
0.0
230
1.0
  2
SOLID
 70
     1
 71
     0
 91
        1
 92
        2
 72
     0
 73
     1
 93
        4
 10
-1008.885680229267
 20
2100.000000615318
 10
-1025.885680071115
 20
2100.000000615318
 10
-1025.885680071115
 20
2075.000000553939
 10
-1008.885680229267
 20
2075.000000553939
 97
        0
 75
     0
 76
     1
 98
        0
  0
HATCH
  5
163
330
15F
100
AcDbEntity
  8
2D - Ogólne
  6
Continuous
370
    13
100
AcDbHatch
 10
0.0
 20
0.0
 30
0.0
210
0.0
220
0.0
230
1.0
  2
SOLID
 70
     1
 71
     0
 91
        1
 92
        2
 72
     0
 73
     1
 93
        4
 10
-1025.885678563522
 20
2175.000000968274
 10
-1008.885679723498
 20
2175.000000968274
 10
-1008.885679723498
 20
2199.387072966206
 10
-1025.885678563522
 20
2199.387072966206
 97
        0
 75
     0
 76
     1
 98
        0
  0
HATCH
  5
164
330
15F
100
AcDbEntity
  8
2D - Ogólne
  6
Continuous
370
    13
100
AcDbHatch
 10
0.0
 20
0.0
 30
0.0
210
0.0
220
0.0
230
1.0
  2
SOLID
 70
     1
 71
     0
 91
        1
 92
        2
 72
     0
 73
     1
 93
        4
 10
-1008.885680229267
 20
2125.000000676696
 10
-1025.885680071115
 20
2125.000000676696
 10
-1025.885680071115
 20
2100.000000615318
 10
-1008.885680229267
 20
2100.000000615318
 97
        0
 75
     0
 76
     1
 98
        0
  0
ENDBLK
  5
161
330
15F
100
AcDbEntity
  8
0
100
AcDbBlockEnd
  0
BLOCK
  5
16C
330
16B
100
AcDbEntity
  8
0
100
AcDbBlockBegin
  2
*X6
 70
     1
 10
0.0
 20
0.0
 30
0.0
  3
*X6
  1

  0
HATCH
  5
16E
330
16B
100
AcDbEntity
  8
2D - Ogólne
  6
Continuous
370
    13
100
AcDbHatch
 10
0.0
 20
0.0
 30
0.0
210
0.0
220
0.0
230
1.0
  2
SOLID
 70
     1
 71
     0
 91
        1
 92
        2
 72
     0
 73
     1
 93
        4
 10
-1010.342660787197
 20
1700.000000403316
 10
-1020.548226937002
 20
1700.000000403316
 10
-1020.548226937002
 20
1675.000000876676
 10
-1010.342660787197
 20
1675.000000876676
 97
        0
 75
     0
 76
     1
 98
        0
  0
HATCH
  5
16F
330
16B
100
AcDbEntity
  8
2D - Ogólne
  6
Continuous
370
    13
100
AcDbHatch
 10
0.0
 20
0.0
 30
0.0
210
0.0
220
0.0
230
1.0
  2
SOLID
 70
     1
 71
     0
 91
        1
 92
        2
 72
     0
 73
     1
 93
        4
 10
-1010.342660787197
 20
1799.999998509875
 10
-1020.548226937002
 20
1799.999998509875
 10
-1020.548226937002
 20
1774.999998983236
 10
-1010.342660787197
 20
1774.999998983236
 97
        0
 75
     0
 76
     1
 98
        0
  0
HATCH
  5
170
330
16B
100
AcDbEntity
  8
2D - Ogólne
  6
Continuous
370
    13
100
AcDbHatch
 10
0.0
 20
0.0
 30
0.0
210
0.0
220
0.0
230
1.0
  2
SOLID
 70
     1
 71
     0
 91
        1
 92
        2
 72
     0
 73
     1
 93
        4
 10
-1010.342660787197
 20
1724.999999929956
 10
-1020.548226937002
 20
1724.999999929956
 10
-1020.548226937002
 20
1700.000000403316
 10
-1010.342660787197
 20
1700.000000403316
 97
        0
 75
     0
 76
     1
 98
        0
  0
HATCH
  5
171
330
16B
100
AcDbEntity
  8
2D - Ogólne
  6
Continuous
370
    13
100
AcDbHatch
 10
0.0
 20
0.0
 30
0.0
210
0.0
220
0.0
230
1.0
  2
SOLID
 70
     1
 71
     0
 91
        1
 92
        2
 72
     0
 73
     1
 93
        4
 10
-1010.342660787197
 20
1825.000001193828
 10
-1020.548226937002
 20
1825.000001193828
 10
-1020.548226937002
 20
1799.999998509875
 10
-1010.342660787197
 20
1799.999998509875
 97
        0
 75
     0
 76
     1
 98
        0
  0
ENDBLK
  5
16D
330
16B
100
AcDbEntity
  8
0
100
AcDbBlockEnd
  0
BLOCK
  5
179
330
178
100
AcDbEntity
  8
0
100
AcDbBlockBegin
  2
*X7
 70
     1
 10
0.0
 20
0.0
 30
0.0
  3
*X7
  1

  0
HATCH
  5
17B
330
178
100
AcDbEntity
  8
2D - Ogólne
  6
Continuous
370
    13
100
AcDbHatch
 10
0.0
 20
0.0
 30
0.0
210
0.0
220
0.0
230
1.0
  2
SOLID
 70
     1
 71
     0
 91
        1
 92
        2
 72
     0
 73
     1
 93
        4
 10
-1023.65339382114
 20
1700.000000403316
 10
-1033.858959970945
 20
1700.000000403316
 10
-1033.858959970945
 20
1675.000000876676
 10
-1023.65339382114
 20
1675.000000876676
 97
        0
 75
     0
 76
     1
 98
        0
  0
HATCH
  5
17C
330
178
100
AcDbEntity
  8
2D - Ogólne
  6
Continuous
370
    13
100
AcDbHatch
 10
0.0
 20
0.0
 30
0.0
210
0.0
220
0.0
230
1.0
  2
SOLID
 70
     1
 71
     0
 91
        1
 92
        2
 72
     0
 73
     1
 93
        4
 10
-1023.65339382114
 20
1799.999998509875
 10
-1033.858959970945
 20
1799.999998509875
 10
-1033.858959970945
 20
1774.999998983236
 10
-1023.65339382114
 20
1774.999998983236
 97
        0
 75
     0
 76
     1
 98
        0
  0
HATCH
  5
17D
330
178
100
AcDbEntity
  8
2D - Ogólne
  6
Continuous
370
    13
100
AcDbHatch
 10
0.0
 20
0.0
 30
0.0
210
0.0
220
0.0
230
1.0
  2
SOLID
 70
     1
 71
     0
 91
        1
 92
        2
 72
     0
 73
     1
 93
        4
 10
-1023.65339382114
 20
1724.999999929956
 10
-1033.858959970945
 20
1724.999999929956
 10
-1033.858959970945
 20
1700.000000403316
 10
-1023.65339382114
 20
1700.000000403316
 97
        0
 75
     0
 76
     1
 98
        0
  0
HATCH
  5
17E
330
178
100
AcDbEntity
  8
2D - Ogólne
  6
Continuous
370
    13
100
AcDbHatch
 10
0.0
 20
0.0
 30
0.0
210
0.0
220
0.0
230
1.0
  2
SOLID
 70
     1
 71
     0
 91
        1
 92
        2
 72
     0
 73
     1
 93
        4
 10
-1023.65339382114
 20
1825.000001193828
 10
-1033.858959970945
 20
1825.000001193828
 10
-1033.858959970945
 20
1799.999998509875
 10
-1023.65339382114
 20
1799.999998509875
 97
        0
 75
     0
 76
     1
 98
        0
  0
ENDBLK
  5
17A
330
178
100
AcDbEntity
  8
0
100
AcDbBlockEnd
  0
BLOCK
  5
186
330
185
100
AcDbEntity
  8
0
100
AcDbBlockBegin
  2
*X8
 70
     1
 10
0.0
 20
0.0
 30
0.0
  3
*X8
  1

  0
HATCH
  5
188
330
185
100
AcDbEntity
  8
2D - Ogólne
  6
Continuous
370
    13
100
AcDbHatch
 10
0.0
 20
0.0
 30
0.0
210
0.0
220
0.0
230
1.0
  2
SOLID
 70
     1
 71
     0
 91
        1
 92
        2
 72
     0
 73
     1
 93
        4
 10
-1010.342660787197
 20
1400.000000932213
 10
-1020.548226937002
 20
1400.000000932213
 10
-1020.548226937002
 20
1375.000001405573
 10
-1010.342660787197
 20
1375.000001405573
 97
        0
 75
     0
 76
     1
 98
        0
  0
HATCH
  5
189
330
185
100
AcDbEntity
  8
2D - Ogólne
  6
Continuous
370
    13
100
AcDbHatch
 10
0.0
 20
0.0
 30
0.0
210
0.0
220
0.0
230
1.0
  2
SOLID
 70
     1
 71
     0
 91
        1
 92
        2
 72
     0
 73
     1
 93
        4
 10
-1010.342660787197
 20
1499.999999038772
 10
-1020.548226937002
 20
1499.999999038772
 10
-1020.548226937002
 20
1474.999999512132
 10
-1010.342660787197
 20
1474.999999512132
 97
        0
 75
     0
 76
     1
 98
        0
  0
HATCH
  5
18A
330
185
100
AcDbEntity
  8
2D - Ogólne
  6
Continuous
370
    13
100
AcDbHatch
 10
0.0
 20
0.0
 30
0.0
210
0.0
220
0.0
230
1.0
  2
SOLID
 70
     1
 71
     0
 91
        1
 92
        2
 72
     0
 73
     1
 93
        4
 10
-1010.342660787197
 20
1425.000000458853
 10
-1020.548226937002
 20
1425.000000458853
 10
-1020.548226937002
 20
1400.000000932213
 10
-1010.342660787197
 20
1400.000000932213
 97
        0
 75
     0
 76
     1
 98
        0
  0
HATCH
  5
18B
330
185
100
AcDbEntity
  8
2D - Ogólne
  6
Continuous
370
    13
100
AcDbHatch
 10
0.0
 20
0.0
 30
0.0
210
0.0
220
0.0
230
1.0
  2
SOLID
 70
     1
 71
     0
 91
        1
 92
        2
 72
     0
 73
     1
 93
        4
 10
-1010.342660787197
 20
1524.999998565412
 10
-1020.548226937002
 20
1524.999998565412
 10
-1020.548226937002
 20
1499.999999038772
 10
-1010.342660787197
 20
1499.999999038772
 97
        0
 75
     0
 76
     1
 98
        0
  0
ENDBLK
  5
187
330
185
100
AcDbEntity
  8
0
100
AcDbBlockEnd
  0
BLOCK
  5
193
330
192
100
AcDbEntity
  8
0
100
AcDbBlockBegin
  2
*X9
 70
     1
 10
0.0
 20
0.0
 30
0.0
  3
*X9
  1

  0
HATCH
  5
195
330
192
100
AcDbEntity
  8
2D - Ogólne
  6
Continuous
370
    13
100
AcDbHatch
 10
0.0
 20
0.0
 30
0.0
210
0.0
220
0.0
230
1.0
  2
SOLID
 70
     1
 71
     0
 91
        1
 92
        2
 72
     0
 73
     1
 93
        4
 10
-1023.65339382114
 20
1400.000000932213
 10
-1033.858959970945
 20
1400.000000932213
 10
-1033.858959970945
 20
1375.000001405573
 10
-1023.65339382114
 20
1375.000001405573
 97
        0
 75
     0
 76
     1
 98
        0
  0
HATCH
  5
196
330
192
100
AcDbEntity
  8
2D - Ogólne
  6
Continuous
370
    13
100
AcDbHatch
 10
0.0
 20
0.0
 30
0.0
210
0.0
220
0.0
230
1.0
  2
SOLID
 70
     1
 71
     0
 91
        1
 92
        2
 72
     0
 73
     1
 93
        4
 10
-1023.65339382114
 20
1499.999999038772
 10
-1033.858959970945
 20
1499.999999038772
 10
-1033.858959970945
 20
1474.999999512132
 10
-1023.65339382114
 20
1474.999999512132
 97
        0
 75
     0
 76
     1
 98
        0
  0
HATCH
  5
197
330
192
100
AcDbEntity
  8
2D - Ogólne
  6
Continuous
370
    13
100
AcDbHatch
 10
0.0
 20
0.0
 30
0.0
210
0.0
220
0.0
230
1.0
  2
SOLID
 70
     1
 71
     0
 91
        1
 92
        2
 72
     0
 73
     1
 93
        4
 10
-1023.65339382114
 20
1425.000000458853
 10
-1033.858959970945
 20
1425.000000458853
 10
-1033.858959970945
 20
1400.000000932213
 10
-1023.65339382114
 20
1400.000000932213
 97
        0
 75
     0
 76
     1
 98
        0
  0
HATCH
  5
198
330
192
100
AcDbEntity
  8
2D - Ogólne
  6
Continuous
370
    13
100
AcDbHatch
 10
0.0
 20
0.0
 30
0.0
210
0.0
220
0.0
230
1.0
  2
SOLID
 70
     1
 71
     0
 91
        1
 92
        2
 72
     0
 73
     1
 93
        4
 10
-1023.65339382114
 20
1524.999998565412
 10
-1033.858959970945
 20
1524.999998565412
 10
-1033.858959970945
 20
1499.999999038772
 10
-1023.65339382114
 20
1499.999999038772
 97
        0
 75
     0
 76
     1
 98
        0
  0
ENDBLK
  5
194
330
192
100
AcDbEntity
  8
0
100
AcDbBlockEnd
  0
BLOCK
  5
1A2
330
1A1
100
AcDbEntity
  8
0
100
AcDbBlockBegin
  2
*X10
 70
     1
 10
0.0
 20
0.0
 30
0.0
  3
*X10
  1

  0
HATCH
  5
1A4
330
1A1
100
AcDbEntity
  8
2D - Ogólne
  6
Continuous
370
    13
100
AcDbHatch
 10
0.0
 20
0.0
 30
0.0
210
0.0
220
0.0
230
1.0
  2
SOLID
 70
     1
 71
     0
 91
        1
 92
        2
 72
     0
 73
     1
 93
        4
 10
-1008.885679739409
 20
2099.999999801425
 10
-1025.885679859131
 20
2099.999999801425
 10
-1025.885679859131
 20
2074.999999625362
 10
-1008.885679739409
 20
2074.999999625362
 97
        0
 75
     0
 76
     1
 98
        0
  0
HATCH
  5
1A5
330
1A1
100
AcDbEntity
  8
2D - Ogólne
  6
Continuous
370
    13
100
AcDbHatch
 10
0.0
 20
0.0
 30
0.0
210
0.0
220
0.0
230
1.0
  2
SOLID
 70
     1
 71
     0
 91
        1
 92
        2
 72
     0
 73
     1
 93
        4
 10
-1025.885678563522
 20
2175.000000968274
 10
-1008.885679723498
 20
2175.000000968274
 10
-1008.885679723498
 20
2183.52394063667
 10
-1025.885678563522
 20
2183.52394063667
 97
        0
 75
     0
 76
     1
 98
        0
  0
HATCH
  5
1A6
330
1A1
100
AcDbEntity
  8
2D - Ogólne
  6
Continuous
370
    13
100
AcDbHatch
 10
0.0
 20
0.0
 30
0.0
210
0.0
220
0.0
230
1.0
  2
SOLID
 70
     1
 71
     0
 91
        1
 92
        2
 72
     0
 73
     1
 93
        4
 10
-1008.885679739409
 20
2124.999999977487
 10
-1025.885679859131
 20
2124.999999977487
 10
-1025.885679859131
 20
2099.999999801425
 10
-1008.885679739409
 20
2099.999999801425
 97
        0
 75
     0
 76
     1
 98
        0
  0
ENDBLK
  5
1A3
330
1A1
100
AcDbEntity
  8
0
100
AcDbBlockEnd
  0
BLOCK
  5
214
330
213
100
AcDbEntity
  8
0
100
AcDbBlockBegin
  2
Bez nazwy_STORY_MARKER
 70
     0
 10
0.0
 20
0.0
 30
0.0
  3
Bez nazwy_STORY_MARKER
  1

  0
ENDBLK
  5
215
330
213
100
AcDbEntity
  8
0
100
AcDbBlockEnd
  0
ENDSEC
  0
SECTION
  2
ENTITIES
  0
WIPEOUT
  5
5D
330
1F
100
AcDbEntity
  8
@__WIDOCZNE
  6
Wipeout_Contour
 62
   254
 48
4718.850721002116
370
     0
 92
      140
310
8C00000001000000840000000600000005000000771D23DF15878FC010553CC63E8186400000000000000000A2C808A7310990C010553CC63E8186400000000000000000A2C808A7310990C01DAA788C7D227C400000000000000000771D23DF15878FC01DAA788C7D227C400000000000000000771D23DF15878FC010553C
310
C63E8186400000000000000000
100
AcDbWipeout
 90
        0
 10
-1026.298488747831
 20
450.1556515420396
 30
0.0
 11
17.41280924120804
 21
0.0
 31
0.0
 12
0.0
 22
270.0000000000002
 32
0.0
 13
1.0
 23
1.0
340
0
 70
    15
280
     1
281
    50
282
    50
283
     0
360
0
 71
     2
 91
        5
 14
0.5000000000000032
 24
-0.5000000000000001
 14
-0.4999999999999967
 24
-0.5000000000000001
 14
-0.4999999999999967
 24
0.4999999999999999
 14
0.5000000000000032
 24
0.4999999999999999
 14
0.5000000000000032
 24
-0.5000000000000001
  0
LWPOLYLINE
  5
60
330
1F
100
AcDbEntity
  8
@__WIDOCZNE
  6
Continuous
370
    13
100
AcDbPolyline
 90
        4
 70
   129
 43
0.0
 10
-1008.885679506623
 20
720.1556515420398
 10
-1026.298488747831
 20
720.1556515420398
 10
-1026.298488747831
 20
450.1556515420396
 10
-1008.885679506623
 20
450.1556515420396
  0
WIPEOUT
  5
6B
330
1F
100
AcDbEntity
  8
2D - Ogólne
  6
Wipeout_Contour
 62
   254
 48
4718.964126820047
370
     0
 92
      140
310
8C000000010000008400000006000000050000003F7032CDA18A8FC01DAA788C7D227C4000000000000000003F7032CDA18A8FC00F553CC63E818640000000000000000065AE22ABB00790C00F553CC63E818640000000000000000065AE22ABB00790C01DAA788C7D227C4000000000000000003F7032CDA18A8FC01DAA78
310
8C7D227C400000000000000000
100
AcDbWipeout
 90
        0
 10
-1025.922527830023
 20
450.1556515420396
 30
0.0
 11
16.59352316650745
 21
0.0
 31
0.0
 12
0.0
 22
270.0000000000001
 32
0.0
 13
1.0
 23
1.0
340
0
 70
    15
280
     1
281
    50
282
    50
283
     0
360
0
 71
     2
 91
        5
 14
0.4999999999999966
 24
0.5000000000000001
 14
0.4999999999999966
 24
-0.4999999999999999
 14
-0.5000000000000034
 24
-0.4999999999999999
 14
-0.5000000000000034
 24
0.5000000000000001
 14
0.4999999999999966
 24
0.5000000000000001
  0
INSERT
  5
6C
330
1F
100
AcDbEntity
  8
2D - Ogólne
  6
Continuous
370
    13
100
AcDbBlockReference
  2
*X1
 10
0.0
 20
0.0
 30
0.0
  0
LINE
  5
6D
330
1F
100
AcDbEntity
  8
2D - Ogólne
  6
Continuous
370
    13
100
AcDbLine
 10
-1009.329004663516
 20
450.1556515420396
 30
0.0
 11
-1009.329004663516
 21
720.1556515420397
 31
0.0
  0
LINE
  5
6E
330
1F
100
AcDbEntity
  8
2D - Ogólne
  6
Continuous
370
    13
100
AcDbLine
 10
-1009.329004663516
 20
720.1556515420397
 30
0.0
 11
-1025.922527830023
 21
720.1556515420397
 31
0.0
  0
LINE
  5
6F
330
1F
100
AcDbEntity
  8
2D - Ogólne
  6
Continuous
370
    13
100
AcDbLine
 10
-1025.922527830023
 20
720.1556515420397
 30
0.0
 11
-1025.922527830023
 21
450.1556515420396
 31
0.0
  0
LINE
  5
70
330
1F
100
AcDbEntity
  8
2D - Ogólne
  6
Continuous
370
    13
100
AcDbLine
 10
-1025.922527830023
 20
450.1556515420396
 30
0.0
 11
-1009.329004663516
 21
450.1556515420396
 31
0.0
  0
WIPEOUT
  5
71
330
1F
100
AcDbEntity
  8
@__WIDOCZNE
  6
Wipeout_Contour
 62
   254
 48
10721.84888007761
370
     0
 92
      140
310
8C00000001000000840000000600000005000000BC8E91EF8A1B92C09834C6666AEFA3400000000000000000E8D82FA0830690C09834C6666AEFA3400000000000000000E8D82FA0830690C09834C6666A4BA2400000000000000000BC8E91EF8A1B92C09834C6666A4BA2400000000000000000BC8E91EF8A1B92C09834C6
310
666AEFA3400000000000000000
100
AcDbWipeout
 90
        0
 10
-1158.885679506623
 20
2341.707815355225
 30
0.0
 11
133.2571387545804
 21
0.0
 31
0.0
 12
0.0
 22
210.0
 32
0.0
 13
1.0
 23
1.0
340
0
 70
    15
280
     1
281
    50
282
    50
283
     0
360
0
 71
     2
 91
        5
 14
-0.5
 24
-0.5
 14
0.5
 24
-0.5
 14
0.5
 24
0.5
 14
-0.5
 24
0.5
 14
-0.5
 24
-0.5
  0
HATCH
  5
72
330
1F
100
AcDbEntity
  8
@__WIDOCZNE
  6
Continuous
370
    13
100
AcDbHatch
 10
0.0
 20
0.0
 30
0.0
210
0.0
220
0.0
230
1.0
  2
Izolacja_miękka
 70
     0
 71
     1
 91
        1
 92
        2
 72
     0
 73
     1
 93
        4
 10
-1158.885679506623
 20
2551.707815355225
 10
-1025.628540752043
 20
2551.707815355225
 10
-1025.628540752043
 20
2341.707815355225
 10
-1158.885679506623
 20
2341.707815355225
 97
        1
330
73
 75
     0
 76
     2
 52
0.0
 41
1.0
 77
     0
 78
     2
 53
60.00000000000001
 43
0.0
 44
0.0
 45
-12.99038105676658
 46
7.499999999999996
 79
     0
 53
120.0
 43
0.0
 44
0.0
 45
12.99038105676657
 46
7.500000000000008
 79
     0
 98
        0
  0
LWPOLYLINE
  5
73
102
{ACAD_REACTORS
330
72
102
}
330
1F
100
AcDbEntity
  8
@__WIDOCZNE
  6
Continuous
370
    13
100
AcDbPolyline
 90
        4
 70
   129
 43
0.0
 10
-1158.885679506623
 20
2551.707815355225
 10
-1025.628540752043
 20
2551.707815355225
 10
-1025.628540752043
 20
2341.707815355225
 10
-1158.885679506623
 20
2341.707815355225
  0
HATCH
  5
74
330
1F
100
AcDbEntity
  8
@__WIDOCZNE
  6
Continuous
370
    13
100
AcDbHatch
 10
0.0
 20
0.0
 30
0.0
210
0.0
220
0.0
230
1.0
  2
__Beton_n_2_średnio
 70
     0
 71
     1
 91
        1
 92
        2
 72
     0
 73
     1
 93
        7
 10
-1008.885679506623
 20
720.1556515420398
 10
-1008.885679506623
 20
450.1556515420396
 10
-768.8856795068414
 20
450.1556515420396
 10
-768.8856795068414
 20
600.1556515420397
 10
-268.8856795068414
 20
600.1556515420398
 10
-268.8856795068414
 20
720.1556515420399
 10
-768.8856795068414
 20
720.1556515420398
 97
        1
330
75
 75
     0
 76
     2
 52
0.0
 41
1.0
 77
     0
 78
     2
 53
44.99999999999999
 43
0.0
 44
0.0
 45
-18.38477631085023
 46
18.38477631085023
 79
     2
 49
19.5
 49
-6.499999999999999
 53
44.99999999999999
 43
0.0000000000000018
 44
18.38477631085023
 45
-18.38477631085023
 46
18.38477631085023
 79
     2
 49
19.5
 49
-6.499999999999999
 98
        0
  0
LWPOLYLINE
  5
75
102
{ACAD_REACTORS
330
74
102
}
330
1F
100
AcDbEntity
  8
@__WIDOCZNE
  6
Continuous
370
    50
100
AcDbPolyline
 90
        7
 70
   129
 43
0.0
 10
-1008.885679506623
 20
720.1556515420398
 10
-1008.885679506623
 20
450.1556515420396
 10
-768.8856795068414
 20
450.1556515420396
 10
-768.8856795068414
 20
600.1556515420397
 10
-268.8856795068414
 20
600.1556515420398
 10
-268.8856795068414
 20
720.1556515420399
 10
-768.8856795068414
 20
720.1556515420398
  0
HATCH
  5
76
330
1F
100
AcDbEntity
  8
@__WIDOCZNE
  6
Continuous
370
    13
100
AcDbHatch
 10
0.0
 20
0.0
 30
0.0
210
0.0
220
0.0
230
1.0
  2
Izolacja_miękka
 70
     0
 71
     1
 91
        1
 92
        2
 72
     1
 73
     1
 93
        6
 10
-1158.885679506623
 20
450.1556515420396
 42
0.0
 10
-1025.628540752043
 20
450.1556515420396
 42
0.0
 10
-1025.628540752043
 20
726.0616227588649
 42
0.679093733716423
 10
-1025.628540752043
 20
861.5711176107261
 42
0.0
 10
-1025.628540752043
 20
1140.155657522074
 42
0.0
 10
-1158.885679506623
 20
1140.155657522074
 42
0.0
 97
        1
330
77
 75
     0
 76
     2
 52
0.0
 41
1.0
 77
     0
 78
     2
 53
60.00000000000001
 43
0.0
 44
0.0
 45
-12.99038105676658
 46
7.499999999999996
 79
     0
 53
120.0
 43
0.0
 44
0.0
 45
12.99038105676657
 46
7.500000000000008
 79
     0
 98
        0
  0
LWPOLYLINE
  5
77
102
{ACAD_REACTORS
330
76
102
}
330
1F
100
AcDbEntity
  8
@__WIDOCZNE
  6
Continuous
370
    25
100
AcDbPolyline
 90
        6
 70
   129
 43
0.0
 10
-1158.885679506623
 20
450.1556515420396
 10
-1025.628540752043
 20
450.1556515420396
 10
-1025.628540752043
 20
726.0616227588649
 42
0.679093733716423
 10
-1025.628540752043
 20
861.5711176107261
 10
-1025.628540752043
 20
1140.155657522074
 10
-1158.885679506623
 20
1140.155657522074
  0
HATCH
  5
78
330
1F
100
AcDbEntity
  8
@__WIDOCZNE
  6
Continuous
370
    13
100
AcDbHatch
 10
0.0
 20
0.0
 30
0.0
210
0.0
220
0.0
230
1.0
  2
__Beton_n_2_średnio
 70
     0
 71
     1
 91
        1
 92
        2
 72
     0
 73
     1
 93
        4
 10
-1008.885679506623
 20
1540.574522729812
 10
-1008.885679506623
 20
1330.574522729812
 10
-768.8856795068414
 20
1330.574522729812
 10
-768.8856795068414
 20
1540.574522729812
 97
        1
330
79
 75
     0
 76
     2
 52
0.0
 41
1.0
 77
     0
 78
     2
 53
44.99999999999999
 43
0.0
 44
0.0
 45
-18.38477631085023
 46
18.38477631085023
 79
     2
 49
19.5
 49
-6.499999999999999
 53
44.99999999999999
 43
0.0000000000000018
 44
18.38477631085023
 45
-18.38477631085023
 46
18.38477631085023
 79
     2
 49
19.5
 49
-6.499999999999999
 98
        0
  0
LWPOLYLINE
  5
79
102
{ACAD_REACTORS
330
78
102
}
330
1F
100
AcDbEntity
  8
@__WIDOCZNE
  6
Continuous
370
    50
100
AcDbPolyline
 90
        4
 70
   129
 43
0.0
 10
-1008.885679506623
 20
1540.574522729812
 10
-1008.885679506623
 20
1330.574522729812
 10
-768.8856795068414
 20
1330.574522729812
 10
-768.8856795068414
 20
1540.574522729812
  0
HATCH
  5
7A
330
1F
100
AcDbEntity
  8
@__WIDOCZNE
  6
Continuous
370
    13
100
AcDbHatch
 10
0.0
 20
0.0
 30
0.0
210
0.0
220
0.0
230
1.0
  2
__Beton_n_2_średnio
 70
     0
 71
     1
 91
        1
 92
        2
 72
     0
 73
     1
 93
        7
 10
-1008.885679506623
 20
870.1556575220743
 10
-1008.885679506623
 20
1140.155657522074
 10
-768.8856795068414
 20
1140.155657522074
 10
-768.8856795068414
 20
990.1556575220744
 10
-268.8856795068414
 20
990.1556575220746
 10
-268.8856795068414
 20
870.1556575220744
 10
-768.8856795068414
 20
870.1556575220743
 97
        1
330
7B
 75
     0
 76
     2
 52
0.0
 41
1.0
 77
     0
 78
     2
 53
44.99999999999999
 43
0.0
 44
0.0
 45
-18.38477631085023
 46
18.38477631085023
 79
     2
 49
19.5
 49
-6.499999999999999
 53
44.99999999999999
 43
0.0000000000000018
 44
18.38477631085023
 45
-18.38477631085023
 46
18.38477631085023
 79
     2
 49
19.5
 49
-6.499999999999999
 98
        0
  0
LWPOLYLINE
  5
7B
102
{ACAD_REACTORS
330
7A
102
}
330
1F
100
AcDbEntity
  8
@__WIDOCZNE
  6
Continuous
370
    50
100
AcDbPolyline
 90
        7
 70
   129
 43
0.0
 10
-1008.885679506623
 20
870.1556575220743
 10
-1008.885679506623
 20
1140.155657522074
 10
-768.8856795068414
 20
1140.155657522074
 10
-768.8856795068414
 20
990.1556575220744
 10
-268.8856795068414
 20
990.1556575220746
 10
-268.8856795068414
 20
870.1556575220744
 10
-768.8856795068414
 20
870.1556575220743
  0
HATCH
  5
7C
330
1F
100
AcDbEntity
  8
@__WIDOCZNE
  6
Continuous
370
    13
100
AcDbHatch
 10
0.0
 20
0.0
 30
0.0
210
0.0
220
0.0
230
1.0
  2
__Beton_n_2_średnio
 70
     0
 71
     1
 91
        1
 92
        2
 72
     0
 73
     1
 93
        4
 10
-1008.885679506623
 20
2224.881759461791
 10
-1008.885679506623
 20
2031.707815355225
 10
-768.8856795068414
 20
2031.707815355225
 10
-768.8856795068414
 20
2224.881759461791
 97
        1
330
7D
 75
     0
 76
     2
 52
0.0
 41
1.0
 77
     0
 78
     2
 53
44.99999999999999
 43
0.0
 44
0.0
 45
-18.38477631085023
 46
18.38477631085023
 79
     2
 49
19.5
 49
-6.499999999999999
 53
44.99999999999999
 43
0.0000000000000018
 44
18.38477631085023
 45
-18.38477631085023
 46
18.38477631085023
 79
     2
 49
19.5
 49
-6.499999999999999
 98
        0
  0
LWPOLYLINE
  5
7D
102
{ACAD_REACTORS
330
7C
102
}
330
1F
100
AcDbEntity
  8
@__WIDOCZNE
  6
Continuous
370
    50
100
AcDbPolyline
 90
        4
 70
   129
 43
0.0
 10
-1008.885679506623
 20
2224.881759461791
 10
-1008.885679506623
 20
2031.707815355225
 10
-768.8856795068414
 20
2031.707815355225
 10
-768.8856795068414
 20
2224.881759461791
  0
WIPEOUT
  5
7E
330
1F
100
AcDbEntity
  8
@__WIDOCZNE
  6
Wipeout_Contour
 62
   254
 48
9603.684474242542
370
     0
 92
      140
310
8C00000001000000840000000600000005000000BC8E91EF8A1B92C031698CCDD4BE9F400000000000000000E8D82FA0830690C031698CCDD4BE9F400000000000000000E8D82FA0830690C09934C6666A83A1400000000000000000BC8E91EF8A1B92C09934C6666A83A1400000000000000000BC8E91EF8A1B92C031698C
310
CDD4BE9F400000000000000000
100
AcDbWipeout
 90
        0
 10
-1158.885679506623
 20
2031.707815355225
 30
0.0
 11
133.2571387545804
 21
0.0
 31
0.0
 12
0.0
 22
210.0000000000002
 32
0.0
 13
1.0
 23
1.0
340
0
 70
    15
280
     1
281
    50
282
    50
283
     0
360
0
 71
     2
 91
        5
 14
-0.5
 24
0.5000000000000006
 14
0.5
 24
0.5000000000000006
 14
0.5
 24
-0.4999999999999994
 14
-0.5
 24
-0.4999999999999994
 14
-0.5
 24
0.5000000000000006
  0
HATCH
  5
7F
330
1F
100
AcDbEntity
  8
@__WIDOCZNE
  6
Continuous
370
    13
100
AcDbHatch
 10
0.0
 20
0.0
 30
0.0
210
0.0
220
0.0
230
1.0
  2
Izolacja_miękka
 70
     0
 71
     1
 91
        1
 92
        2
 72
     0
 73
     1
 93
        4
 10
-1158.885679506623
 20
2031.707815355225
 10
-1025.628540752043
 20
2031.707815355225
 10
-1025.628540752043
 20
2241.707815355225
 10
-1158.885679506623
 20
2241.707815355225
 97
        1
330
80
 75
     0
 76
     2
 52
0.0
 41
1.0
 77
     0
 78
     2
 53
60.00000000000001
 43
0.0
 44
0.0
 45
-12.99038105676658
 46
7.499999999999996
 79
     0
 53
120.0
 43
0.0
 44
0.0
 45
12.99038105676657
 46
7.500000000000008
 79
     0
 98
        0
  0
LWPOLYLINE
  5
80
102
{ACAD_REACTORS
330
7F
102
}
330
1F
100
AcDbEntity
  8
@__WIDOCZNE
  6
Continuous
370
    13
100
AcDbPolyline
 90
        4
 70
   129
 43
0.0
 10
-1158.885679506623
 20
2031.707815355225
 10
-1025.628540752043
 20
2031.707815355225
 10
-1025.628540752043
 20
2241.707815355225
 10
-1158.885679506623
 20
2241.707815355225
  0
HATCH
  5
81
330
1F
100
AcDbEntity
  8
@__WIDOCZNE
  6
Continuous
370
    13
100
AcDbHatch
 10
0.0
 20
0.0
 30
0.0
210
0.0
220
0.0
230
1.0
  2
__Beton_n_2_średnio
 70
     0
 71
     1
 91
        1
 92
        2
 72
     0
 73
     1
 93
        4
 10
-1008.885679506623
 20
1641.86572962981
 10
-1008.885679506623
 20
1851.86572962981
 10
-768.8856795068414
 20
1851.86572962981
 10
-768.8856795068414
 20
1641.86572962981
 97
        1
330
82
 75
     0
 76
     2
 52
0.0
 41
1.0
 77
     0
 78
     2
 53
44.99999999999999
 43
0.0
 44
0.0
 45
-18.38477631085023
 46
18.38477631085023
 79
     2
 49
19.5
 49
-6.499999999999999
 53
44.99999999999999
 43
0.0000000000000018
 44
18.38477631085023
 45
-18.38477631085023
 46
18.38477631085023
 79
     2
 49
19.5
 49
-6.499999999999999
 98
        0
  0
LWPOLYLINE
  5
82
102
{ACAD_REACTORS
330
81
102
}
330
1F
100
AcDbEntity
  8
@__WIDOCZNE
  6
Continuous
370
    50
100
AcDbPolyline
 90
        4
 70
   129
 43
0.0
 10
-1008.885679506623
 20
1641.86572962981
 10
-1008.885679506623
 20
1851.86572962981
 10
-768.8856795068414
 20
1851.86572962981
 10
-768.8856795068414
 20
1641.86572962981
  0
WIPEOUT
  5
83
330
1F
100
AcDbEntity
  8
@__WIDOCZNE
  6
Wipeout_Contour
 62
   254
 48
9982.448762214724
370
     0
 92
      140
310
8C00000001000000840000000600000005000000BB8E91EF8AE392C09934C6666ACFA0400000000000000000BC8E91EF8A1B92C09934C6666ACFA0400000000000000000BC8E91EF8A1B92C09934C6666A83A1400000000000000000BB8E91EF8AE392C09934C6666A83A1400000000000000000BB8E91EF8AE392C09934C6
310
666ACFA0400000000000000000
100
AcDbWipeout
 90
        0
 10
-1208.885679506623
 20
2151.707815355225
 30
0.0
 11
49.99999999999977
 21
0.0
 31
0.0
 12
0.0
 22
90.0
 32
0.0
 13
1.0
 23
1.0
340
0
 70
    15
280
     1
281
    50
282
    50
283
     0
360
0
 71
     2
 91
        5
 14
-0.4999999999999977
 24
0.5
 14
0.5000000000000022
 24
0.5
 14
0.5000000000000022
 24
-0.5
 14
-0.4999999999999977
 24
-0.5
 14
-0.4999999999999977
 24
0.5
  0
HATCH
  5
84
330
1F
100
AcDbEntity
  8
@__WIDOCZNE
  6
Continuous
370
    13
100
AcDbHatch
 10
0.0
 20
0.0
 30
0.0
210
0.0
220
0.0
230
1.0
  2
Izolacja_miękka
 70
     0
 71
     1
 91
        1
 92
        2
 72
     0
 73
     1
 93
        4
 10
-1208.885679506623
 20
2151.707815355225
 10
-1158.885679506623
 20
2151.707815355225
 10
-1158.885679506623
 20
2241.707815355225
 10
-1208.885679506623
 20
2241.707815355225
 97
        1
330
85
 75
     0
 76
     2
 52
0.0
 41
1.0
 77
     0
 78
     2
 53
60.00000000000001
 43
0.0
 44
0.0
 45
-12.99038105676658
 46
7.499999999999996
 79
     0
 53
120.0
 43
0.0
 44
0.0
 45
12.99038105676657
 46
7.500000000000008
 79
     0
 98
        0
  0
LWPOLYLINE
  5
85
102
{ACAD_REACTORS
330
84
102
}
330
1F
100
AcDbEntity
  8
@__WIDOCZNE
  6
Continuous
370
    13
100
AcDbPolyline
 90
        4
 70
   129
 43
0.0
 10
-1208.885679506623
 20
2151.707815355225
 10
-1158.885679506623
 20
2151.707815355225
 10
-1158.885679506623
 20
2241.707815355225
 10
-1208.885679506623
 20
2241.707815355225
  0
HATCH
  5
86
330
1F
100
AcDbEntity
  8
@__WIDOCZNE
  6
Continuous
370
    13
100
AcDbHatch
 10
0.0
 20
0.0
 30
0.0
210
0.0
220
0.0
230
1.0
  2
__Beton_n_2_średnio
 70
     0
 71
     1
 91
        1
 92
        2
 72
     0
 73
     1
 93
        4
 10
-1008.885679506623
 20
2358.273967480357
 10
-768.8856795068414
 20
2358.273967480357
 10
-768.8856795068414
 20
2551.707815355225
 10
-1008.885679506623
 20
2551.707815355225
 97
        1
330
87
 75
     0
 76
     2
 52
0.0
 41
1.0
 77
     0
 78
     2
 53
44.99999999999999
 43
0.0
 44
0.0
 45
-18.38477631085023
 46
18.38477631085023
 79
     2
 49
19.5
 49
-6.499999999999999
 53
44.99999999999999
 43
0.0000000000000018
 44
18.38477631085023
 45
-18.38477631085023
 46
18.38477631085023
 79
     2
 49
19.5
 49
-6.499999999999999
 98
        0
  0
LWPOLYLINE
  5
87
102
{ACAD_REACTORS
330
86
102
}
330
1F
100
AcDbEntity
  8
@__WIDOCZNE
  6
Continuous
370
    50
100
AcDbPolyline
 90
        4
 70
   129
 43
0.0
 10
-1008.885679506623
 20
2358.273967480357
 10
-768.8856795068414
 20
2358.273967480357
 10
-768.8856795068414
 20
2551.707815355225
 10
-1008.885679506623
 20
2551.707815355225
  0
WIPEOUT
  5
88
330
1F
100
AcDbEntity
  8
@__WIDOCZNE
  6
Wipeout_Contour
 62
   254
 48
10657.49625094512
370
     0
 92
      140
310
8C00000001000000840000000600000005000000BB8E91EF8AE392C09834C6666AFFA2400000000000000000BB8E91EF8AE392C09834C6666A4BA2400000000000000000BC8E91EF8A1B92C09834C6666A4BA2400000000000000000BC8E91EF8A1B92C09834C6666AFFA2400000000000000000BB8E91EF8AE392C09834C6
310
666AFFA2400000000000000000
100
AcDbWipeout
 90
        0
 10
-1208.885679506623
 20
2341.707815355225
 30
0.0
 11
49.99999999999977
 21
0.0
 31
0.0
 12
0.0
 22
90.0
 32
0.0
 13
1.0
 23
1.0
340
0
 70
    15
280
     1
281
    50
282
    50
283
     0
360
0
 71
     2
 91
        5
 14
-0.4999999999999977
 24
-0.5
 14
-0.4999999999999977
 24
0.5
 14
0.5000000000000022
 24
0.5
 14
0.5000000000000022
 24
-0.5
 14
-0.4999999999999977
 24
-0.5
  0
HATCH
  5
89
330
1F
100
AcDbEntity
  8
@__WIDOCZNE
  6
Continuous
370
    13
100
AcDbHatch
 10
0.0
 20
0.0
 30
0.0
210
0.0
220
0.0
230
1.0
  2
Izolacja_miękka
 70
     0
 71
     1
 91
        1
 92
        2
 72
     0
 73
     1
 93
        4
 10
-1208.885679506623
 20
2431.707815355225
 10
-1208.885679506623
 20
2341.707815355225
 10
-1158.885679506623
 20
2341.707815355225
 10
-1158.885679506623
 20
2431.707815355225
 97
        1
330
8A
 75
     0
 76
     2
 52
0.0
 41
1.0
 77
     0
 78
     2
 53
60.00000000000001
 43
0.0
 44
0.0
 45
-12.99038105676658
 46
7.499999999999996
 79
     0
 53
120.0
 43
0.0
 44
0.0
 45
12.99038105676657
 46
7.500000000000008
 79
     0
 98
        0
  0
LWPOLYLINE
  5
8A
102
{ACAD_REACTORS
330
89
102
}
330
1F
100
AcDbEntity
  8
@__WIDOCZNE
  6
Continuous
370
    13
100
AcDbPolyline
 90
        4
 70
   129
 43
0.0
 10
-1208.885679506623
 20
2431.707815355225
 10
-1208.885679506623
 20
2341.707815355225
 10
-1158.885679506623
 20
2341.707815355225
 10
-1158.885679506623
 20
2431.707815355225
  0
HATCH
  5
8B
330
1F
100
AcDbEntity
  8
@__WIDOCZNE
  6
Continuous
 62
   142
370
    13
100
AcDbHatch
 10
0.0
 20
0.0
 30
0.0
210
0.0
220
0.0
230
1.0
  2
SOLID
 70
     1
 71
     1
 91
        1
 92
        2
 72
     1
 73
     1
 93
        6
 10
-1440.001988959916
 20
176.8504469129687
 42
0.0
 10
-1440.001988959916
 20
201.4286692887096
 42
0.0
 10
-1464.580211335656
 20
201.4286692887096
 42
0.414213562373095
 10
-1494.074078186545
 20
171.9348024378212
 42
0.0
 10
-1494.074078186545
 20
147.3565800620803
 42
0.0
 10
-1469.495855810804
 20
147.3565800620803
 42
0.414213562373095
 97
        1
330
8C
 75
     0
 76
     1
 98
        0
  0
LWPOLYLINE
  5
8C
102
{ACAD_REACTORS
330
8B
102
}
330
1F
100
AcDbEntity
  8
@__WIDOCZNE
  6
Continuous
 62
   142
370
    13
100
AcDbPolyline
 90
        6
 70
   129
 43
0.0
 10
-1440.001988959916
 20
176.8504469129687
 10
-1440.001988959916
 20
201.4286692887096
 10
-1464.580211335656
 20
201.4286692887096
 42
0.414213562373095
 10
-1494.074078186545
 20
171.9348024378212
 10
-1494.074078186545
 20
147.3565800620803
 10
-1469.495855810804
 20
147.3565800620803
 42
0.414213562373095
  0
HATCH
  5
8D
330
1F
100
AcDbEntity
  8
@__WIDOCZNE
  6
Continuous
370
    13
100
AcDbHatch
 10
0.0
 20
0.0
 30
0.0
210
0.0
220
0.0
230
1.0
  2
SOLID
 70
     1
 71
     1
 91
        3
 92
        2
 72
     1
 73
     1
 93
        8
 10
-1894.608978596419
 20
148.1716021823817
 42
0.0723831287448308
 10
-1930.280884078958
 20
147.8674536450234
 42
0.0
 10
-1930.280884078958
 20
79.2367701648845
 42
0.0475754375093521
 10
-1910.990466674141
 20
77.13299178150012
 42
0.0
 10
-1908.221006603722
 20
77.13299178150012
 42
0.0201526900432898
 10
-1899.99792015914
 20
77.57623055987739
 42
0.1117820670402823
 10
-1882.464957955006
 20
83.1147824930748
 42
0.5989391739264164
 10
-1888.283831342267
 20
115.9908535396531
 42
0.7144612958116017
 97
        1
330
8E
 92
        2
 72
     1
 73
     1
 93
        4
 10
-1917.446624371064
 20
120.0601221925072
 42
0.018587651104709
 10
-1899.850094396254
 20
120.0770652554864
 42
0.8637728306683231
 10
-1900.363184084205
 20
138.3576140733566
 42
0.0363046036528515
 10
-1917.446624371064
 20
138.3576140733566
 42
0.0
 97
        1
330
8F
 92
        2
 72
     1
 73
     1
 93
        4
 10
-1917.248213653418
 20
88.30746993140959
 42
0.0570602598095221
 10
-1899.107299369987
 20
88.48254306997904
 42
0.9504624262000833
 10
-1899.297593656557
 20
109.8135267392325
 42
0.0333151677067815
 10
-1917.248213653418
 20
109.8135267392325
 42
0.0
 97
        1
330
90
 75
     0
 76
     1
 98
        0
  0
LWPOLYLINE
  5
8E
102
{ACAD_REACTORS
330
8D
102
}
330
1F
100
AcDbEntity
  8
@__WIDOCZNE
  6
Continuous
370
    13
100
AcDbPolyline
 90
        8
 70
   129
 43
0.0
 10
-1894.608978596419
 20
148.1716021823817
 42
0.0723831287448308
 10
-1930.280884078958
 20
147.8674536450234
 10
-1930.280884078958
 20
79.2367701648845
 42
0.0475754375093521
 10
-1910.990466674141
 20
77.13299178150012
 10
-1908.221006603722
 20
77.13299178150012
 42
0.0201526900432898
 10
-1899.99792015914
 20
77.57623055987739
 42
0.1117820670402823
 10
-1882.464957955006
 20
83.1147824930748
 42
0.5989391739264164
 10
-1888.283831342267
 20
115.9908535396531
 42
0.7144612958116017
  0
LWPOLYLINE
  5
8F
102
{ACAD_REACTORS
330
8D
102
}
330
1F
100
AcDbEntity
  8
@__WIDOCZNE
  6
Continuous
370
    13
100
AcDbPolyline
 90
        4
 70
   129
 43
0.0
 10
-1917.446624371064
 20
120.0601221925072
 42
0.018587651104709
 10
-1899.850094396254
 20
120.0770652554864
 42
0.8637728306683231
 10
-1900.363184084205
 20
138.3576140733566
 42
0.0363046036528515
 10
-1917.446624371064
 20
138.3576140733566
  0
LWPOLYLINE
  5
90
102
{ACAD_REACTORS
330
8D
102
}
330
1F
100
AcDbEntity
  8
@__WIDOCZNE
  6
Continuous
370
    13
100
AcDbPolyline
 90
        4
 70
   129
 43
0.0
 10
-1917.248213653418
 20
88.30746993140959
 42
0.0570602598095221
 10
-1899.107299369987
 20
88.48254306997904
 42
0.9504624262000833
 10
-1899.297593656557
 20
109.8135267392325
 42
0.0333151677067815
 10
-1917.248213653418
 20
109.8135267392325
  0
HATCH
  5
91
330
1F
100
AcDbEntity
  8
@__WIDOCZNE
  6
Continuous
370
    13
100
AcDbHatch
 10
0.0
 20
0.0
 30
0.0
210
0.0
220
0.0
230
1.0
  2
SOLID
 70
     1
 71
     1
 91
        1
 92
        2
 72
     1
 73
     1
 93
       12
 10
-1779.40271444049
 20
132.461425542873
 42
0.0
 10
-1795.324133915959
 20
132.461425542873
 42
0.0
 10
-1795.324133915959
 20
147.9472341783427
 42
0.0
 10
-1807.603398609458
 20
145.4497566135621
 42
0.0
 10
-1807.603398609458
 20
94.39724550142603
 42
0.3686923280690939
 10
-1790.339247767995
 20
77.19259236232101
 42
0.0
 10
-1777.892755622337
 20
77.23556106479978
 42
0.0
 10
-1775.240251832525
 20
88.84026514522947
 42
0.0
 10
-1787.950667203238
 20
88.84026514522947
 42
-0.3159610186060354
 10
-1795.324133915959
 20
96.21373185795245
 42
0.0
 10
-1795.324133915959
 20
120.9952887917644
 42
0.0
 10
-1779.40271444049
 20
120.9952887917644
 42
0.0
 97
        1
330
92
 75
     0
 76
     1
 98
        0
  0
LWPOLYLINE
  5
92
102
{ACAD_REACTORS
330
91
102
}
330
1F
100
AcDbEntity
  8
@__WIDOCZNE
  6
Continuous
370
    13
100
AcDbPolyline
 90
       12
 70
   129
 43
0.0
 10
-1779.40271444049
 20
132.461425542873
 10
-1795.324133915959
 20
132.461425542873
 10
-1795.324133915959
 20
147.9472341783427
 10
-1807.603398609458
 20
145.4497566135621
 10
-1807.603398609458
 20
94.39724550142603
 42
0.3686923280690939
 10
-1790.339247767995
 20
77.19259236232101
 10
-1777.892755622337
 20
77.23556106479978
 10
-1775.240251832525
 20
88.84026514522947
 10
-1787.950667203238
 20
88.84026514522947
 42
-0.3159610186060354
 10
-1795.324133915959
 20
96.21373185795245
 10
-1795.324133915959
 20
120.9952887917644
 10
-1779.40271444049
 20
120.9952887917644
  0
HATCH
  5
93
330
1F
100
AcDbEntity
  8
@__WIDOCZNE
  6
Continuous
370
    13
100
AcDbHatch
 10
0.0
 20
0.0
 30
0.0
210
0.0
220
0.0
230
1.0
  2
SOLID
 70
     1
 71
     1
 91
        2
 92
        2
 72
     1
 73
     1
 93
       14
 10
-1745.378945529238
 20
120.6608609191749
 42
-0.387209016979461
 10
-1737.643449429658
 20
112.5444368899994
 42
0.0
 10
-1737.574328139302
 20
109.4742426602674
 42
0.1185067504646354
 10
-1755.348438172751
 20
109.6343642799108
 42
0.2642193030162518
 10
-1768.065550204988
 20
99.53992440691361
 42
0.1757337626801403
 10
-1768.080926769488
 20
88.3625534610103
 42
0.2604621029539542
 10
-1755.804478884417
 20
77.4427896891029
 42
0.0083652857947627
 10
-1752.260288367527
 20
77.13299178150012
 42
0.0
 10
-1737.288899371439
 20
77.13299178150012
 42
0.028992295246684
 10
-1725.069614284468
 20
78.71095824818208
 42
0.0
 10
-1725.696508768956
 20
113.3765513552357
 42
0.4278697545607686
 10
-1743.114318429231
 20
131.7759065504073
 42
0.0
 10
-1760.567750622604
 20
131.8491757142385
 42
0.0
 10
-1763.32956552609
 20
120.6608609191749
 42
0.0
 97
        1
330
94
 92
        2
 72
     1
 73
     1
 93
        6
 10
-1737.464524662476
 20
100.9694597079721
 42
0.1273826308893613
 10
-1751.046762368617
 20
101.3190620453254
 42
0.2091253650713026
 10
-1756.41470184461
 20
96.22346481606836
 42
0.067218802794298
 10
-1756.351643396618
 20
92.3159262087817
 42
0.2977682718343915
 10
-1750.83129020558
 20
86.64088600744246
 42
0.0710664823309622
 10
-1737.464524662476
 20
86.66701657441133
 42
0.0
 97
        1
330
95
 75
     0
 76
     1
 98
        0
  0
LWPOLYLINE
  5
94
102
{ACAD_REACTORS
330
93
102
}
330
1F
100
AcDbEntity
  8
@__WIDOCZNE
  6
Continuous
370
    13
100
AcDbPolyline
 90
       14
 70
   129
 43
0.0
 10
-1745.378945529238
 20
120.6608609191749
 42
-0.387209016979461
 10
-1737.643449429658
 20
112.5444368899994
 10
-1737.574328139302
 20
109.4742426602674
 42
0.1185067504646354
 10
-1755.348438172751
 20
109.6343642799108
 42
0.2642193030162518
 10
-1768.065550204988
 20
99.53992440691361
 42
0.1757337626801403
 10
-1768.080926769488
 20
88.3625534610103
 42
0.2604621029539542
 10
-1755.804478884417
 20
77.4427896891029
 42
0.0083652857947627
 10
-1752.260288367527
 20
77.13299178150012
 10
-1737.288899371439
 20
77.13299178150012
 42
0.028992295246684
 10
-1725.069614284468
 20
78.71095824818208
 10
-1725.696508768956
 20
113.3765513552357
 42
0.4278697545607686
 10
-1743.114318429231
 20
131.7759065504073
 10
-1760.567750622604
 20
131.8491757142385
 10
-1763.32956552609
 20
120.6608609191749
  0
LWPOLYLINE
  5
95
102
{ACAD_REACTORS
330
93
102
}
330
1F
100
AcDbEntity
  8
@__WIDOCZNE
  6
Continuous
370
    13
100
AcDbPolyline
 90
        6
 70
   129
 43
0.0
 10
-1737.464524662476
 20
100.9694597079721
 42
0.1273826308893613
 10
-1751.046762368617
 20
101.3190620453254
 42
0.2091253650713026
 10
-1756.41470184461
 20
96.22346481606836
 42
0.067218802794298
 10
-1756.351643396618
 20
92.3159262087817
 42
0.2977682718343915
 10
-1750.83129020558
 20
86.64088600744246
 42
0.0710664823309622
 10
-1737.464524662476
 20
86.66701657441133
  0
HATCH
  5
96
330
1F
100
AcDbEntity
  8
@__WIDOCZNE
  6
Continuous
370
    13
100
AcDbHatch
 10
0.0
 20
0.0
 30
0.0
210
0.0
220
0.0
230
1.0
  2
SOLID
 70
     1
 71
     1
 91
        1
 92
        2
 72
     1
 73
     1
 93
       26
 10
-1704.198388356196
 20
132.0276615001531
 42
0.0863077155126181
 10
-1715.782746252502
 20
129.1891773723178
 42
0.0
 10
-1715.782746252502
 20
77.13299178150012
 42
0.0
 10
-1702.785044453011
 20
77.13299178150012
 42
0.0
 10
-1702.785044453011
 20
120.7194570941573
 42
-0.12168371550613
 10
-1693.122265044222
 20
121.671887792587
 42
-0.3861329478031837
 10
-1685.237625678685
 20
112.4892130724681
 42
0.0
 10
-1685.237625678685
 20
77.13299178150012
 42
0.0
 10
-1672.750237854788
 20
77.13299178150012
 42
0.0
 10
-1672.932143332499
 20
111.3351256737881
 42
0.0
 10
-1672.750237854788
 20
111.3388769910432
 42
0.0799288732000265
 10
-1674.003794302233
 20
118.4435360548245
 42
0.0
 10
-1672.73910069438
 20
119.22565000315
 42
-0.1916235362829357
 10
-1661.562754209956
 20
121.4010368399431
 42
-0.3589776600930252
 10
-1654.783409795521
 20
113.2931338457225
 42
0.0
 10
-1654.777166722257
 20
77.13299178150012
 42
0.0
 10
-1642.868830936786
 20
77.13299178150012
 42
0.0
 10
-1642.874123468252
 20
115.8010197971978
 42
0.3475935087177212
 10
-1657.36666058763
 20
132.461425542873
 42
0.0
 10
-1667.170892658721
 20
132.461425542873
 42
0.0002381544695914
 10
-1667.238346976977
 20
132.4566784111009
 42
0.1173548723086789
 10
-1673.239100483088
 20
130.7219842169597
 42
0.1053500657717058
 10
-1679.449964778137
 20
126.8192592530662
 42
0.1560368886834541
 10
-1688.651553086188
 20
132.1394817433087
 42
0.0158994515272265
 10
-1693.078612422363
 20
132.461425542873
 42
0.0
 10
-1698.77336181702
 20
132.461425542873
 42
0.0194967579096993
 97
        1
330
97
 75
     0
 76
     1
 98
        0
  0
LWPOLYLINE
  5
97
102
{ACAD_REACTORS
330
96
102
}
330
1F
100
AcDbEntity
  8
@__WIDOCZNE
  6
Continuous
370
    13
100
AcDbPolyline
 90
       26
 70
   129
 43
0.0
 10
-1704.198388356196
 20
132.0276615001531
 42
0.0863077155126181
 10
-1715.782746252502
 20
129.1891773723178
 10
-1715.782746252502
 20
77.13299178150012
 10
-1702.785044453011
 20
77.13299178150012
 10
-1702.785044453011
 20
120.7194570941573
 42
-0.12168371550613
 10
-1693.122265044222
 20
121.671887792587
 42
-0.3861329478031837
 10
-1685.237625678685
 20
112.4892130724681
 10
-1685.237625678685
 20
77.13299178150012
 10
-1672.750237854788
 20
77.13299178150012
 10
-1672.932143332499
 20
111.3351256737881
 10
-1672.750237854788
 20
111.3388769910432
 42
0.0799288732000265
 10
-1674.003794302233
 20
118.4435360548245
 10
-1672.73910069438
 20
119.22565000315
 42
-0.1916235362829357
 10
-1661.562754209956
 20
121.4010368399431
 42
-0.3589776600930252
 10
-1654.783409795521
 20
113.2931338457225
 10
-1654.777166722257
 20
77.13299178150012
 10
-1642.868830936786
 20
77.13299178150012
 10
-1642.874123468252
 20
115.8010197971978
 42
0.3475935087177212
 10
-1657.36666058763
 20
132.461425542873
 10
-1667.170892658721
 20
132.461425542873
 42
0.0002381544695914
 10
-1667.238346976977
 20
132.4566784111009
 42
0.1173548723086789
 10
-1673.239100483088
 20
130.7219842169597
 42
0.1053500657717058
 10
-1679.449964778137
 20
126.8192592530662
 42
0.1560368886834541
 10
-1688.651553086188
 20
132.1394817433087
 42
0.0158994515272265
 10
-1693.078612422363
 20
132.461425542873
 10
-1698.77336181702
 20
132.461425542873
 42
0.0194967579096993
  0
HATCH
  5
98
330
1F
100
AcDbEntity
  8
@__WIDOCZNE
  6
Continuous
370
    13
100
AcDbHatch
 10
0.0
 20
0.0
 30
0.0
210
0.0
220
0.0
230
1.0
  2
SOLID
 70
     1
 71
     1
 91
        2
 92
        2
 72
     1
 73
     1
 93
       14
 10
-1614.164290040024
 20
131.2162750498799
 42
0.2809658966461606
 10
-1632.559778033305
 20
112.1858372086971
 42
0.1091159824470767
 10
-1632.545983001145
 20
95.21703033515816
 42
0.2766399819923606
 10
-1614.066078512207
 20
77.8741897113856
 42
0.0392105095801167
 10
-1608.998548032179
 20
77.1551852771174
 42
0.0
 10
-1591.383049920814
 20
77.13299178150012
 42
0.0
 10
-1589.184423721429
 20
88.0074749108547
 42
0.0
 10
-1607.586468273168
 20
88.0074749108547
 42
-0.1667294674755062
 10
-1615.5643146777
 20
90.74382612453024
 42
-0.081638462027361
 10
-1619.662035927927
 20
96.01357122043008
 42
-0.0661503038161424
 10
-1620.215334957534
 20
99.5523796489478
 42
0.0
 10
-1585.042525920223
 20
99.5523796489478
 42
0.0
 10
-1585.042525920223
 20
110.7910286904551
 42
0.3105787245802772
 10
-1601.826375949016
 20
131.2437507951286
 42
0.1083142208160692
 97
        1
330
99
 92
        2
 72
     1
 73
     1
 93
        5
 10
-1605.160813196457
 20
121.8499139829844
 42
0.1431069476368757
 10
-1611.105556534525
 20
122.0608693477291
 42
0.3279495498710064
 10
-1620.210690757235
 20
109.651053651909
 42
0.0
 10
-1596.837795763235
 20
109.651053651909
 42
0.0
 10
-1596.837795763235
 20
110.6066279412231
 42
0.3298596086471468
 97
        1
330
9A
 75
     0
 76
     1
 98
        0
  0
LWPOLYLINE
  5
99
102
{ACAD_REACTORS
330
98
102
}
330
1F
100
AcDbEntity
  8
@__WIDOCZNE
  6
Continuous
370
    13
100
AcDbPolyline
 90
       14
 70
   129
 43
0.0
 10
-1614.164290040024
 20
131.2162750498799
 42
0.2809658966461606
 10
-1632.559778033305
 20
112.1858372086971
 42
0.1091159824470767
 10
-1632.545983001145
 20
95.21703033515816
 42
0.2766399819923606
 10
-1614.066078512207
 20
77.8741897113856
 42
0.0392105095801167
 10
-1608.998548032179
 20
77.1551852771174
 10
-1591.383049920814
 20
77.13299178150012
 10
-1589.184423721429
 20
88.0074749108547
 10
-1607.586468273168
 20
88.0074749108547
 42
-0.1667294674755062
 10
-1615.5643146777
 20
90.74382612453024
 42
-0.081638462027361
 10
-1619.662035927927
 20
96.01357122043008
 42
-0.0661503038161424
 10
-1620.215334957534
 20
99.5523796489478
 10
-1585.042525920223
 20
99.5523796489478
 10
-1585.042525920223
 20
110.7910286904551
 42
0.3105787245802772
 10
-1601.826375949016
 20
131.2437507951286
 42
0.1083142208160692
  0
LWPOLYLINE
  5
9A
102
{ACAD_REACTORS
330
98
102
}
330
1F
100
AcDbEntity
  8
@__WIDOCZNE
  6
Continuous
370
    13
100
AcDbPolyline
 90
        5
 70
   129
 43
0.0
 10
-1605.160813196457
 20
121.8499139829844
 42
0.1431069476368757
 10
-1611.105556534525
 20
122.0608693477291
 42
0.3279495498710064
 10
-1620.210690757235
 20
109.651053651909
 10
-1596.837795763235
 20
109.651053651909
 10
-1596.837795763235
 20
110.6066279412231
 42
0.3298596086471468
  0
HATCH
  5
9B
330
1F
100
AcDbEntity
  8
@__WIDOCZNE
  6
Continuous
370
    13
100
AcDbHatch
 10
0.0
 20
0.0
 30
0.0
210
0.0
220
0.0
230
1.0
  2
SOLID
 70
     1
 71
     1
 91
        1
 92
        2
 72
     1
 73
     1
 93
       13
 10
-1547.553218627897
 20
132.1047084902992
 42
0.0175531184166386
 10
-1553.169542088316
 20
132.461425542873
 42
0.0
 10
-1557.711161373943
 20
132.461425542873
 42
0.0177750747803509
 10
-1563.398296898194
 20
132.0976768519698
 42
0.0683229953867364
 10
-1576.0391826836
 20
129.6040901203134
 42
0.0
 10
-1576.0391826836
 20
77.13299178150012
 42
0.0
 10
-1563.542212098793
 20
77.13299178150012
 42
0.0
 10
-1563.542212098793
 20
120.7639309864382
 42
-0.0958663550348273
 10
-1551.360549851644
 20
121.3194417970501
 42
-0.3633763851128492
 10
-1544.00503724245
 20
112.5347857864049
 42
0.0
 10
-1544.00503724245
 20
77.13299178150012
 42
0.0
 10
-1531.834896717402
 20
77.13299178150012
 42
0.0
 10
-1531.834896717402
 20
114.4279683846178
 42
0.3803017440747632
 97
        1
330
9C
 75
     0
 76
     1
 98
        0
  0
LWPOLYLINE
  5
9C
102
{ACAD_REACTORS
330
9B
102
}
330
1F
100
AcDbEntity
  8
@__WIDOCZNE
  6
Continuous
370
    13
100
AcDbPolyline
 90
       13
 70
   129
 43
0.0
 10
-1547.553218627897
 20
132.1047084902992
 42
0.0175531184166386
 10
-1553.169542088316
 20
132.461425542873
 10
-1557.711161373943
 20
132.461425542873
 42
0.0177750747803509
 10
-1563.398296898194
 20
132.0976768519698
 42
0.0683229953867364
 10
-1576.0391826836
 20
129.6040901203134
 10
-1576.0391826836
 20
77.13299178150012
 10
-1563.542212098793
 20
77.13299178150012
 10
-1563.542212098793
 20
120.7639309864382
 42
-0.0958663550348273
 10
-1551.360549851644
 20
121.3194417970501
 42
-0.3633763851128492
 10
-1544.00503724245
 20
112.5347857864049
 10
-1544.00503724245
 20
77.13299178150012
 10
-1531.834896717402
 20
77.13299178150012
 10
-1531.834896717402
 20
114.4279683846178
 42
0.3803017440747632
  0
HATCH
  5
9D
330
1F
100
AcDbEntity
  8
@__WIDOCZNE
  6
Continuous
370
    13
100
AcDbHatch
 10
0.0
 20
0.0
 30
0.0
210
0.0
220
0.0
230
1.0
  2
SOLID
 70
     1
 71
     1
 91
        1
 92
        2
 72
     1
 73
     1
 93
       12
 10
-1522.352887578065
 20
94.39724550142603
 42
0.3564817226562251
 10
-1505.088736736603
 20
77.19259236232101
 42
0.0
 10
-1492.642244590945
 20
77.23556106479978
 42
0.0
 10
-1489.989740801132
 20
88.84026514522947
 42
0.0
 10
-1502.700156171844
 20
88.84026514522947
 42
-0.3014632934563285
 10
-1510.073622884567
 20
96.21373185795245
 42
0.0
 10
-1510.073622884567
 20
120.9952887917644
 42
0.0
 10
-1494.152203409097
 20
120.9952887917644
 42
0.0
 10
-1494.152203409097
 20
132.461425542873
 42
0.0
 10
-1510.073622884567
 20
132.461425542873
 42
0.0
 10
-1510.073622884567
 20
147.9472341783427
 42
0.0
 10
-1522.352887578065
 20
145.4497566135621
 42
0.0
 97
        1
330
9E
 75
     0
 76
     1
 98
        0
  0
LWPOLYLINE
  5
9E
102
{ACAD_REACTORS
330
9D
102
}
330
1F
100
AcDbEntity
  8
@__WIDOCZNE
  6
Continuous
370
    13
100
AcDbPolyline
 90
       12
 70
   129
 43
0.0
 10
-1522.352887578065
 20
94.39724550142603
 42
0.3564817226562251
 10
-1505.088736736603
 20
77.19259236232101
 10
-1492.642244590945
 20
77.23556106479978
 10
-1489.989740801132
 20
88.84026514522947
 10
-1502.700156171844
 20
88.84026514522947
 42
-0.3014632934563285
 10
-1510.073622884567
 20
96.21373185795245
 10
-1510.073622884567
 20
120.9952887917644
 10
-1494.152203409097
 20
120.9952887917644
 10
-1494.152203409097
 20
132.461425542873
 10
-1510.073622884567
 20
132.461425542873
 10
-1510.073622884567
 20
147.9472341783427
 10
-1522.352887578065
 20
145.4497566135621
  0
HATCH
  5
9F
330
1F
100
AcDbEntity
  8
@__WIDOCZNE
  6
Continuous
370
    13
100
AcDbHatch
 10
0.0
 20
0.0
 30
0.0
210
0.0
220
0.0
230
1.0
  2
SOLID
 70
     1
 71
     1
 91
        2
 92
        2
 72
     1
 73
     1
 93
        9
 10
-1848.353175529132
 20
131.9865777042571
 42
0.2820479307333718
 10
-1867.197331750688
 20
112.9341680243011
 42
0.0886832537999132
 10
-1867.163046105806
 20
95.6340267899235
 42
0.2508564250541997
 10
-1849.731031447699
 20
77.13299178150012
 42
0.0
 10
-1834.716311145268
 20
77.13299178150012
 42
0.2670900430231695
 10
-1817.07116219828
 20
97.31499222255724
 42
0.1207336614180937
 10
-1817.027114476576
 20
112.0036505578009
 42
0.3094451166888095
 10
-1835.711720033201
 20
131.9520427760955
 42
0.0268897328129527
 10
-1839.056832065551
 20
132.461425542873
 42
0.074328415179198
 97
        1
330
A0
 92
        2
 72
     1
 73
     1
 93
        8
 10
-1854.789955882416
 20
110.3227931830516
 42
0.0948073731652809
 10
-1854.886012577468
 20
99.10403397769396
 42
0.0590800675341869
 10
-1853.794519113519
 20
95.37256301273256
 42
0.6394418664691048
 10
-1830.873453923095
 20
94.6762888287792
 42
0.0835238969854629
 10
-1829.438696118693
 20
99.36979420911373
 42
0.0916297819744675
 10
-1829.666234472701
 20
110.8893034427733
 42
0.2559732989582162
 10
-1838.078277064553
 20
121.3187197214099
 42
0.1954327814670101
 10
-1846.631108014912
 20
120.9701862959011
 42
0.2505066079508973
 97
        1
330
A1
 75
     0
 76
     1
 98
        0
  0
LWPOLYLINE
  5
A0
102
{ACAD_REACTORS
330
9F
102
}
330
1F
100
AcDbEntity
  8
@__WIDOCZNE
  6
Continuous
370
    13
100
AcDbPolyline
 90
        9
 70
   129
 43
0.0
 10
-1848.353175529132
 20
131.9865777042571
 42
0.2820479307333718
 10
-1867.197331750688
 20
112.9341680243011
 42
0.0886832537999132
 10
-1867.163046105806
 20
95.6340267899235
 42
0.2508564250541997
 10
-1849.731031447699
 20
77.13299178150012
 10
-1834.716311145268
 20
77.13299178150012
 42
0.2670900430231695
 10
-1817.07116219828
 20
97.31499222255724
 42
0.1207336614180937
 10
-1817.027114476576
 20
112.0036505578009
 42
0.3094451166888095
 10
-1835.711720033201
 20
131.9520427760955
 42
0.0268897328129527
 10
-1839.056832065551
 20
132.461425542873
 42
0.074328415179198
  0
LWPOLYLINE
  5
A1
102
{ACAD_REACTORS
330
9F
102
}
330
1F
100
AcDbEntity
  8
@__WIDOCZNE
  6
Continuous
370
    13
100
AcDbPolyline
 90
        8
 70
   129
 43
0.0
 10
-1854.789955882416
 20
110.3227931830516
 42
0.0948073731652809
 10
-1854.886012577468
 20
99.10403397769396
 42
0.0590800675341869
 10
-1853.794519113519
 20
95.37256301273256
 42
0.6394418664691048
 10
-1830.873453923095
 20
94.6762888287792
 42
0.0835238969854629
 10
-1829.438696118693
 20
99.36979420911373
 42
0.0916297819744675
 10
-1829.666234472701
 20
110.8893034427733
 42
0.2559732989582162
 10
-1838.078277064553
 20
121.3187197214099
 42
0.1954327814670101
 10
-1846.631108014912
 20
120.9701862959011
 42
0.2505066079508973
  0
WIPEOUT
  5
A2
330
1F
100
AcDbEntity
  8
@__WIDOCZNE
  6
Wipeout_Contour
 62
   254
 48
4857.447057278712
370
     0
 92
      140
310
8C00000001000000840000000600000005000000CE12A7572A4C90C07C79183539C482400000000000000000E8D82FA0830690C07C79183539C482400000000000000000E8D82FA0830690C07C79183539F484400000000000000000CE12A7572A4C90C07C79183539F484400000000000000000CE12A7572A4C90C07C7918
310
3539C482400000000000000000
100
AcDbWipeout
 90
        0
 10
-1043.041349993251
 20
600.5279333030771
 30
0.0
 11
17.41280924120792
 21
0.0
 31
0.0
 12
0.0
 22
70.0
 32
0.0
 13
1.0
 23
1.0
340
0
 70
    15
280
     1
281
    50
282
    50
283
     0
360
0
 71
     2
 91
        5
 14
-0.5
 24
0.5
 14
0.5
 24
0.5
 14
0.5
 24
-0.5
 14
-0.5
 24
-0.5
 14
-0.5
 24
0.5
  0
LWPOLYLINE
  5
A3
330
1F
100
AcDbEntity
  8
@__WIDOCZNE
  6
Continuous
370
    13
100
AcDbPolyline
 90
        4
 70
   129
 43
0.0
 10
-1043.041349993251
 20
600.5279333030771
 10
-1025.628540752043
 20
600.5279333030771
 10
-1025.628540752043
 20
670.5279333030771
 10
-1043.041349993251
 20
670.5279333030771
  0
HATCH
  5
A4
330
1F
100
AcDbEntity
  8
@__WIDOCZNE
  6
Continuous
370
    13
100
AcDbHatch
 10
0.0
 20
0.0
 30
0.0
210
0.0
220
0.0
230
1.0
  2
SOLID
 70
     1
 71
     0
 91
        1
 92
        2
 72
     0
 73
     1
 93
        4
 10
-1025.628540752043
 20
600.5279333030771
 10
-1043.041349993251
 20
600.5279333030771
 10
-1043.041349993251
 20
650.3200098109048
 10
-1025.628540752043
 20
650.3200098109048
 97
        0
 75
     0
 76
     1
 98
        0
  0
WIPEOUT
  5
A5
330
1F
100
AcDbEntity
  8
@__WIDOCZNE
  6
Wipeout_Contour
 62
   254
 48
5644.017843565494
370
     0
 92
      140
310
8C00000001000000840000000600000005000000CE12A7572A4C90C001BE038FDEE28C400000000000000000E8D82FA0830690C001BE038FDEE28C400000000000000000E8D82FA0830690C001BE038FDE128F400000000000000000CE12A7572A4C90C001BE038FDE128F400000000000000000CE12A7572A4C90C001BE03
310
8FDEE28C400000000000000000
100
AcDbWipeout
 90
        0
 10
-1043.041349993251
 20
924.3586712162361
 30
0.0
 11
17.41280924120792
 21
0.0
 31
0.0
 12
0.0
 22
70.0
 32
0.0
 13
1.0
 23
1.0
340
0
 70
    15
280
     1
281
    50
282
    50
283
     0
360
0
 71
     2
 91
        5
 14
-0.5
 24
0.5
 14
0.5
 24
0.5
 14
0.5
 24
-0.5
 14
-0.5
 24
-0.5
 14
-0.5
 24
0.5
  0
LWPOLYLINE
  5
A6
330
1F
100
AcDbEntity
  8
@__WIDOCZNE
  6
Continuous
370
    13
100
AcDbPolyline
 90
        4
 70
   129
 43
0.0
 10
-1043.041349993251
 20
924.3586712162361
 10
-1025.628540752043
 20
924.3586712162361
 10
-1025.628540752043
 20
994.3586712162361
 10
-1043.041349993251
 20
994.3586712162361
  0
WIPEOUT
  5
A7
330
1F
100
AcDbEntity
  8
@__WIDOCZNE
  6
Wipeout_Contour
 62
   254
 48
10060.0018957031
370
     0
 92
      140
310
8C00000001000000840000000600000005000000771D23DF15878FC09834C6666A4BA2400000000000000000F82423DF150788C09834C6666A4BA2400000000000000000F82423DF150788C09B3077458C6CA2400000000000000000771D23DF15878FC09B3077458C6CA2400000000000000000771D23DF15878FC09834C6
310
666A4BA2400000000000000000
100
AcDbWipeout
 90
        0
 10
-1008.885679506623
 20
2341.707815355225
 30
0.0
 11
239.9999999997816
 21
0.0
 31
0.0
 12
0.0
 22
16.5661521251327
 32
0.0
 13
1.0
 23
1.0
340
0
 70
    15
280
     1
281
    50
282
    50
283
     0
360
0
 71
     2
 91
        5
 14
-0.4999999999999998
 24
0.5000000000000138
 14
0.5000000000000002
 24
0.5000000000000138
 14
0.5000000000000002
 24
-0.4999999999999863
 14
-0.4999999999999998
 24
-0.4999999999999863
 14
-0.4999999999999998
 24
0.5000000000000138
  0
HATCH
  5
A8
330
1F
100
AcDbEntity
  8
@__WIDOCZNE
  6
Continuous
370
    13
100
AcDbHatch
 10
0.0
 20
0.0
 30
0.0
210
0.0
220
0.0
230
1.0
  2
cut_stone_KASIA
 70
     0
 71
     1
 91
        1
 92
        2
 72
     0
 73
     1
 93
        4
 10
-1008.885679506623
 20
2341.707815355225
 10
-768.8856795068414
 20
2341.707815355225
 10
-768.8856795068414
 20
2358.273967480357
 10
-1008.885679506623
 20
2358.273967480357
 97
        1
330
A9
 75
     0
 76
     2
 52
0.0
 41
1.0
 77
     0
 78
     2
 53
45.0
 43
0.0
 44
10.0
 45
-3.181980515339464
 46
3.181980515339464
 79
     4
 49
0.0
 49
-3.0
 49
0.0
 49
-4.5
 53
110.0
 43
10.0
 44
10.0
 45
4.228616793536588
 46
1.539090644965509
 79
     4
 49
0.0
 49
-2.2
 49
0.0
 49
-3.8
 98
        0
  0
LWPOLYLINE
  5
A9
102
{ACAD_REACTORS
330
A8
102
}
330
1F
100
AcDbEntity
  8
@__WIDOCZNE
  6
Continuous
370
    25
100
AcDbPolyline
 90
        4
 70
   129
 43
0.0
 10
-1008.885679506623
 20
2341.707815355225
 10
-768.8856795068414
 20
2341.707815355225
 10
-768.8856795068414
 20
2358.273967480357
 10
-1008.885679506623
 20
2358.273967480357
  0
WIPEOUT
  5
AA
330
1F
100
AcDbEntity
  8
@__WIDOCZNE
  6
Wipeout_Contour
 62
   254
 48
9625.626337719315
370
     0
 92
      140
310
8C00000001000000840000000600000005000000771D23DF15878FC0963815884862A1400000000000000000F82423DF150788C0963815884862A1400000000000000000F82423DF150788C09934C6666A83A1400000000000000000771D23DF15878FC09934C6666A83A1400000000000000000771D23DF15878FC0963815
310
884862A1400000000000000000
100
AcDbWipeout
 90
        0
 10
-1008.885679506623
 20
2225.141663230092
 30
0.0
 11
239.9999999997816
 21
0.0
 31
0.0
 12
0.0
 22
16.5661521251327
 32
0.0
 13
1.0
 23
1.0
340
0
 70
    15
280
     1
281
    50
282
    50
283
     0
360
0
 71
     2
 91
        5
 14
-0.4999999999999998
 24
0.5000000000000138
 14
0.5000000000000002
 24
0.5000000000000138
 14
0.5000000000000002
 24
-0.4999999999999863
 14
-0.4999999999999998
 24
-0.4999999999999863
 14
-0.4999999999999998
 24
0.5000000000000138
  0
HATCH
  5
AB
330
1F
100
AcDbEntity
  8
@__WIDOCZNE
  6
Continuous
370
    13
100
AcDbHatch
 10
0.0
 20
0.0
 30
0.0
210
0.0
220
0.0
230
1.0
  2
cut_stone_KASIA
 70
     0
 71
     1
 91
        1
 92
        2
 72
     0
 73
     1
 93
        4
 10
-1008.885679506623
 20
2225.141663230092
 10
-768.8856795068414
 20
2225.141663230092
 10
-768.8856795068414
 20
2241.707815355225
 10
-1008.885679506623
 20
2241.707815355225
 97
        1
330
AC
 75
     0
 76
     2
 52
0.0
 41
1.0
 77
     0
 78
     2
 53
45.0
 43
0.0
 44
10.0
 45
-3.181980515339464
 46
3.181980515339464
 79
     4
 49
0.0
 49
-3.0
 49
0.0
 49
-4.5
 53
110.0
 43
10.0
 44
10.0
 45
4.228616793536588
 46
1.539090644965509
 79
     4
 49
0.0
 49
-2.2
 49
0.0
 49
-3.8
 98
        0
  0
LWPOLYLINE
  5
AC
102
{ACAD_REACTORS
330
AB
102
}
330
1F
100
AcDbEntity
  8
@__WIDOCZNE
  6
Continuous
370
    25
100
AcDbPolyline
 90
        4
 70
   129
 43
0.0
 10
-1008.885679506623
 20
2225.141663230092
 10
-768.8856795068414
 20
2225.141663230092
 10
-768.8856795068414
 20
2241.707815355225
 10
-1008.885679506623
 20
2241.707815355225
  0
INSERT
  5
DD
330
1F
100
AcDbEntity
  8
@__WIDOCZNE
  6
Continuous
 62
     4
370
    13
100
AcDbBlockReference
  2
Izolacja cieplna 12_61
 10
-987.2273276714977
 20
720.1556545320572
 30
0.0
  0
WIPEOUT
  5
DE
330
1F
100
AcDbEntity
  8
@__WIDOCZNE
  6
Wipeout_Contour
 62
   254
 48
9931.366113392463
370
     0
 92
      140
310
8C00000001000000840000000600000005000000BC8E91EF8A1B92C057EE70B5517FA1400000000000000000BC8E91EF8A1B92C06451B5597E5CA1400000000000000000D1B15F4007C58FC06451B5597E5CA1400000000000000000D1B15F4007C58FC057EE70B5517FA1400000000000000000BC8E91EF8A1B92C057EE70
310
B5517FA1400000000000000000
100
AcDbWipeout
 90
        0
 10
-1158.885679506623
 20
2222.246778169809
 30
0.0
 11
142.2571387545803
 21
0.0
 31
0.0
 12
0.0
 22
17.41280924120792
 32
0.0
 13
1.0
 23
1.0
340
0
 70
    15
280
     1
281
    50
282
    50
283
     0
360
0
 71
     2
 91
        5
 14
-0.5000000000000004
 24
-0.499999999999987
 14
-0.5000000000000004
 24
0.5000000000000131
 14
0.4999999999999996
 24
0.5000000000000131
 14
0.4999999999999996
 24
-0.499999999999987
 14
-0.5000000000000004
 24
-0.499999999999987
  0
LINE
  5
DF
330
1F
100
AcDbEntity
  8
@__WIDOCZNE
  6
Continuous
370
    13
100
AcDbLine
 10
-268.8856795068414
 20
720.1556515420399
 30
0.0
 11
-1008.885630514872
 21
720.1556515420398
 31
0.0
  0
LINE
  5
E0
330
1F
100
AcDbEntity
  8
@__WIDOCZNE
  6
Continuous
370
    13
100
AcDbLine
 10
-1008.751820552309
 20
720.1556515420398
 30
0.0
 11
-768.8856795068414
 21
720.1556515420398
 31
0.0
  0
LINE
  5
E1
330
1F
100
AcDbEntity
  8
@__WIDOCZNE
  6
Continuous
370
    13
100
AcDbLine
 10
-1008.885679506623
 20
720.1556515420398
 30
0.0
 11
-768.8856795068414
 21
720.1556515420398
 31
0.0
  0
LINE
  5
E2
330
1F
100
AcDbEntity
  8
@__WIDOCZNE
  6
Continuous
370
    13
100
AcDbLine
 10
-981.9409410742745
 20
720.1556515420398
 30
0.0
 11
-734.8020754638792
 21
720.1556515420398
 31
0.0
  0
LINE
  5
E3
330
1F
100
AcDbEntity
  8
@__WIDOCZNE
  6
Continuous
370
    25
100
AcDbLine
 10
-753.7637564308889
 20
870.1556515420397
 30
0.0
 11
-768.8856795068414
 21
870.1556515420397
 31
0.0
  0
LINE
  5
E5
330
1F
100
AcDbEntity
  8
@__WIDOCZNE
  6
Przerywana gęsta
370
    13
100
AcDbLine
 10
-1218.885679506623
 20
919.783375761037
 30
0.0
 11
-1043.041349993251
 21
919.783375761037
 31
0.0
  0
LINE
  5
E6
330
1F
100
AcDbEntity
  8
@__WIDOCZNE
  6
Przerywana gęsta
370
    13
100
AcDbLine
 10
-1218.885679506623
 20
989.7833757610371
 30
0.0
 11
-1043.041349993251
 21
989.7833757610371
 31
0.0
  0
LINE
  5
E8
330
1F
100
AcDbEntity
  8
@__WIDOCZNE
  6
Kropki i Kreski
370
    25
100
AcDbLine
 10
-1184.992693301352
 20
1591.220126179811
 30
0.0
 11
-640.1971619615363
 21
1591.220126179811
 31
0.0
  0
LINE
  5
E9
330
1F
100
AcDbEntity
  8
@__WIDOCZNE
  6
Kropki i Kreski
370
    13
100
AcDbLine
 10
-1015.165123473922
 20
1543.103617313554
 30
0.0
 11
-1015.165123473922
 21
1566.220126179811
 31
0.0
  0
LINE
  5
EA
330
1F
100
AcDbEntity
  8
@__WIDOCZNE
  6
Kropki i Kreski
370
    13
100
AcDbLine
 10
-1015.165123473922
 20
1566.220126179811
 30
0.0
 11
-987.1651234739217
 21
1566.220126179811
 31
0.0
  0
LINE
  5
EB
330
1F
100
AcDbEntity
  8
@__WIDOCZNE
  6
Kropki i Kreski
370
    13
100
AcDbLine
 10
-987.1651234739217
 20
1566.220126179811
 30
0.0
 11
-987.1651234739217
 21
1543.103617313554
 31
0.0
  0
LINE
  5
EC
330
1F
100
AcDbEntity
  8
@__WIDOCZNE
  6
Kropki i Kreski
370
    13
100
AcDbLine
 10
-1001.165123473921
 20
1553.720126179811
 30
0.0
 11
-1001.165123473921
 21
1543.103617313554
 31
0.0
  0
LINE
  5
ED
330
1F
100
AcDbEntity
  8
@__WIDOCZNE
  6
Kropki i Kreski
370
    13
100
AcDbLine
 10
-1001.165123473921
 20
1566.220126179811
 30
0.0
 11
-1001.165123473921
 21
1555.661871746683
 31
0.0
  0
LINE
  5
EE
330
1F
100
AcDbEntity
  8
@__WIDOCZNE
  6
Kropki i Kreski
370
    13
100
AcDbLine
 10
-1015.165123473922
 20
1543.103617313554
 30
0.0
 11
-987.1651234739217
 21
1543.103617313554
 31
0.0
  0
LINE
  5
EF
330
1F
100
AcDbEntity
  8
@__WIDOCZNE
  6
Kropki i Kreski
370
    25
100
AcDbLine
 10
-1016.597909162434
 20
1550.904159135103
 30
0.0
 11
-1016.597909162434
 21
1558.529782812162
 31
0.0
  0
LINE
  5
F0
330
1F
100
AcDbEntity
  8
@__WIDOCZNE
  6
Kropki i Kreski
370
    25
100
AcDbLine
 10
-985.7323377854088
 20
1550.904159135103
 30
0.0
 11
-985.7323377854088
 21
1558.529782812162
 31
0.0
  0
LINE
  5
F1
330
1F
100
AcDbEntity
  8
@__WIDOCZNE
  6
Continuous
370
    50
100
AcDbLine
 10
-1157.948970715073
 20
1566.220126179811
 30
0.0
 11
-670.1971619615365
 21
1566.220126179811
 31
0.0
  0
LINE
  5
F2
330
1F
100
AcDbEntity
  8
@__WIDOCZNE
  6
Kropki i Kreski
370
    50
100
AcDbLine
 10
-1008.885679506623
 20
1536.42678779619
 30
0.0
 11
-1008.885679506623
 21
1495.821155192496
 31
0.0
  0
LINE
  5
F3
330
1F
100
AcDbEntity
  8
@__WIDOCZNE
  6
Continuous
370
   100
100
AcDbLine
 10
-1040.62629466431
 20
1536.42678779619
 30
0.0
 11
-1040.62629466431
 21
1495.821155192496
 31
0.0
  0
LINE
  5
F4
330
1F
100
AcDbEntity
  8
@__WIDOCZNE
  6
Continuous
370
    50
100
AcDbLine
 10
-1047.359156366367
 20
1516.123971494343
 30
0.0
 11
-992.8856795066234
 21
1516.123971494343
 31
0.0
  0
LINE
  5
F5
330
1F
100
AcDbEntity
  8
@__WIDOCZNE
  6
Kropki i Kreski
370
    13
100
AcDbLine
 10
-1015.165123473922
 20
1639.336635046068
 30
0.0
 11
-1015.165123473922
 21
1616.220126179811
 31
0.0
  0
LINE
  5
F6
330
1F
100
AcDbEntity
  8
@__WIDOCZNE
  6
Kropki i Kreski
370
    13
100
AcDbLine
 10
-1015.165123473922
 20
1616.220126179811
 30
0.0
 11
-987.1651234739217
 21
1616.220126179811
 31
0.0
  0
LINE
  5
F7
330
1F
100
AcDbEntity
  8
@__WIDOCZNE
  6
Kropki i Kreski
370
    13
100
AcDbLine
 10
-987.1651234739217
 20
1616.220126179811
 30
0.0
 11
-987.1651234739217
 21
1639.336635046068
 31
0.0
  0
LINE
  5
F8
330
1F
100
AcDbEntity
  8
@__WIDOCZNE
  6
Kropki i Kreski
370
    13
100
AcDbLine
 10
-1001.165123473921
 20
1628.720126179811
 30
0.0
 11
-1001.165123473921
 21
1639.336635046068
 31
0.0
  0
LINE
  5
F9
330
1F
100
AcDbEntity
  8
@__WIDOCZNE
  6
Kropki i Kreski
370
    13
100
AcDbLine
 10
-1001.165123473921
 20
1616.220126179811
 30
0.0
 11
-1001.165123473921
 21
1626.778380612939
 31
0.0
  0
LINE
  5
FA
330
1F
100
AcDbEntity
  8
@__WIDOCZNE
  6
Kropki i Kreski
370
    13
100
AcDbLine
 10
-1015.165123473922
 20
1639.336635046068
 30
0.0
 11
-987.1651234739217
 21
1639.336635046068
 31
0.0
  0
LINE
  5
FB
330
1F
100
AcDbEntity
  8
@__WIDOCZNE
  6
Kropki i Kreski
370
    25
100
AcDbLine
 10
-1016.597909162434
 20
1631.536093224519
 30
0.0
 11
-1016.597909162434
 21
1623.91046954746
 31
0.0
  0
LINE
  5
FC
330
1F
100
AcDbEntity
  8
@__WIDOCZNE
  6
Kropki i Kreski
370
    25
100
AcDbLine
 10
-985.7323377854088
 20
1631.536093224519
 30
0.0
 11
-985.7323377854088
 21
1623.91046954746
 31
0.0
  0
LINE
  5
FD
330
1F
100
AcDbEntity
  8
@__WIDOCZNE
  6
Continuous
370
    50
100
AcDbLine
 10
-1157.948970715073
 20
1616.220126179811
 30
0.0
 11
-670.1971619615365
 21
1616.220126179811
 31
0.0
  0
LINE
  5
FE
330
1F
100
AcDbEntity
  8
@__WIDOCZNE
  6
Kropki i Kreski
370
    50
100
AcDbLine
 10
-1008.885679506623
 20
1646.013464563432
 30
0.0
 11
-1008.885679506623
 21
1686.619097167126
 31
0.0
  0
LINE
  5
FF
330
1F
100
AcDbEntity
  8
@__WIDOCZNE
  6
Continuous
370
   100
100
AcDbLine
 10
-1040.62629466431
 20
1646.013464563432
 30
0.0
 11
-1040.62629466431
 21
1686.619097167126
 31
0.0
  0
LINE
  5
100
330
1F
100
AcDbEntity
  8
@__WIDOCZNE
  6
Continuous
370
    50
100
AcDbLine
 10
-1047.359156366367
 20
1666.316280865279
 30
0.0
 11
-992.8856795066234
 21
1666.316280865279
 31
0.0
  0
LINE
  5
101
330
1F
100
AcDbEntity
  8
@__WIDOCZNE
  6
Kropki i Kreski
370
    25
100
AcDbLine
 10
-1346.621624516289
 20
2291.707815355225
 30
0.0
 11
-640.1971619615363
 21
2291.707815355225
 31
0.0
  0
LINE
  5
102
330
1F
100
AcDbEntity
  8
@__WIDOCZNE
  6
Przerywana gęsta
 62
   255
370
     0
100
AcDbLine
 10
-1930.000000000318
 20
269.9999999999989
 30
0.0
 11
-1930.000000000318
 21
2920.0
 31
0.0
  0
LINE
  5
103
330
1F
100
AcDbEntity
  8
@__WIDOCZNE
  6
Continuous
370
    13
100
AcDbLine
 10
-1316.621624516289
 20
2341.707815355225
 30
0.0
 11
-1316.621624516289
 21
2241.707815355225
 31
0.0
  0
LINE
  5
104
330
1F
100
AcDbEntity
  8
@__WIDOCZNE
  6
Continuous
370
    13
100
AcDbLine
 10
-670.1971619615364
 20
2341.707815355225
 30
0.0
 11
-670.1971619615364
 21
2241.707815355225
 31
0.0
  0
LINE
  5
105
330
1F
100
AcDbEntity
  8
@__WIDOCZNE
  6
Continuous
370
    13
100
AcDbLine
 10
-670.1971619615365
 20
1616.220126179811
 30
0.0
 11
-670.1971619615365
 21
1564.293051909134
 31
0.0
  0
LINE
  5
106
330
1F
100
AcDbEntity
  8
@__WIDOCZNE
  6
Continuous
370
    13
100
AcDbLine
 10
-768.2457627785591
 20
1638.721137513037
 30
0.0
 11
-768.2457627785591
 21
1616.220126179811
 31
0.0
  0
LINE
  5
107
330
1F
100
AcDbEntity
  8
@__WIDOCZNE
  6
Continuous
370
    13
100
AcDbLine
 10
-768.8856795068414
 20
1540.574522729812
 30
0.0
 11
-768.8856795068414
 21
1566.220126179811
 31
0.0
  0
LINE
  5
108
330
1F
100
AcDbEntity
  8
@__WIDOCZNE
  6
Continuous
370
    13
100
AcDbLine
 10
-1033.359156366367
 20
1639.982238496067
 30
0.0
 11
-1033.359156366367
 21
1616.220126179811
 31
0.0
  0
LINE
  5
109
330
1F
100
AcDbEntity
  8
@__WIDOCZNE
  6
Continuous
370
    13
100
AcDbLine
 10
-1033.359156366367
 20
1542.458013863555
 30
0.0
 11
-1033.359156366367
 21
1566.220126179811
 31
0.0
  0
LINE
  5
10A
330
1F
100
AcDbEntity
  8
@__WIDOCZNE
  6
Continuous
370
    13
100
AcDbLine
 10
-1157.948970715073
 20
1616.220126179811
 30
0.0
 11
-1157.948970715073
 21
1566.220126179811
 31
0.0
  0
LINE
  5
10B
330
1F
100
AcDbEntity
  8
@__WIDOCZNE
  6
Continuous
370
    25
100
AcDbLine
 10
-1014.76374379041
 20
1627.752539531385
 30
0.0
 11
-987.1651234739217
 21
1627.752539531385
 31
0.0
  0
LINE
  5
10C
330
1F
100
AcDbEntity
  8
@__WIDOCZNE
  6
Continuous
370
    25
100
AcDbLine
 10
-1015.165123473922
 20
1554.661871746683
 30
0.0
 11
-987.1651234739217
 21
1554.661871746683
 31
0.0
  0
LWPOLYLINE
  5
10D
330
1F
100
AcDbEntity
  8
@__WIDOCZNE
  6
Continuous
370
    13
100
AcDbPolyline
 90
        4
 70
   129
 43
0.0
 10
-1950.000000000318
 20
220.0000000000005
 10
-1950.000000000318
 20
0.0000000000008465
 10
-150.0000000001365
 20
0.0000000000017347
 10
-150.0000000001365
 20
220.000000000001
  0
LWPOLYLINE
  5
10E
330
1F
100
AcDbEntity
  8
@__WIDOCZNE
  6
Continuous
370
    13
100
AcDbPolyline
 90
        4
 70
   129
 43
0.0
 10
-1950.000000000318
 20
2870.000000000001
 10
-149.9999999999091
 20
2870.000000000001
 10
-149.9999999999091
 20
220.000000000001
 10
-1950.000000000318
 20
220.000000000001
  0
LWPOLYLINE
  5
10F
330
1F
100
AcDbEntity
  8
@__WIDOCZNE
  6
Continuous
370
    13
100
AcDbPolyline
 90
        4
 70
   129
 43
0.0
 10
-100.0
 20
-49.99999999999825
 10
-2200.000000000363
 20
-49.99999999999825
 10
-2200.000000000363
 20
2920.000000000002
 10
-100.0
 20
2920.000000000002
  0
LWPOLYLINE
  5
110
330
1F
100
AcDbEntity
  8
@__WIDOCZNE
  6
Continuous
370
   100
100
AcDbPolyline
 90
        3
 70
   128
 43
0.0
 10
-768.8856795068414
 20
1641.86572962981
 10
-999.6262946643097
 20
1641.86572962981
 10
-999.6262946643097
 20
1685.99572773211
  0
LWPOLYLINE
  5
111
330
1F
100
AcDbEntity
  8
@__WIDOCZNE
  6
Continuous
370
   100
100
AcDbPolyline
 90
        3
 70
   128
 43
0.0
 10
-768.8856795068414
 20
1540.574522729812
 10
-999.6262946643097
 20
1540.574522729812
 10
-999.6262946643097
 20
1496.444524627512
  0
LWPOLYLINE
  5
112
330
1F
100
AcDbEntity
  8
@__WIDOCZNE
  6
Continuous
370
    13
100
AcDbPolyline
 90
        2
 70
   129
 43
0.0
 10
-150.0000000001367
 20
60.00000000000127
 10
-1414.269721801409
 20
60.00000000000127
  0
LWPOLYLINE
  5
113
330
1F
100
AcDbEntity
  8
@__WIDOCZNE
  6
Continuous
370
    13
100
AcDbPolyline
 90
        2
 70
   128
 43
0.0
 10
-290.0000000000094
 20
170.0000000000016
 10
-290.0000000000094
 20
220.0000000000014
  0
LWPOLYLINE
  5
114
330
1F
100
AcDbEntity
  8
@__WIDOCZNE
  6
Continuous
370
    13
100
AcDbPolyline
 90
        2
 70
   128
 43
0.0
 10
-150.0000000001367
 20
170.0000000000016
 10
-460.0000000000821
 20
170.0000000000016
  0
LWPOLYLINE
  5
115
330
1F
100
AcDbEntity
  8
@__WIDOCZNE
  6
Continuous
370
    13
100
AcDbPolyline
 90
        2
 70
   128
 43
0.0
 10
-460.0000000000821
 20
60.00000000000127
 10
-460.0000000000821
 20
220.0000000000014
  0
LWPOLYLINE
  5
116
330
1F
100
AcDbEntity
  8
@__WIDOCZNE
  6
Continuous
370
    13
100
AcDbPolyline
 90
        2
 70
   128
 43
0.0
 10
-1414.269721801409
 20
220.0000000000005
 10
-1414.269721801409
 20
-0.000000000000111
  0
LWPOLYLINE
  5
117
330
1F
100
AcDbEntity
  8
@__WIDOCZNE
  6
Continuous
370
    13
100
AcDbPolyline
 90
        9
 70
   128
 43
0.0
 10
-1025.628540752043
 20
2425.018257941293
 10
-1008.885679506623
 20
2425.018257941293
 10
-1008.885679506623
 20
2371.707815355224
 42
-0.414213562373095
 10
-1038.885679506623
 20
2341.707815355225
 10
-1158.885679506623
 20
2341.707815355225
 10
-1158.885679506623
 20
2361.168852540641
 10
-1040.885679506623
 20
2361.168852540641
 42
0.414213562373095
 10
-1025.885679506623
 20
2376.168852540641
 10
-1025.885679506623
 20
2425.018257941293
  0
WIPEOUT
  5
118
330
1F
100
AcDbEntity
  8
@__WIDOCZNE
  6
Wipeout_Contour
 62
   254
 48
9469.36147949099
370
     0
 92
      140
310
8C000000010000008400000006000000050000002132249D8D8B8FC09934C6666A83A1400000000000000000F75209866D0B90C09934C6666A83A1400000000000000000F75209866D0B90C031698CCDD4BE9F4000000000000000002132249D8D8B8FC031698CCDD4BE9F4000000000000000002132249D8D8B8FC09934C6
310
666A83A1400000000000000000
100
AcDbWipeout
 90
        0
 10
-1026.856956620873
 20
2031.707815355225
 30
0.0
 11
17.41280924120804
 21
0.0
 31
0.0
 12
0.0
 22
210.0000000000002
 32
0.0
 13
1.0
 23
1.0
340
0
 70
    15
280
     1
281
    50
282
    50
283
     0
360
0
 71
     2
 91
        5
 14
0.5000000000000032
 24
-0.4999999999999994
 14
-0.4999999999999967
 24
-0.4999999999999994
 14
-0.4999999999999967
 24
0.5000000000000006
 14
0.5000000000000032
 24
0.5000000000000006
 14
0.5000000000000032
 24
-0.4999999999999994
  0
MTEXT
  5
11A
330
1F
100
AcDbEntity
  8
@__WIDOCZNE
  6
Continuous
370
    13
100
AcDbMText
 10
-459.8744154123032
 20
166.0000130984733
 30
0.0
 40
15.0
 41
0.0
 71
     1
 72
     1
  1
{ nr rys:}
  7
GENERATED_STYLE_1
 73
     1
 44
1.0
  0
MTEXT
  5
11C
330
1F
100
AcDbEntity
  8
@__WIDOCZNE
  6
Continuous
370
    13
100
AcDbMText
 10
-1384.554499113983
 20
136.2601996460743
 30
0.0
 40
30.0
 41
0.0
 71
     4
 72
     1
  1
{PRZEJŚCIA INSTALACJI I DYLATACJE ŚCIAN,\PZ UŻYCIEM BOTAMENT RD1 / RD2}
  7
GENERATED_STYLE_2
 73
     1
 44
0.8008464704511922
  0
MTEXT
  5
11D
330
1F
100
AcDbEntity
  8
@__WIDOCZNE
  6
Continuous
370
    13
100
AcDbMText
 10
-434.2857142860794
 20
206.5714285714293
 30
0.0
 40
15.0
 41
0.0
 71
     2
 72
     1
  1
{ data:}
  7
GENERATED_STYLE_1
 73
     1
 44
1.0
  0
MTEXT
  5
11E
330
1F
100
AcDbEntity
  8
@__WIDOCZNE
  6
Continuous
370
    13
100
AcDbMText
 10
-260.4285714287926
 20
206.5714285714298
 30
0.0
 40
15.0
 41
0.0
 71
     2
 72
     1
  1
{ skala:}
  7
GENERATED_STYLE_1
 73
     1
 44
1.0
  0
MTEXT
  5
11F
330
1F
100
AcDbEntity
  8
@__WIDOCZNE
  6
Continuous
370
    13
100
AcDbMText
 10
-228.5716592712769
 20
176.43715867616
 30
0.0
 40
20.0
 41
0.0
 71
     7
 72
     1
  1
{1:10  }
  7
GENERATED_STYLE_1
 73
     1
 44
1.0
  0
MTEXT
  5
121
330
1F
100
AcDbEntity
  8
@__WIDOCZNE
  6
Continuous
370
    13
100
AcDbMText
 10
-1225.402828265584
 20
954.2580741671178
 30
0.0
 40
20.0
 41
0.0
 71
     8
 72
     1
  1
{\U+22655cm}
  7
GENERATED_STYLE_3
 11
6.123233995736766E-17
 21
1.0
 31
0.0
 73
     1
 44
1.0
  0
MTEXT
  5
122
330
1F
100
AcDbEntity
  8
@__WIDOCZNE
  6
Continuous
 62
    20
370
     0
100
AcDbMText
 10
-160.0005199794572
 20
75.79210799257866
 30
0.0
 40
30.00000000000001
 41
0.0
 71
     9
 72
     1
  1
{\P\C256;\H1.333333x; 02.04.2-51.}
  7
GENERATED_STYLE_2
 73
     1
 44
1.068159463616949
  0
MTEXT
  5
123
330
1F
100
AcDbEntity
  8
@__WIDOCZNE
  6
Continuous
370
    13
100
AcDbMText
 10
-1750.434832153636
 20
637.9685065418522
 30
0.0
 40
19.99999999999999
 41
0.0
 71
     7
 72
     1
  1
{TERMOIZOLACJA}
  7
GENERATED_STYLE_1
 73
     1
 44
1.0
  0
MTEXT
  5
124
330
1F
100
AcDbEntity
  8
@__WIDOCZNE
  6
Continuous
370
    13
100
AcDbMText
 10
-1750.434832153636
 20
1636.592254802283
 30
0.0
 40
19.99999999999999
 41
0.0
 71
     7
 72
     1
  1
{PIERŚCIEŃ ZACISKOWY RURY\PKANALIZACYJNEJ}
  7
GENERATED_STYLE_1
 73
     1
 44
0.9207281006216306
  0
MTEXT
  5
125
330
1F
100
AcDbEntity
  8
@__WIDOCZNE
  6
Continuous
370
    13
100
AcDbMText
 10
-1750.434832153636
 20
1588.008267025666
 30
0.0
 40
19.99999999999999
 41
0.0
 71
     7
 72
     1
  1
{RURA}
  7
GENERATED_STYLE_1
 73
     1
 44
1.0
  0
MTEXT
  5
126
330
1F
100
AcDbEntity
  8
@__WIDOCZNE
  6
Continuous
370
    13
100
AcDbMText
 10
-602.2824971553483
 20
1512.301148996811
 30
0.0
 40
19.99999999999999
 41
0.0
 71
     7
 72
     1
  1
{KOŁNIERZ STAŁY}
  7
GENERATED_STYLE_1
 73
     1
 44
1.0
  0
MTEXT
  5
127
330
1F
100
AcDbEntity
  8
@__WIDOCZNE
  6
Continuous
370
    13
100
AcDbMText
 10
-1750.434832153636
 20
1512.190924376363
 30
0.0
 40
19.99999999999999
 41
0.0
 71
     7
 72
     1
  1
{KOŁNIERZ LUŹNY DOCISKOWY}
  7
GENERATED_STYLE_1
 73
     1
 44
1.0
  0
MTEXT
  5
128
330
1F
100
AcDbEntity
  8
@__WIDOCZNE
  6
Continuous
370
    13
100
AcDbMText
 10
-1750.434832153636
 20
2267.774764797611
 30
0.0
 40
19.99999999999999
 41
0.0
 71
     7
 72
     1
  1
{PRZEJŚCIE INSTALACYJNE}
  7
GENERATED_STYLE_1
 73
     1
 44
1.0
  0
MTEXT
  5
129
330
1F
100
AcDbEntity
  8
@__WIDOCZNE
  6
Continuous
370
    13
100
AcDbMText
 10
-1750.434832153636
 20
2132.105451152167
 30
0.0
 40
19.99999999999999
 41
0.0
 71
     7
 72
     1
  1
{TERMOIZOLACJA }
  7
GENERATED_STYLE_1
 73
     1
 44
1.0
  0
MTEXT
  5
12A
330
1F
100
AcDbEntity
  8
@__WIDOCZNE
  6
Continuous
370
    13
100
AcDbMText
 10
-1750.434832153636
 20
692.338287624798
 30
0.0
 40
19.99999999999999
 41
0.0
 71
     7
 72
     1
  1
{ŚCIANA WEWNĘTRZNA BUDYNKU}
  7
GENERATED_STYLE_1
 73
     1
 44
1.0
  0
MTEXT
  5
12B
330
1F
100
AcDbEntity
  8
@__WIDOCZNE
  6
Continuous
370
    13
100
AcDbMText
 10
-1750.434832153636
 20
572.3382876247979
 30
0.0
 40
19.99999999999999
 41
0.0
 71
     7
 72
     1
  1
{ŚCIANA ZEWNĘTRZNA BUDYNKU}
  7
GENERATED_STYLE_1
 73
     1
 44
1.0
  0
MTEXT
  5
12C
330
1F
100
AcDbEntity
  8
@__WIDOCZNE
  6
Continuous
 62
   104
370
    13
100
AcDbMText
 10
-1750.434832153636
 20
2220.832064041931
 30
0.0
 40
20.0
 41
0.0
 71
     4
 72
     1
  1
{BOTAMENT RD1 / RD2, \C102;2mm }
  7
GENERATED_STYLE_2
 73
     1
 44
1.0
  0
MTEXT
  5
12D
330
1F
100
AcDbEntity
  8
@__WIDOCZNE
  6
Continuous
 62
   104
370
    13
100
AcDbMText
 10
-1750.434832153636
 20
1756.332904212029
 30
0.0
 40
20.0
 41
0.0
 71
     4
 72
     1
  1
{BOTAMENT RD1 / RD2, \C102;2mm }
  7
GENERATED_STYLE_2
 73
     1
 44
1.0
  0
MTEXT
  5
12E
330
1F
100
AcDbEntity
  8
@__WIDOCZNE
  6
Continuous
 62
   104
370
    13
100
AcDbMText
 10
-1750.434832153636
 20
1055.283510762472
 30
0.0
 40
20.0
 41
0.0
 71
     4
 72
     1
  1
{BOTAMENT RD1 / RD2, \C102;2mm }
  7
GENERATED_STYLE_2
 73
     1
 44
1.0
  0
WIPEOUT
  5
12F
330
1F
100
AcDbEntity
  8
@__WIDOCZNE
  6
Wipeout_Contour
 62
   104
 48
6807.830586519304
370
    13
 92
      140
310
8C0000000100000084000000060000000500000075DCA344BD599BC0903E9967FFE78B400000000000000000AECD7E80FD4592C0903E9967FFE78B400000000000000000AECD7E80FD4592C03F059FE423F18940000000000000000075DCA344BD599BC03F059FE423F18940000000000000000075DCA344BD599BC0903E99
310
67FFE78B400000000000000000
100
AcDbWipeout
 90
        0
 10
-1750.434832153636
 20
830.1425259040333
 30
0.0
 11
580.9372716703672
 21
0.0
 31
0.0
 12
0.0
 22
62.85718341338554
 32
0.0
 13
1.0
 23
1.0
340
0
 70
    15
280
     1
281
    50
282
    50
283
     0
360
0
 71
     2
 91
        5
 14
-0.4999999999999998
 24
-0.4999999999999991
 14
0.5000000000000002
 24
-0.4999999999999991
 14
0.5000000000000002
 24
0.5000000000000009
 14
-0.4999999999999998
 24
0.5000000000000009
 14
-0.4999999999999998
 24
-0.4999999999999991
  0
MTEXT
  5
130
330
1F
100
AcDbEntity
  8
@__WIDOCZNE
  6
Continuous
 62
   104
370
    13
100
AcDbMText
 10
-1750.434832153636
 20
865.0122918744443
 30
0.0
 40
20.0
 41
0.0
 71
     4
 72
     1
  1
\A1;{\fArial|b1|i0|c238|p38;BOTAMENT B180 / B240 \fArial|b0|i0|c238|p38;-SYSTEM. TAŚMA\PDYLATACYJNA MOCOWANA W KSZTAŁCIE \U+03A9}
  7
GENERATED_STYLE_2
 73
     1
 44
0.920728100621631
  0
MTEXT
  5
131
330
1F
100
AcDbEntity
  8
@__WIDOCZNE
  6
Continuous
370
    13
100
AcDbMText
 10
-1750.434832153636
 20
777.968484855661
 30
0.0
 40
19.99999999999999
 41
0.0
 71
     7
 72
     1
  1
{DYLATACJA W BUDYNKU}
  7
GENERATED_STYLE_1
 73
     1
 44
1.0
  0
MTEXT
  5
132
330
1F
100
AcDbEntity
  8
@__WIDOCZNE
  6
Continuous
370
    13
100
AcDbMText
 10
-406.1140589240016
 20
176.4371747445677
 30
0.0
 40
20.0
 41
0.0
 71
     7
 72
     1
  1
{2020.05. }
  7
GENERATED_STYLE_1
 73
     1
 44
1.0
  0
MTEXT
  5
133
330
1F
100
AcDbEntity
  8
@__WIDOCZNE
  6
Continuous
370
    13
100
AcDbMText
 10
-1404.000000000042
 20
28.41451671597678
 30
0.0
 40
15.0
 41
0.0
 71
     4
 72
     1
  1
{Rysunek nie wyczerpuje wszystkich aspektów technicznych zagadnienia, a jego integralną częścią są karty techniczne \Pposzczególnych produktów. Szczegółowych informacji udzielają technicy zastosowań i doradcy handlowo-techniczni Botament. }
  7
GENERATED_STYLE_1
 73
     1
 44
0.9278263558916976
  0
MTEXT
  5
134
330
1F
100
AcDbEntity
  8
@__WIDOCZNE
  6
Continuous
370
    13
100
AcDbMText
 10
-1682.384354501804
 20
30.26957004651225
 30
0.0
 40
15.0
 41
0.0
 71
     5
 72
     1
  1
{ ul. Prądzyńskiego 20, 63-000 Środa Wlkp., botament.pl\P +48 606-318-643, 61-286-45-17, technik@botament.pl  }
  7
GENERATED_STYLE_1
 73
     1
 44
0.9181612291118321
  0
MTEXT
  5
135
330
1F
100
AcDbEntity
  8
@__WIDOCZNE
  6
Continuous
 62
    20
370
     0
100
AcDbMText
 10
-160.0002611444729
 20
-311.7106333547343
 30
0.0
 40
30.00000000000001
 41
0.0
 71
     9
 72
     1
  1
{\P\C256;\H1.333333x; 02.04.2-23.}
  7
GENERATED_STYLE_2
 73
     1
 44
1.068159463616948
  0
MTEXT
  5
136
330
1F
100
AcDbEntity
  8
@__WIDOCZNE
  6
Continuous
370
    13
100
AcDbMText
 10
400.8555520875469
 20
221.2371482331509
 30
0.0
 40
20.0
 41
0.0
 71
     9
 72
     1
  1
{s.17_druk:2020-05-26 }
  7
GENERATED_STYLE_1
 73
     1
 44
1.0
  0
MTEXT
  5
137
330
1F
100
AcDbEntity
  8
@__WIDOCZNE
  6
Continuous
370
    13
100
AcDbMText
 10
-1950.917148233468
 20
450.4774850992375
 30
0.0
 40
20.0
 41
0.0
 71
     9
 72
     1
  1
{druk:2020-05-26, rys. od 181200 DE }
  7
GENERATED_STYLE_1
 11
6.123233995736766E-17
 21
1.0
 31
0.0
 73
     1
 44
1.0
  0
LWPOLYLINE
  5
138
330
1F
100
AcDbEntity
  8
@__WIDOCZNE
  6
Continuous
370
    13
100
AcDbPolyline
 90
        8
 70
   129
 43
0.0
 10
-1158.885679506623
 20
2222.246778169809
 10
-1158.885679506623
 20
2241.707815355225
 10
-1035.219713006184
 20
2241.707815355225
 42
-0.3460009228924009
 10
-1008.885679506623
 20
2214.299287781146
 10
-1008.885679506623
 20
2183.523941661926
 10
-1025.885679506623
 20
2183.523941661926
 10
-1025.885679506623
 20
2207.246778169809
 42
0.3966650440600479
 10
-1039.981968990581
 20
2222.219530331759
  0
WIPEOUT
  5
142
330
1F
100
AcDbEntity
  8
2D - Ogólne
  6
Wipeout_Contour
 62
   254
 48
5734.486421648418
370
     0
 92
      140
310
8C000000010000008400000006000000050000003F7032CDA18A8FC00F553CC63E318B4000000000000000003F7032CDA18A8FC0882A1E639FD09140000000000000000065AE22ABB00790C0882A1E639FD09140000000000000000065AE22ABB00790C00F553CC63E318B4000000000000000003F7032CDA18A8FC00F553C
310
C63E318B400000000000000000
100
AcDbWipeout
 90
        0
 10
-1025.922527830023
 20
870.1556515420397
 30
0.0
 11
16.59352316650745
 21
0.0
 31
0.0
 12
0.0
 22
270.0000000000001
 32
0.0
 13
1.0
 23
1.0
340
0
 70
    15
280
     1
281
    50
282
    50
283
     0
360
0
 71
     2
 91
        5
 14
0.4999999999999966
 24
0.5000000000000002
 14
0.4999999999999966
 24
-0.4999999999999998
 14
-0.5000000000000034
 24
-0.4999999999999998
 14
-0.5000000000000034
 24
0.5000000000000002
 14
0.4999999999999966
 24
0.5000000000000002
  0
INSERT
  5
143
330
1F
100
AcDbEntity
  8
2D - Ogólne
  6
Continuous
370
    13
100
AcDbBlockReference
  2
*X3
 10
0.0
 20
0.0
 30
0.0
  0
LINE
  5
144
330
1F
100
AcDbEntity
  8
2D - Ogólne
  6
Continuous
370
    13
100
AcDbLine
 10
-1009.329004663516
 20
870.1556515420397
 30
0.0
 11
-1009.329004663516
 21
1140.15565154204
 31
0.0
  0
LINE
  5
145
330
1F
100
AcDbEntity
  8
2D - Ogólne
  6
Continuous
370
    13
100
AcDbLine
 10
-1009.329004663516
 20
1140.15565154204
 30
0.0
 11
-1025.922527830023
 21
1140.15565154204
 31
0.0
  0
LINE
  5
146
330
1F
100
AcDbEntity
  8
2D - Ogólne
  6
Continuous
370
    13
100
AcDbLine
 10
-1025.922527830023
 20
1140.15565154204
 30
0.0
 11
-1025.922527830023
 21
870.1556515420397
 31
0.0
  0
LINE
  5
147
330
1F
100
AcDbEntity
  8
2D - Ogólne
  6
Continuous
370
    13
100
AcDbLine
 10
-1025.922527830023
 20
870.1556515420397
 30
0.0
 11
-1009.329004663516
 21
870.1556515420397
 31
0.0
  0
HATCH
  5
148
330
1F
100
AcDbEntity
  8
@__WIDOCZNE
  6
Continuous
370
    13
100
AcDbHatch
 10
0.0
 20
0.0
 30
0.0
210
0.0
220
0.0
230
1.0
  2
SOLID
 70
     1
 71
     0
 91
        1
 92
        2
 72
     0
 73
     1
 93
        4
 10
-1042.665389075443
 20
975.1166839661134
 10
-1025.628540752043
 20
975.1166839661134
 10
-1025.628540752043
 20
924.3586712162361
 10
-1042.665389075443
 20
924.3586712162361
 97
        0
 75
     0
 76
     1
 98
        0
  0
HATCH
  5
149
330
1F
100
AcDbEntity
  8
@__WIDOCZNE
  6
Continuous
 62
   255
370
     0
100
AcDbHatch
 10
0.0
 20
0.0
 30
0.0
210
0.0
220
0.0
230
1.0
  2
SOLID
 70
     1
 71
     1
 91
        1
 92
        2
 72
     1
 73
     1
 93
        8
 10
-1020.882598190348
 20
970.1556515420395
 42
0.0
 10
-1031.714379305314
 20
970.1556515420395
 42
0.0
 10
-1031.714379305314
 20
860.0709052234824
 42
-0.6852406197503949
 10
-1031.714379305314
 20
730.2273125953919
 42
0.0
 10
-1031.714379305314
 20
620.1556515420398
 42
0.0
 10
-1020.882598190348
 20
620.1556515420398
 42
0.0
 10
-1020.882598190348
 20
720.1556515420398
 42
0.622847848622762
 10
-1020.882598190348
 20
870.1556515420397
 42
0.0
 97
        1
330
14A
 75
     0
 76
     1
 98
        0
  0
LWPOLYLINE
  5
14A
102
{ACAD_REACTORS
330
149
102
}
330
1F
100
AcDbEntity
  8
@__WIDOCZNE
  6
Continuous
370
    25
100
AcDbPolyline
 90
        8
 70
   129
 43
0.0
 10
-1020.882598190348
 20
970.1556515420395
 10
-1031.714379305314
 20
970.1556515420395
 10
-1031.714379305314
 20
860.0709052234824
 42
-0.6852406197503949
 10
-1031.714379305314
 20
730.2273125953919
 10
-1031.714379305314
 20
620.1556515420398
 10
-1020.882598190348
 20
620.1556515420398
 10
-1020.882598190348
 20
720.1556515420398
 42
0.622847848622762
 10
-1020.882598190348
 20
870.1556515420397
  0
WIPEOUT
  5
14B
330
1F
100
AcDbEntity
  8
@__WIDOCZNE
  6
Wipeout_Contour
 62
   254
 48
10937.75944114639
370
     0
 92
      140
310
8C00000001000000840000000600000005000000BC8E91EF8A4392C09934C6666AF5A3400000000000000000BC8E91EF8A4392C09834C6666AE9A3400000000000000000F82423DF15B787C09834C6666AE9A3400000000000000000F82423DF15B787C09934C6666AF5A3400000000000000000BC8E91EF8A4392C09934C6
310
666AF5A3400000000000000000
100
AcDbWipeout
 90
        0
 10
-1168.885679506623
 20
2548.707815355225
 30
0.0
 11
409.9999999997817
 21
0.0
 31
0.0
 12
0.0
 22
6.000000000000455
 32
0.0
 13
1.0
 23
1.0
340
0
 70
    15
280
     1
281
    50
282
    50
283
     0
360
0
 71
     2
 91
        5
 14
-0.5
 24
-0.5000000000000379
 14
-0.5
 24
0.4999999999999621
 14
0.5
 24
0.4999999999999621
 14
0.5
 24
-0.5000000000000379
 14
-0.5
 24
-0.5000000000000379
  0
WIPEOUT
  5
14C
330
1F
100
AcDbEntity
  8
@__WIDOCZNE
  6
Wipeout_Contour
 62
   254
 48
9025.608334999293
370
     0
 92
      140
310
8C00000001000000840000000600000005000000BC8E91EF8A4392C034698CCDD4CA9F400000000000000000BC8E91EF8A4392C033698CCDD4B29F400000000000000000F82423DF15B787C033698CCDD4B29F400000000000000000F82423DF15B787C034698CCDD4CA9F400000000000000000BC8E91EF8A4392C034698C
310
CDD4CA9F400000000000000000
100
AcDbWipeout
 90
        0
 10
-1168.885679506623
 20
2028.707815355225
 30
0.0
 11
409.9999999997817
 21
0.0
 31
0.0
 12
0.0
 22
6.000000000000227
 32
0.0
 13
1.0
 23
1.0
340
0
 70
    15
280
     1
281
    50
282
    50
283
     0
360
0
 71
     2
 91
        5
 14
-0.5
 24
-0.4999999999999811
 14
-0.5
 24
0.500000000000019
 14
0.5
 24
0.500000000000019
 14
0.5
 24
-0.4999999999999811
 14
-0.5
 24
-0.4999999999999811
  0
WIPEOUT
  5
14D
330
1F
100
AcDbEntity
  8
@__WIDOCZNE
  6
Wipeout_Contour
 62
   254
 48
8253.833173511006
370
     0
 92
      140
310
8C00000001000000840000000600000005000000CBBEAFC66F4D90C0DCFCD38176FB9C400000000000000000CBBEAFC66F4D90C0DBFCD38176E39C400000000000000000F82423DF15B787C0DBFCD38176E39C400000000000000000F82423DF15B787C0DCFCD38176FB9C400000000000000000CBBEAFC66F4D90C0DCFCD3
310
8176FB9C400000000000000000
100
AcDbWipeout
 90
        0
 10
-1043.359156366367
 20
1848.86572962981
 30
0.0
 11
284.473476859526
 21
0.0
 31
0.0
 12
0.0
 22
6.000000000000227
 32
0.0
 13
1.0
 23
1.0
340
0
 70
    15
280
     1
281
    50
282
    50
283
     0
360
0
 71
     2
 91
        5
 14
-0.5
 24
-0.4999999999999811
 14
-0.5
 24
0.500000000000019
 14
0.5
 24
0.500000000000019
 14
0.5
 24
-0.4999999999999811
 14
-0.5
 24
-0.4999999999999811
  0
WIPEOUT
  5
14E
330
1F
100
AcDbEntity
  8
@__WIDOCZNE
  6
Wipeout_Contour
 62
   254
 48
6005.114168230006
370
     0
 92
      140
310
8C00000001000000840000000600000005000000BC8E91EF8A4392C0C17AAF649FDC91400000000000000000BC8E91EF8A4392C0C07AAF649FC491400000000000000000F82423DF15B787C0C07AAF649FC491400000000000000000F82423DF15B787C0C17AAF649FDC91400000000000000000BC8E91EF8A4392C0C17AAF
310
649FDC91400000000000000000
100
AcDbWipeout
 90
        0
 10
-1168.885679506623
 20
1137.155657522075
 30
0.0
 11
409.9999999997817
 21
0.0
 31
0.0
 12
0.0
 22
6.000000000000227
 32
0.0
 13
1.0
 23
1.0
340
0
 70
    15
280
     1
281
    50
282
    50
283
     0
360
0
 71
     2
 91
        5
 14
-0.5
 24
-0.500000000000019
 14
-0.5
 24
0.4999999999999811
 14
0.5
 24
0.4999999999999811
 14
0.5
 24
-0.500000000000019
 14
-0.5
 24
-0.500000000000019
  0
WIPEOUT
  5
14F
330
1F
100
AcDbEntity
  8
@__WIDOCZNE
  6
Wipeout_Contour
 62
   254
 48
4270.016024444089
370
     0
 92
      140
310
8C00000001000000840000000600000005000000BD8E91EF8A4392C027AA788C7D527C400000000000000000BD8E91EF8A4392C023AA788C7DF27B400000000000000000F92423DF15B787C023AA788C7DF27B400000000000000000F92423DF15B787C027AA788C7D527C400000000000000000BD8E91EF8A4392C027AA78
310
8C7D527C400000000000000000
100
AcDbWipeout
 90
        0
 10
-1168.885679506623
 20
447.1556515420399
 30
0.0
 11
409.9999999997818
 21
0.0
 31
0.0
 12
0.0
 22
6.000000000000227
 32
0.0
 13
1.0
 23
1.0
340
0
 70
    15
280
     1
281
    50
282
    50
283
     0
360
0
 71
     2
 91
        5
 14
-0.4999999999999999
 24
-0.5
 14
-0.4999999999999999
 24
0.5
 14
0.5000000000000001
 24
0.5
 14
0.5000000000000001
 24
-0.5
 14
-0.4999999999999999
 24
-0.5
  0
WIPEOUT
  5
150
330
1F
100
AcDbEntity
  8
@__WIDOCZNE
  6
Wipeout_Contour
 62
   254
 48
3366.413383299551
370
     0
 92
      140
310
8C00000001000000840000000600000005000000E34946BE2B9E70C01950CC8DA83C8F400000000000000000E74946BE2BFE70C01950CC8DA83C8F400000000000000000EB4946BE2BFE70C09757CC8DA86C82400000000000000000E74946BE2B9E70C09757CC8DA86C82400000000000000000E34946BE2B9E70C01950CC
310
8DA83C8F400000000000000000
100
AcDbWipeout
 90
        0
 10
-271.8856795068411
 20
589.5823017086249
 30
0.0
 11
6.000000000000455
 21
0.0
 31
0.0
 12
0.0
 22
409.9999999997819
 32
0.0
 13
1.0
 23
1.0
340
0
 70
    15
280
     1
281
    50
282
    50
283
     0
360
0
 71
     2
 91
        5
 14
0.5
 24
-0.5
 14
-0.4999999999999621
 24
-0.5
 14
-0.5
 24
0.5
 14
0.4999999999999621
 24
0.5
 14
0.5
 24
-0.5
  0
WIPEOUT
  5
151
330
1F
100
AcDbEntity
  8
@__WIDOCZNE
  6
Wipeout_Contour
 62
   254
 48
6445.369561531235
370
     0
 92
      140
310
8C00000001000000840000000600000005000000CBBEAFC66F4D90C069BDAF4F4CD694400000000000000000CBBEAFC66F4D90C068BDAF4F4CBE94400000000000000000F82423DF15B787C068BDAF4F4CBE94400000000000000000F82423DF15B787C069BDAF4F4CD694400000000000000000CBBEAFC66F4D90C069BDAF
310
4F4CD694400000000000000000
100
AcDbWipeout
 90
        0
 10
-1043.359156366367
 20
1327.574522729812
 30
0.0
 11
284.473476859526
 21
0.0
 31
0.0
 12
0.0
 22
6.000000000000227
 32
0.0
 13
1.0
 23
1.0
340
0
 70
    15
280
     1
281
    50
282
    50
283
     0
360
0
 71
     2
 91
        5
 14
-0.5
 24
-0.500000000000019
 14
-0.5
 24
0.4999999999999811
 14
0.5
 24
0.4999999999999811
 14
0.5
 24
-0.500000000000019
 14
-0.5
 24
-0.500000000000019
  0
WIPEOUT
  5
159
330
1F
100
AcDbEntity
  8
2D - Ogólne
  6
Wipeout_Contour
 62
   254
 48
10707.44250225899
370
     0
 92
      140
310
8C00000001000000840000000600000005000000751D23DF15878FC03A8B778BC8BFA2400000000000000000751D23DF15878FC09834C6666AEFA3400000000000000000BA8E91EF8A0790C09834C6666AEFA3400000000000000000BA8E91EF8A0790C03A8B778BC8BFA2400000000000000000751D23DF15878FC03A8B77
310
8BC8BFA2400000000000000000
100
AcDbWipeout
 90
        0
 10
-1025.885679506623
 20
2399.891689048524
 30
0.0
 11
16.99999999999989
 21
0.0
 31
0.0
 12
0.0
 22
151.8161263067004
 32
0.0
 13
1.0
 23
1.0
340
0
 70
    15
280
     1
281
    50
282
    50
283
     0
360
0
 71
     2
 91
        5
 14
0.4999999999999967
 24
0.5
 14
0.4999999999999967
 24
-0.5
 14
-0.5000000000000033
 24
-0.5
 14
-0.5000000000000033
 24
0.5
 14
0.4999999999999967
 24
0.5
  0
INSERT
  5
15A
330
1F
100
AcDbEntity
  8
2D - Ogólne
  6
Continuous
370
    13
100
AcDbBlockReference
  2
*X4
 10
0.0
 20
0.0
 30
0.0
  0
LINE
  5
15B
330
1F
100
AcDbEntity
  8
2D - Ogólne
  6
Continuous
370
    13
100
AcDbLine
 10
-1008.885679506623
 20
2399.891689048524
 30
0.0
 11
-1008.885679506623
 21
2551.707815355225
 31
0.0
  0
LINE
  5
15C
330
1F
100
AcDbEntity
  8
2D - Ogólne
  6
Continuous
370
    13
100
AcDbLine
 10
-1008.885679506623
 20
2551.707815355225
 30
0.0
 11
-1025.885679506623
 21
2551.707815355225
 31
0.0
  0
LINE
  5
15D
330
1F
100
AcDbEntity
  8
2D - Ogólne
  6
Continuous
370
    13
100
AcDbLine
 10
-1025.885679506623
 20
2551.707815355225
 30
0.0
 11
-1025.885679506623
 21
2399.891689048524
 31
0.0
  0
LINE
  5
15E
330
1F
100
AcDbEntity
  8
2D - Ogólne
  6
Continuous
370
    13
100
AcDbLine
 10
-1025.885679506623
 20
2399.891689048524
 30
0.0
 11
-1008.885679506623
 21
2399.891689048524
 31
0.0
  0
WIPEOUT
  5
165
330
1F
100
AcDbEntity
  8
2D - Ogólne
  6
Wipeout_Contour
 62
   254
 48
9391.086233008282
370
     0
 92
      140
310
8C00000001000000840000000600000005000000751D23DF15878FC031698CCDD4BE9F400000000000000000751D23DF15878FC05185592EC62EA1400000000000000000BA8E91EF8A0790C05185592EC62EA1400000000000000000BA8E91EF8A0790C031698CCDD4BE9F400000000000000000751D23DF15878FC031698C
310
CDD4BE9F400000000000000000
100
AcDbWipeout
 90
        0
 10
-1025.885679506623
 20
2031.707815355225
 30
0.0
 11
16.99999999999989
 21
0.0
 31
0.0
 12
0.0
 22
167.6792570148502
 32
0.0
 13
1.0
 23
1.0
340
0
 70
    15
280
     1
281
    50
282
    50
283
     0
360
0
 71
     2
 91
        5
 14
0.4999999999999967
 24
0.5000000000000007
 14
0.4999999999999967
 24
-0.4999999999999993
 14
-0.5000000000000033
 24
-0.4999999999999993
 14
-0.5000000000000033
 24
0.5000000000000007
 14
0.4999999999999967
 24
0.5000000000000007
  0
INSERT
  5
166
330
1F
100
AcDbEntity
  8
2D - Ogólne
  6
Continuous
370
    13
100
AcDbBlockReference
  2
*X5
 10
0.0
 20
0.0
 30
0.0
  0
LINE
  5
167
330
1F
100
AcDbEntity
  8
2D - Ogólne
  6
Continuous
370
    13
100
AcDbLine
 10
-1008.885679506623
 20
2031.707815355225
 30
0.0
 11
-1008.885679506623
 21
2199.387072370075
 31
0.0
  0
LINE
  5
168
330
1F
100
AcDbEntity
  8
2D - Ogólne
  6
Continuous
370
    13
100
AcDbLine
 10
-1008.885679506623
 20
2199.387072370075
 30
0.0
 11
-1025.885679506623
 21
2199.387072370075
 31
0.0
  0
LINE
  5
169
330
1F
100
AcDbEntity
  8
2D - Ogólne
  6
Continuous
370
    13
100
AcDbLine
 10
-1025.885679506623
 20
2199.387072370075
 30
0.0
 11
-1025.885679506623
 21
2031.707815355225
 31
0.0
  0
LINE
  5
16A
330
1F
100
AcDbEntity
  8
2D - Ogólne
  6
Continuous
370
    13
100
AcDbLine
 10
-1025.885679506623
 20
2031.707815355225
 30
0.0
 11
-1008.885679506623
 21
2031.707815355225
 31
0.0
  0
WIPEOUT
  5
172
330
1F
100
AcDbEntity
  8
2D - Ogólne
  6
Wipeout_Contour
 62
   254
 48
8081.871884269416
370
     0
 92
      140
310
8C0000000100000084000000060000000500000019593BC5BD928FC0EBA5EDCFED9F9940000000000000000019593BC5BD928FC0D9FCD38176EF9C4000000000000000000427C0C462E48FC0D9FCD38176EF9C4000000000000000000427C0C462E48FC0EBA5EDCFED9F9940000000000000000019593BC5BD928FC0EBA5ED
310
CFED9F99400000000000000000
100
AcDbWipeout
 90
        0
 10
-1020.548226834479
 20
1639.982238496067
 30
0.0
 11
10.20556548837101
 21
0.0
 31
0.0
 12
0.0
 22
211.8834911337431
 32
0.0
 13
1.0
 23
1.0
340
0
 70
    15
280
     1
281
    50
282
    50
283
     0
360
0
 71
     2
 91
        5
 14
0.4999999999999944
 24
0.5
 14
0.4999999999999944
 24
-0.5
 14
-0.5000000000000056
 24
-0.5
 14
-0.5000000000000056
 24
0.5
 14
0.4999999999999944
 24
0.5
  0
INSERT
  5
173
330
1F
100
AcDbEntity
  8
2D - Ogólne
  6
Continuous
370
    13
100
AcDbBlockReference
  2
*X6
 10
0.0
 20
0.0
 30
0.0
  0
LINE
  5
174
330
1F
100
AcDbEntity
  8
2D - Ogólne
  6
Continuous
370
    13
100
AcDbLine
 10
-1010.342661346108
 20
1639.982238496067
 30
0.0
 11
-1010.342661346108
 21
1851.86572962981
 31
0.0
  0
LINE
  5
175
330
1F
100
AcDbEntity
  8
2D - Ogólne
  6
Continuous
370
    13
100
AcDbLine
 10
-1010.342661346108
 20
1851.86572962981
 30
0.0
 11
-1020.548226834479
 21
1851.86572962981
 31
0.0
  0
LINE
  5
176
330
1F
100
AcDbEntity
  8
2D - Ogólne
  6
Continuous
370
    13
100
AcDbLine
 10
-1020.548226834479
 20
1851.86572962981
 30
0.0
 11
-1020.548226834479
 21
1639.982238496067
 31
0.0
  0
LINE
  5
177
330
1F
100
AcDbEntity
  8
2D - Ogólne
  6
Continuous
370
    13
100
AcDbLine
 10
-1020.548226834479
 20
1639.982238496067
 30
0.0
 11
-1010.342661346108
 21
1639.982238496067
 31
0.0
  0
WIPEOUT
  5
17F
330
1F
100
AcDbEntity
  8
2D - Ogólne
  6
Wipeout_Contour
 62
   254
 48
8108.816360877309
370
     0
 92
      140
310
8C000000010000008400000006000000050000004A861E263AFD8FC0EBA5EDCFED9F994000000000000000004A861E263AFD8FC0D9FCD38176EF9C4000000000000000001BAAD1926F2790C0D9FCD38176EF9C4000000000000000001BAAD1926F2790C0EBA5EDCFED9F994000000000000000004A861E263AFD8FC0EBA5ED
310
CFED9F99400000000000000000
100
AcDbWipeout
 90
        0
 10
-1033.858958507545
 20
1639.982238496067
 30
0.0
 11
10.20556548837112
 21
0.0
 31
0.0
 12
0.0
 22
211.8834911337431
 32
0.0
 13
1.0
 23
1.0
340
0
 70
    15
280
     1
281
    50
282
    50
283
     0
360
0
 71
     2
 91
        5
 14
0.5
 24
0.5
 14
0.5
 24
-0.5
 14
-0.5
 24
-0.5
 14
-0.5
 24
0.5
 14
0.5
 24
0.5
  0
INSERT
  5
180
330
1F
100
AcDbEntity
  8
2D - Ogólne
  6
Continuous
370
    13
100
AcDbBlockReference
  2
*X7
 10
0.0
 20
0.0
 30
0.0
  0
LINE
  5
181
330
1F
100
AcDbEntity
  8
2D - Ogólne
  6
Continuous
370
    13
100
AcDbLine
 10
-1023.653393019174
 20
1639.982238496067
 30
0.0
 11
-1023.653393019174
 21
1851.86572962981
 31
0.0
  0
LINE
  5
182
330
1F
100
AcDbEntity
  8
2D - Ogólne
  6
Continuous
370
    13
100
AcDbLine
 10
-1023.653393019174
 20
1851.86572962981
 30
0.0
 11
-1033.858958507545
 21
1851.86572962981
 31
0.0
  0
LINE
  5
183
330
1F
100
AcDbEntity
  8
2D - Ogólne
  6
Continuous
370
    13
100
AcDbLine
 10
-1033.858958507545
 20
1851.86572962981
 30
0.0
 11
-1033.858958507545
 21
1639.982238496067
 31
0.0
  0
LINE
  5
184
330
1F
100
AcDbEntity
  8
2D - Ogólne
  6
Continuous
370
    13
100
AcDbLine
 10
-1033.858958507545
 20
1639.982238496067
 30
0.0
 11
-1023.653393019174
 21
1639.982238496067
 31
0.0
  0
WIPEOUT
  5
18C
330
1F
100
AcDbEntity
  8
2D - Ogólne
  6
Wipeout_Contour
 62
   254
 48
7041.053424320657
370
     0
 92
      140
310
8C0000000100000084000000060000000500000019593BC5BD928FC067BDAF4F4CCA9440000000000000000019593BC5BD928FC055149601D519984000000000000000000427C0C462E48FC055149601D519984000000000000000000427C0C462E48FC067BDAF4F4CCA9440000000000000000019593BC5BD928FC067BDAF
310
4F4CCA94400000000000000000
100
AcDbWipeout
 90
        0
 10
-1020.548226834479
 20
1330.574522729812
 30
0.0
 11
10.20556548837101
 21
0.0
 31
0.0
 12
0.0
 22
211.8834911337431
 32
0.0
 13
1.0
 23
1.0
340
0
 70
    15
280
     1
281
    50
282
    50
283
     0
360
0
 71
     2
 91
        5
 14
0.4999999999999944
 24
0.5
 14
0.4999999999999944
 24
-0.5
 14
-0.5000000000000056
 24
-0.5
 14
-0.5000000000000056
 24
0.5
 14
0.4999999999999944
 24
0.5
  0
INSERT
  5
18D
330
1F
100
AcDbEntity
  8
2D - Ogólne
  6
Continuous
370
    13
100
AcDbBlockReference
  2
*X8
 10
0.0
 20
0.0
 30
0.0
  0
LINE
  5
18E
330
1F
100
AcDbEntity
  8
2D - Ogólne
  6
Continuous
370
    13
100
AcDbLine
 10
-1010.342661346108
 20
1330.574522729812
 30
0.0
 11
-1010.342661346108
 21
1542.458013863555
 31
0.0
  0
LINE
  5
18F
330
1F
100
AcDbEntity
  8
2D - Ogólne
  6
Continuous
370
    13
100
AcDbLine
 10
-1010.342661346108
 20
1542.458013863555
 30
0.0
 11
-1020.548226834479
 21
1542.458013863555
 31
0.0
  0
LINE
  5
190
330
1F
100
AcDbEntity
  8
2D - Ogólne
  6
Continuous
370
    13
100
AcDbLine
 10
-1020.548226834479
 20
1542.458013863555
 30
0.0
 11
-1020.548226834479
 21
1330.574522729812
 31
0.0
  0
LINE
  5
191
330
1F
100
AcDbEntity
  8
2D - Ogólne
  6
Continuous
370
    13
100
AcDbLine
 10
-1020.548226834479
 20
1330.574522729812
 30
0.0
 11
-1010.342661346108
 21
1330.574522729812
 31
0.0
  0
WIPEOUT
  5
199
330
1F
100
AcDbEntity
  8
2D - Ogólne
  6
Wipeout_Contour
 62
   254
 48
7071.975336511623
370
     0
 92
      140
310
8C000000010000008400000006000000050000004A861E263AFD8FC067BDAF4F4CCA944000000000000000004A861E263AFD8FC055149601D519984000000000000000001BAAD1926F2790C055149601D519984000000000000000001BAAD1926F2790C067BDAF4F4CCA944000000000000000004A861E263AFD8FC067BDAF
310
4F4CCA94400000000000000000
100
AcDbWipeout
 90
        0
 10
-1033.858958507545
 20
1330.574522729812
 30
0.0
 11
10.20556548837112
 21
0.0
 31
0.0
 12
0.0
 22
211.8834911337431
 32
0.0
 13
1.0
 23
1.0
340
0
 70
    15
280
     1
281
    50
282
    50
283
     0
360
0
 71
     2
 91
        5
 14
0.5
 24
0.5
 14
0.5
 24
-0.5
 14
-0.5
 24
-0.5
 14
-0.5
 24
0.5
 14
0.5
 24
0.5
  0
INSERT
  5
19A
330
1F
100
AcDbEntity
  8
2D - Ogólne
  6
Continuous
370
    13
100
AcDbBlockReference
  2
*X9
 10
0.0
 20
0.0
 30
0.0
  0
LINE
  5
19B
330
1F
100
AcDbEntity
  8
2D - Ogólne
  6
Continuous
370
    13
100
AcDbLine
 10
-1023.653393019174
 20
1330.574522729812
 30
0.0
 11
-1023.653393019174
 21
1542.458013863555
 31
0.0
  0
LINE
  5
19C
330
1F
100
AcDbEntity
  8
2D - Ogólne
  6
Continuous
370
    13
100
AcDbLine
 10
-1023.653393019174
 20
1542.458013863555
 30
0.0
 11
-1033.858958507545
 21
1542.458013863555
 31
0.0
  0
LINE
  5
19D
330
1F
100
AcDbEntity
  8
2D - Ogólne
  6
Continuous
370
    13
100
AcDbLine
 10
-1033.858958507545
 20
1542.458013863555
 30
0.0
 11
-1033.858958507545
 21
1330.574522729812
 31
0.0
  0
LINE
  5
19E
330
1F
100
AcDbEntity
  8
2D - Ogólne
  6
Continuous
370
    13
100
AcDbLine
 10
-1033.858958507545
 20
1330.574522729812
 30
0.0
 11
-1023.653393019174
 21
1330.574522729812
 31
0.0
  0
HATCH
  5
19F
330
1F
100
AcDbEntity
  8
@__WIDOCZNE
  6
Continuous
370
    13
100
AcDbHatch
 10
0.0
 20
0.0
 30
0.0
210
0.0
220
0.0
230
1.0
  2
SOLID
 70
     1
 71
     0
 91
        1
 92
        2
 72
     1
 73
     1
 93
        6
 10
-1033.064430329045
 20
2220.046311805931
 42
0.0
 10
-1023.80837960451
 20
2237.643794759554
 42
0.1185555970126585
 10
-1037.285587424349
 20
2241.668992077801
 42
0.0
 10
-1077.441182837867
 20
2241.707815355225
 42
0.0
 10
-1077.441182837867
 20
2222.246778169809
 42
0.0
 10
-1041.195001681508
 20
2222.246778169809
 42
-0.1429068428622198
 97
        0
 75
     0
 76
     1
 98
        0
  0
HATCH
  5
1A0
330
1F
100
AcDbEntity
  8
@__WIDOCZNE
  6
Continuous
370
    13
100
AcDbHatch
 10
0.0
 20
0.0
 30
0.0
210
0.0
220
0.0
230
1.0
  2
SOLID
 70
     1
 71
     0
 91
        1
 92
        2
 72
     0
 73
     1
 93
        4
 10
-1158.885679506623
 20
2222.246778169809
 10
-1127.026944105552
 20
2222.246778169809
 10
-1127.026944105552
 20
2241.707815355225
 10
-1158.885679506623
 20
2241.707815355225
 97
        0
 75
     0
 76
     1
 98
        0
  0
WIPEOUT
  5
1A7
330
1F
100
AcDbEntity
  8
2D - Ogólne
  6
Wipeout_Contour
 62
   254
 48
9362.307467407189
370
     0
 92
      140
310
8C00000001000000840000000600000005000000751D23DF15878FC031698CCDD4BE9F400000000000000000751D23DF15878FC0F7DD14420C0FA1400000000000000000BA8E91EF8A0790C0F7DD14420C0FA1400000000000000000BA8E91EF8A0790C031698CCDD4BE9F400000000000000000751D23DF15878FC031698C
310
CDD4BE9F400000000000000000
100
AcDbWipeout
 90
        0
 10
-1025.885679506623
 20
2031.707815355225
 30
0.0
 11
16.99999999999989
 21
0.0
 31
0.0
 12
0.0
 22
151.8161263067007
 32
0.0
 13
1.0
 23
1.0
340
0
 70
    15
280
     1
281
    50
282
    50
283
     0
360
0
 71
     2
 91
        5
 14
0.4999999999999967
 24
0.5000000000000008
 14
0.4999999999999967
 24
-0.4999999999999993
 14
-0.5000000000000033
 24
-0.4999999999999993
 14
-0.5000000000000033
 24
0.5000000000000008
 14
0.4999999999999967
 24
0.5000000000000008
  0
INSERT
  5
1A8
330
1F
100
AcDbEntity
  8
2D - Ogólne
  6
Continuous
370
    13
100
AcDbBlockReference
  2
*X10
 10
0.0
 20
0.0
 30
0.0
  0
LINE
  5
1A9
330
1F
100
AcDbEntity
  8
2D - Ogólne
  6
Continuous
370
    13
100
AcDbLine
 10
-1008.885679506623
 20
2031.707815355225
 30
0.0
 11
-1008.885679506623
 21
2183.523941661926
 31
0.0
  0
LINE
  5
1AA
330
1F
100
AcDbEntity
  8
2D - Ogólne
  6
Continuous
370
    13
100
AcDbLine
 10
-1008.885679506623
 20
2183.523941661926
 30
0.0
 11
-1025.885679506623
 21
2183.523941661926
 31
0.0
  0
LINE
  5
1AB
330
1F
100
AcDbEntity
  8
2D - Ogólne
  6
Continuous
370
    13
100
AcDbLine
 10
-1025.885679506623
 20
2183.523941661926
 30
0.0
 11
-1025.885679506623
 21
2031.707815355225
 31
0.0
  0
LINE
  5
1AC
330
1F
100
AcDbEntity
  8
2D - Ogólne
  6
Continuous
370
    13
100
AcDbLine
 10
-1025.885679506623
 20
2031.707815355225
 30
0.0
 11
-1008.885679506623
 21
2031.707815355225
 31
0.0
  0
LINE
  5
1AD
330
1F
100
AcDbEntity
  8
@__WIDOCZNE
  6
Kropki i Kreski
370
    25
100
AcDbLine
 10
-888.8856795067321
 20
350.1556515420397
 30
0.0
 11
-888.8856795067321
 21
2651.707815355225
 31
0.0
  0
LINE
  5
1AE
330
1F
100
AcDbEntity
  8
@__WIDOCZNE
  6
Continuous
370
    13
100
AcDbLine
 10
-1218.885679506623
 20
971.1231257610369
 30
0.0
 11
-1218.885679506623
 21
938.443625761037
 31
0.0
  0
LINE
  5
1AF
330
1F
100
AcDbEntity
  8
@__WIDOCZNE
  6
Continuous
370
    13
100
AcDbLine
 10
-1218.885679506623
 20
989.7833757610371
 30
0.0
 11
-1213.885679506623
 21
971.1231257610369
 31
0.0
  0
LINE
  5
1B0
330
1F
100
AcDbEntity
  8
@__WIDOCZNE
  6
Continuous
370
    13
100
AcDbLine
 10
-1218.885679506623
 20
989.7833757610371
 30
0.0
 11
-1223.885679506623
 21
971.1231257610369
 31
0.0
  0
LINE
  5
1B1
330
1F
100
AcDbEntity
  8
@__WIDOCZNE
  6
Continuous
370
    13
100
AcDbLine
 10
-1213.885679506623
 20
971.1231257610369
 30
0.0
 11
-1223.885679506623
 21
971.1231257610369
 31
0.0
  0
HATCH
  5
1B2
330
1F
100
AcDbEntity
  8
@__WIDOCZNE
  6
Continuous
370
    13
100
AcDbHatch
 10
0.0
 20
0.0
 30
0.0
210
0.0
220
0.0
230
1.0
  2
SOLID
 70
     1
 71
     0
 91
        1
 92
        2
 72
     0
 73
     1
 93
        3
 10
-1218.885679506623
 20
989.7833757610371
 10
-1213.885679506623
 20
971.1231257610369
 10
-1223.885679506623
 20
971.1231257610369
 97
        0
 75
     0
 76
     1
 98
        0
  0
LINE
  5
1B3
330
1F
100
AcDbEntity
  8
@__WIDOCZNE
  6
Continuous
370
    13
100
AcDbLine
 10
-1218.885679506623
 20
919.783375761037
 30
0.0
 11
-1223.885679506623
 21
938.443625761037
 31
0.0
  0
LINE
  5
1B4
330
1F
100
AcDbEntity
  8
@__WIDOCZNE
  6
Continuous
370
    13
100
AcDbLine
 10
-1218.885679506623
 20
919.783375761037
 30
0.0
 11
-1213.885679506623
 21
938.443625761037
 31
0.0
  0
LINE
  5
1B5
330
1F
100
AcDbEntity
  8
@__WIDOCZNE
  6
Continuous
370
    13
100
AcDbLine
 10
-1223.885679506623
 20
938.443625761037
 30
0.0
 11
-1213.885679506623
 21
938.443625761037
 31
0.0
  0
HATCH
  5
1B6
330
1F
100
AcDbEntity
  8
@__WIDOCZNE
  6
Continuous
370
    13
100
AcDbHatch
 10
0.0
 20
0.0
 30
0.0
210
0.0
220
0.0
230
1.0
  2
SOLID
 70
     1
 71
     0
 91
        1
 92
        2
 72
     0
 73
     1
 93
        3
 10
-1218.885679506623
 20
919.783375761037
 10
-1223.885679506623
 20
938.443625761037
 10
-1213.885679506623
 20
938.443625761037
 97
        0
 75
     0
 76
     1
 98
        0
  0
LINE
  5
1B7
330
1F
100
AcDbEntity
  8
@__WIDOCZNE
  6
Continuous
370
    25
100
AcDbLine
 10
-1750.434832153636
 20
631.7913129705823
 30
0.0
 11
-1186.876054506623
 21
631.7913129705823
 31
0.0
  0
LINE
  5
1B8
330
1F
100
AcDbEntity
  8
@__WIDOCZNE
  6
Continuous
370
    25
100
AcDbLine
 10
-1158.885679506623
 20
631.7913129705823
 30
0.0
 11
-1186.876054506623
 21
624.2913129705823
 31
0.0
  0
LINE
  5
1B9
330
1F
100
AcDbEntity
  8
@__WIDOCZNE
  6
Continuous
370
    25
100
AcDbLine
 10
-1158.885679506623
 20
631.7913129705823
 30
0.0
 11
-1186.876054506623
 21
639.2913129705822
 31
0.0
  0
LINE
  5
1BA
330
1F
100
AcDbEntity
  8
@__WIDOCZNE
  6
Continuous
370
    25
100
AcDbLine
 10
-1186.876054506623
 20
624.2913129705823
 30
0.0
 11
-1186.876054506623
 21
639.2913129705822
 31
0.0
  0
HATCH
  5
1BB
330
1F
100
AcDbEntity
  8
@__WIDOCZNE
  6
Continuous
370
    25
100
AcDbHatch
 10
0.0
 20
0.0
 30
0.0
210
0.0
220
0.0
230
1.0
  2
SOLID
 70
     1
 71
     0
 91
        1
 92
        2
 72
     0
 73
     1
 93
        3
 10
-1158.885679506623
 20
631.7913129705823
 10
-1186.876054506623
 20
624.2913129705823
 10
-1186.876054506623
 20
639.2913129705822
 97
        0
 75
     0
 76
     1
 98
        0
  0
LINE
  5
1BC
330
1F
100
AcDbEntity
  8
@__WIDOCZNE
  6
Continuous
 62
   104
370
    25
100
AcDbLine
 10
-1750.434832153636
 20
861.571117610726
 30
0.0
 11
-1053.618915752043
 21
861.5711176107261
 31
0.0
  0
LINE
  5
1BD
330
1F
100
AcDbEntity
  8
@__WIDOCZNE
  6
Continuous
 62
   104
370
    13
100
AcDbLine
 10
-1025.628540752043
 20
861.5711176107261
 30
0.0
 11
-1053.618915752043
 21
854.0711176107262
 31
0.0
  0
LINE
  5
1BE
330
1F
100
AcDbEntity
  8
@__WIDOCZNE
  6
Continuous
 62
   104
370
    13
100
AcDbLine
 10
-1025.628540752043
 20
861.5711176107261
 30
0.0
 11
-1053.618915752043
 21
869.0711176107261
 31
0.0
  0
LINE
  5
1BF
330
1F
100
AcDbEntity
  8
@__WIDOCZNE
  6
Continuous
 62
   104
370
    13
100
AcDbLine
 10
-1053.618915752043
 20
854.0711176107262
 30
0.0
 11
-1053.618915752043
 21
869.0711176107261
 31
0.0
  0
HATCH
  5
1C0
330
1F
100
AcDbEntity
  8
@__WIDOCZNE
  6
Continuous
 62
   104
370
    13
100
AcDbHatch
 10
0.0
 20
0.0
 30
0.0
210
0.0
220
0.0
230
1.0
  2
SOLID
 70
     1
 71
     0
 91
        1
 92
        2
 72
     0
 73
     1
 93
        3
 10
-1025.628540752043
 20
861.5711176107261
 10
-1053.618915752043
 20
854.0711176107262
 10
-1053.618915752043
 20
869.0711176107261
 97
        0
 75
     0
 76
     1
 98
        0
  0
LINE
  5
1C1
330
1F
100
AcDbEntity
  8
@__WIDOCZNE
  6
Continuous
370
    25
100
AcDbLine
 10
-1750.434832153636
 20
1629.72809558155
 30
0.0
 11
-1047.382273542856
 21
1629.72809558155
 31
0.0
  0
LINE
  5
1C2
330
1F
100
AcDbEntity
  8
@__WIDOCZNE
  6
Continuous
370
    13
100
AcDbLine
 10
-1019.391898542856
 20
1629.72809558155
 30
0.0
 11
-1047.382273542856
 21
1622.22809558155
 31
0.0
  0
LINE
  5
1C3
330
1F
100
AcDbEntity
  8
@__WIDOCZNE
  6
Continuous
370
    13
100
AcDbLine
 10
-1019.391898542856
 20
1629.72809558155
 30
0.0
 11
-1047.382273542856
 21
1637.22809558155
 31
0.0
  0
LINE
  5
1C4
330
1F
100
AcDbEntity
  8
@__WIDOCZNE
  6
Continuous
370
    13
100
AcDbLine
 10
-1047.382273542856
 20
1622.22809558155
 30
0.0
 11
-1047.382273542856
 21
1637.22809558155
 31
0.0
  0
HATCH
  5
1C5
330
1F
100
AcDbEntity
  8
@__WIDOCZNE
  6
Continuous
370
    13
100
AcDbHatch
 10
0.0
 20
0.0
 30
0.0
210
0.0
220
0.0
230
1.0
  2
SOLID
 70
     1
 71
     0
 91
        1
 92
        2
 72
     0
 73
     1
 93
        3
 10
-1019.391898542856
 20
1629.72809558155
 10
-1047.382273542856
 20
1622.22809558155
 10
-1047.382273542856
 20
1637.22809558155
 97
        0
 75
     0
 76
     1
 98
        0
  0
LINE
  5
1C6
330
1F
100
AcDbEntity
  8
@__WIDOCZNE
  6
Continuous
370
    25
100
AcDbLine
 10
-1750.434832153636
 20
1581.49102842936
 30
0.0
 11
-1207.432805384732
 21
1581.49102842936
 31
0.0
  0
LINE
  5
1C7
330
1F
100
AcDbEntity
  8
@__WIDOCZNE
  6
Continuous
370
    13
100
AcDbLine
 10
-1179.442430384732
 20
1581.49102842936
 30
0.0
 11
-1207.432805384732
 21
1573.99102842936
 31
0.0
  0
LINE
  5
1C8
330
1F
100
AcDbEntity
  8
@__WIDOCZNE
  6
Continuous
370
    13
100
AcDbLine
 10
-1179.442430384732
 20
1581.49102842936
 30
0.0
 11
-1207.432805384732
 21
1588.99102842936
 31
0.0
  0
LINE
  5
1C9
330
1F
100
AcDbEntity
  8
@__WIDOCZNE
  6
Continuous
370
    13
100
AcDbLine
 10
-1207.432805384732
 20
1573.99102842936
 30
0.0
 11
-1207.432805384732
 21
1588.99102842936
 31
0.0
  0
HATCH
  5
1CA
330
1F
100
AcDbEntity
  8
@__WIDOCZNE
  6
Continuous
370
    13
100
AcDbHatch
 10
0.0
 20
0.0
 30
0.0
210
0.0
220
0.0
230
1.0
  2
SOLID
 70
     1
 71
     0
 91
        1
 92
        2
 72
     0
 73
     1
 93
        3
 10
-1179.442430384732
 20
1581.49102842936
 10
-1207.432805384732
 20
1573.99102842936
 10
-1207.432805384732
 20
1588.99102842936
 97
        0
 75
     0
 76
     1
 98
        0
  0
LINE
  5
1CB
330
1F
100
AcDbEntity
  8
@__WIDOCZNE
  6
Continuous
370
    25
100
AcDbLine
 10
-372.4305632166132
 20
1506.123971494343
 30
0.0
 11
-970.5032716020737
 21
1506.123971494343
 31
0.0
  0
LINE
  5
1CC
330
1F
100
AcDbEntity
  8
@__WIDOCZNE
  6
Continuous
370
    13
100
AcDbLine
 10
-998.4936466020737
 20
1506.123971494343
 30
0.0
 11
-970.5032716020737
 21
1513.623971494343
 31
0.0
  0
LINE
  5
1CD
330
1F
100
AcDbEntity
  8
@__WIDOCZNE
  6
Continuous
370
    13
100
AcDbLine
 10
-998.4936466020737
 20
1506.123971494343
 30
0.0
 11
-970.5032716020737
 21
1498.623971494343
 31
0.0
  0
LINE
  5
1CE
330
1F
100
AcDbEntity
  8
@__WIDOCZNE
  6
Continuous
370
    13
100
AcDbLine
 10
-970.5032716020737
 20
1513.623971494343
 30
0.0
 11
-970.5032716020737
 21
1498.623971494343
 31
0.0
  0
HATCH
  5
1CF
330
1F
100
AcDbEntity
  8
@__WIDOCZNE
  6
Continuous
370
    13
100
AcDbHatch
 10
0.0
 20
0.0
 30
0.0
210
0.0
220
0.0
230
1.0
  2
SOLID
 70
     1
 71
     0
 91
        1
 92
        2
 72
     0
 73
     1
 93
        3
 10
-998.4936466020737
 20
1506.123971494343
 10
-970.5032716020737
 20
1513.623971494343
 10
-970.5032716020737
 20
1498.623971494343
 97
        0
 75
     0
 76
     1
 98
        0
  0
LINE
  5
1D0
330
1F
100
AcDbEntity
  8
@__WIDOCZNE
  6
Przerywana gęsta
370
    13
100
AcDbLine
 10
-1158.885679506623
 20
2611.707815355225
 30
0.0
 11
-1158.885679506623
 21
2556.245828866705
 31
0.0
  0
LINE
  5
1D1
330
1F
100
AcDbEntity
  8
@__WIDOCZNE
  6
Przerywana gęsta
370
    13
100
AcDbLine
 10
-1008.885679506623
 20
2611.707815355225
 30
0.0
 11
-1008.885679506623
 21
2556.245828866705
 31
0.0
  0
LINE
  5
1D2
330
1F
100
AcDbEntity
  8
@__WIDOCZNE
  6
Continuous
370
    13
100
AcDbLine
 10
-1027.545929506623
 20
2611.707815355225
 30
0.0
 11
-1140.225429506623
 21
2611.707815355225
 31
0.0
  0
LINE
  5
1D3
330
1F
100
AcDbEntity
  8
@__WIDOCZNE
  6
Continuous
370
    13
100
AcDbLine
 10
-1008.885679506623
 20
2611.707815355225
 30
0.0
 11
-1027.545929506623
 21
2606.707815355225
 31
0.0
  0
LINE
  5
1D4
330
1F
100
AcDbEntity
  8
@__WIDOCZNE
  6
Continuous
370
    13
100
AcDbLine
 10
-1008.885679506623
 20
2611.707815355225
 30
0.0
 11
-1027.545929506623
 21
2616.707815355225
 31
0.0
  0
LINE
  5
1D5
330
1F
100
AcDbEntity
  8
@__WIDOCZNE
  6
Continuous
370
    13
100
AcDbLine
 10
-1027.545929506623
 20
2606.707815355225
 30
0.0
 11
-1027.545929506623
 21
2616.707815355225
 31
0.0
  0
HATCH
  5
1D6
330
1F
100
AcDbEntity
  8
@__WIDOCZNE
  6
Continuous
370
    13
100
AcDbHatch
 10
0.0
 20
0.0
 30
0.0
210
0.0
220
0.0
230
1.0
  2
SOLID
 70
     1
 71
     0
 91
        1
 92
        2
 72
     0
 73
     1
 93
        3
 10
-1008.885679506623
 20
2611.707815355225
 10
-1027.545929506623
 20
2606.707815355225
 10
-1027.545929506623
 20
2616.707815355225
 97
        0
 75
     0
 76
     1
 98
        0
  0
LINE
  5
1D7
330
1F
100
AcDbEntity
  8
@__WIDOCZNE
  6
Continuous
370
    13
100
AcDbLine
 10
-1158.885679506623
 20
2611.707815355225
 30
0.0
 11
-1140.225429506623
 21
2616.707815355225
 31
0.0
  0
LINE
  5
1D8
330
1F
100
AcDbEntity
  8
@__WIDOCZNE
  6
Continuous
370
    13
100
AcDbLine
 10
-1158.885679506623
 20
2611.707815355225
 30
0.0
 11
-1140.225429506623
 21
2606.707815355225
 31
0.0
  0
LINE
  5
1D9
330
1F
100
AcDbEntity
  8
@__WIDOCZNE
  6
Continuous
370
    13
100
AcDbLine
 10
-1140.225429506623
 20
2616.707815355225
 30
0.0
 11
-1140.225429506623
 21
2606.707815355225
 31
0.0
  0
HATCH
  5
1DA
330
1F
100
AcDbEntity
  8
@__WIDOCZNE
  6
Continuous
370
    13
100
AcDbHatch
 10
0.0
 20
0.0
 30
0.0
210
0.0
220
0.0
230
1.0
  2
SOLID
 70
     1
 71
     0
 91
        1
 92
        2
 72
     0
 73
     1
 93
        3
 10
-1158.885679506623
 20
2611.707815355225
 10
-1140.225429506623
 20
2616.707815355225
 10
-1140.225429506623
 20
2606.707815355225
 97
        0
 75
     0
 76
     1
 98
        0
  0
LINE
  5
1DB
330
1F
100
AcDbEntity
  8
@__WIDOCZNE
  6
Continuous
370
    50
100
AcDbLine
 10
-1316.621624516289
 20
2241.707815355225
 30
0.0
 11
-670.1971619615364
 21
2241.707815355225
 31
0.0
  0
LINE
  5
1DC
330
1F
100
AcDbEntity
  8
@__WIDOCZNE
  6
Continuous
370
    50
100
AcDbLine
 10
-1316.621624516289
 20
2341.707815355225
 30
0.0
 11
-670.1971619615364
 21
2341.707815355225
 31
0.0
  0
LINE
  5
1DD
330
1F
100
AcDbEntity
  8
@__WIDOCZNE
  6
Continuous
 62
   104
370
    25
100
AcDbLine
 10
-1750.434832153636
 20
2206.364889459711
 30
0.0
 11
-1053.618915752043
 21
2206.364889459711
 31
0.0
  0
LINE
  5
1DE
330
1F
100
AcDbEntity
  8
@__WIDOCZNE
  6
Continuous
 62
   104
370
    13
100
AcDbLine
 10
-1025.628540752043
 20
2206.364889459711
 30
0.0
 11
-1053.618915752043
 21
2198.864889459712
 31
0.0
  0
LINE
  5
1DF
330
1F
100
AcDbEntity
  8
@__WIDOCZNE
  6
Continuous
 62
   104
370
    13
100
AcDbLine
 10
-1025.628540752043
 20
2206.364889459711
 30
0.0
 11
-1053.618915752043
 21
2213.864889459711
 31
0.0
  0
LINE
  5
1E0
330
1F
100
AcDbEntity
  8
@__WIDOCZNE
  6
Continuous
 62
   104
370
    13
100
AcDbLine
 10
-1053.618915752043
 20
2198.864889459712
 30
0.0
 11
-1053.618915752043
 21
2213.864889459711
 31
0.0
  0
HATCH
  5
1E1
330
1F
100
AcDbEntity
  8
@__WIDOCZNE
  6
Continuous
 62
   104
370
    13
100
AcDbHatch
 10
0.0
 20
0.0
 30
0.0
210
0.0
220
0.0
230
1.0
  2
SOLID
 70
     1
 71
     0
 91
        1
 92
        2
 72
     0
 73
     1
 93
        3
 10
-1025.628540752043
 20
2206.364889459711
 10
-1053.618915752043
 20
2198.864889459712
 10
-1053.618915752043
 20
2213.864889459711
 97
        0
 75
     0
 76
     1
 98
        0
  0
LINE
  5
1E2
330
1F
100
AcDbEntity
  8
@__WIDOCZNE
  6
Continuous
370
    25
100
AcDbLine
 10
-1750.434832153636
 20
2261.707815355225
 30
0.0
 11
-1344.611999516289
 21
2261.707815355225
 31
0.0
  0
LINE
  5
1E3
330
1F
100
AcDbEntity
  8
@__WIDOCZNE
  6
Continuous
370
    13
100
AcDbLine
 10
-1316.621624516289
 20
2261.707815355225
 30
0.0
 11
-1344.611999516289
 21
2254.207815355225
 31
0.0
  0
LINE
  5
1E4
330
1F
100
AcDbEntity
  8
@__WIDOCZNE
  6
Continuous
370
    13
100
AcDbLine
 10
-1316.621624516289
 20
2261.707815355225
 30
0.0
 11
-1344.611999516289
 21
2269.207815355225
 31
0.0
  0
LINE
  5
1E5
330
1F
100
AcDbEntity
  8
@__WIDOCZNE
  6
Continuous
370
    13
100
AcDbLine
 10
-1344.611999516289
 20
2254.207815355225
 30
0.0
 11
-1344.611999516289
 21
2269.207815355225
 31
0.0
  0
HATCH
  5
1E6
330
1F
100
AcDbEntity
  8
@__WIDOCZNE
  6
Continuous
370
    13
100
AcDbHatch
 10
0.0
 20
0.0
 30
0.0
210
0.0
220
0.0
230
1.0
  2
SOLID
 70
     1
 71
     0
 91
        1
 92
        2
 72
     0
 73
     1
 93
        3
 10
-1316.621624516289
 20
2261.707815355225
 10
-1344.611999516289
 20
2254.207815355225
 10
-1344.611999516289
 20
2269.207815355225
 97
        0
 75
     0
 76
     1
 98
        0
  0
LINE
  5
1E7
330
1F
100
AcDbEntity
  8
@__WIDOCZNE
  6
Continuous
370
    25
100
AcDbLine
 10
-1750.434832153636
 20
2125.928243886033
 30
0.0
 11
-1185.32857112805
 21
2125.928243886033
 31
0.0
  0
LINE
  5
1E8
330
1F
100
AcDbEntity
  8
@__WIDOCZNE
  6
Continuous
370
    13
100
AcDbLine
 10
-1157.33819612805
 20
2125.928243886033
 30
0.0
 11
-1185.32857112805
 21
2118.428243886033
 31
0.0
  0
LINE
  5
1E9
330
1F
100
AcDbEntity
  8
@__WIDOCZNE
  6
Continuous
370
    13
100
AcDbLine
 10
-1157.33819612805
 20
2125.928243886033
 30
0.0
 11
-1185.32857112805
 21
2133.428243886033
 31
0.0
  0
LINE
  5
1EA
330
1F
100
AcDbEntity
  8
@__WIDOCZNE
  6
Continuous
370
    13
100
AcDbLine
 10
-1185.32857112805
 20
2118.428243886033
 30
0.0
 11
-1185.32857112805
 21
2133.428243886033
 31
0.0
  0
HATCH
  5
1EB
330
1F
100
AcDbEntity
  8
@__WIDOCZNE
  6
Continuous
370
    13
100
AcDbHatch
 10
0.0
 20
0.0
 30
0.0
210
0.0
220
0.0
230
1.0
  2
SOLID
 70
     1
 71
     0
 91
        1
 92
        2
 72
     0
 73
     1
 93
        3
 10
-1157.33819612805
 20
2125.928243886033
 10
-1185.32857112805
 20
2118.428243886033
 10
-1185.32857112805
 20
2133.428243886033
 97
        0
 75
     0
 76
     1
 98
        0
  0
LINE
  5
1EC
330
1F
100
AcDbEntity
  8
@__WIDOCZNE
  6
Continuous
370
    25
100
AcDbLine
 10
-1750.434832153636
 20
691.7913129705823
 30
0.0
 11
-759.8019569867763
 21
691.7913129705823
 31
0.0
  0
LINE
  5
1ED
330
1F
100
AcDbEntity
  8
@__WIDOCZNE
  6
Continuous
370
    25
100
AcDbLine
 10
-731.8115819867763
 20
691.7913129705823
 30
0.0
 11
-759.8019569867763
 21
684.2913129705825
 31
0.0
  0
LINE
  5
1EE
330
1F
100
AcDbEntity
  8
@__WIDOCZNE
  6
Continuous
370
    25
100
AcDbLine
 10
-731.8115819867763
 20
691.7913129705823
 30
0.0
 11
-759.8019569867763
 21
699.2913129705823
 31
0.0
  0
LINE
  5
1EF
330
1F
100
AcDbEntity
  8
@__WIDOCZNE
  6
Continuous
370
    25
100
AcDbLine
 10
-759.8019569867763
 20
684.2913129705825
 30
0.0
 11
-759.8019569867763
 21
699.2913129705823
 31
0.0
  0
HATCH
  5
1F0
330
1F
100
AcDbEntity
  8
@__WIDOCZNE
  6
Continuous
370
    25
100
AcDbHatch
 10
0.0
 20
0.0
 30
0.0
210
0.0
220
0.0
230
1.0
  2
SOLID
 70
     1
 71
     0
 91
        1
 92
        2
 72
     0
 73
     1
 93
        3
 10
-731.8115819867763
 20
691.7913129705823
 10
-759.8019569867763
 20
684.2913129705825
 10
-759.8019569867763
 20
699.2913129705823
 97
        0
 75
     0
 76
     1
 98
        0
  0
LINE
  5
1F1
330
1F
100
AcDbEntity
  8
@__WIDOCZNE
  6
Continuous
370
    25
100
AcDbLine
 10
-1750.434832153636
 20
571.7913129705822
 30
0.0
 11
-1036.876054506623
 21
571.7913129705822
 31
0.0
  0
LINE
  5
1F2
330
1F
100
AcDbEntity
  8
@__WIDOCZNE
  6
Continuous
370
    25
100
AcDbLine
 10
-1008.885679506623
 20
571.7913129705822
 30
0.0
 11
-1036.876054506623
 21
564.2913129705823
 31
0.0
  0
LINE
  5
1F3
330
1F
100
AcDbEntity
  8
@__WIDOCZNE
  6
Continuous
370
    25
100
AcDbLine
 10
-1008.885679506623
 20
571.7913129705822
 30
0.0
 11
-1036.876054506623
 21
579.2913129705822
 31
0.0
  0
LINE
  5
1F4
330
1F
100
AcDbEntity
  8
@__WIDOCZNE
  6
Continuous
370
    25
100
AcDbLine
 10
-1036.876054506623
 20
564.2913129705823
 30
0.0
 11
-1036.876054506623
 21
579.2913129705822
 31
0.0
  0
HATCH
  5
1F5
330
1F
100
AcDbEntity
  8
@__WIDOCZNE
  6
Continuous
370
    25
100
AcDbHatch
 10
0.0
 20
0.0
 30
0.0
210
0.0
220
0.0
230
1.0
  2
SOLID
 70
     1
 71
     0
 91
        1
 92
        2
 72
     0
 73
     1
 93
        3
 10
-1008.885679506623
 20
571.7913129705822
 10
-1036.876054506623
 20
564.2913129705823
 10
-1036.876054506623
 20
579.2913129705822
 97
        0
 75
     0
 76
     1
 98
        0
  0
LINE
  5
1F6
330
1F
100
AcDbEntity
  8
@__WIDOCZNE
  6
Continuous
 62
   104
370
    25
100
AcDbLine
 10
-1750.434832153636
 20
1741.86572962981
 30
0.0
 11
-1061.349531366367
 21
1741.86572962981
 31
0.0
  0
LINE
  5
1F7
330
1F
100
AcDbEntity
  8
@__WIDOCZNE
  6
Continuous
 62
   104
370
    13
100
AcDbLine
 10
-1033.359156366367
 20
1741.86572962981
 30
0.0
 11
-1061.349531366367
 21
1734.36572962981
 31
0.0
  0
LINE
  5
1F8
330
1F
100
AcDbEntity
  8
@__WIDOCZNE
  6
Continuous
 62
   104
370
    13
100
AcDbLine
 10
-1033.359156366367
 20
1741.86572962981
 30
0.0
 11
-1061.349531366367
 21
1749.36572962981
 31
0.0
  0
LINE
  5
1F9
330
1F
100
AcDbEntity
  8
@__WIDOCZNE
  6
Continuous
 62
   104
370
    13
100
AcDbLine
 10
-1061.349531366367
 20
1734.36572962981
 30
0.0
 11
-1061.349531366367
 21
1749.36572962981
 31
0.0
  0
HATCH
  5
1FA
330
1F
100
AcDbEntity
  8
@__WIDOCZNE
  6
Continuous
 62
   104
370
    13
100
AcDbHatch
 10
0.0
 20
0.0
 30
0.0
210
0.0
220
0.0
230
1.0
  2
SOLID
 70
     1
 71
     0
 91
        1
 92
        2
 72
     0
 73
     1
 93
        3
 10
-1033.359156366367
 20
1741.86572962981
 10
-1061.349531366367
 20
1734.36572962981
 10
-1061.349531366367
 20
1749.36572962981
 97
        0
 75
     0
 76
     1
 98
        0
  0
LINE
  5
1FB
330
1F
100
AcDbEntity
  8
@__WIDOCZNE
  6
Continuous
 62
   104
370
    25
100
AcDbLine
 10
-1750.434832153636
 20
1040.816336180253
 30
0.0
 11
-1053.618915752043
 21
1040.816336180253
 31
0.0
  0
LINE
  5
1FC
330
1F
100
AcDbEntity
  8
@__WIDOCZNE
  6
Continuous
 62
   104
370
    13
100
AcDbLine
 10
-1025.628540752043
 20
1040.816336180253
 30
0.0
 11
-1053.618915752043
 21
1033.316336180253
 31
0.0
  0
LINE
  5
1FD
330
1F
100
AcDbEntity
  8
@__WIDOCZNE
  6
Continuous
 62
   104
370
    13
100
AcDbLine
 10
-1025.628540752043
 20
1040.816336180253
 30
0.0
 11
-1053.618915752043
 21
1048.316336180253
 31
0.0
  0
LINE
  5
1FE
330
1F
100
AcDbEntity
  8
@__WIDOCZNE
  6
Continuous
 62
   104
370
    13
100
AcDbLine
 10
-1053.618915752043
 20
1033.316336180253
 30
0.0
 11
-1053.618915752043
 21
1048.316336180253
 31
0.0
  0
HATCH
  5
1FF
330
1F
100
AcDbEntity
  8
@__WIDOCZNE
  6
Continuous
 62
   104
370
    13
100
AcDbHatch
 10
0.0
 20
0.0
 30
0.0
210
0.0
220
0.0
230
1.0
  2
SOLID
 70
     1
 71
     0
 91
        1
 92
        2
 72
     0
 73
     1
 93
        3
 10
-1025.628540752043
 20
1040.816336180253
 10
-1053.618915752043
 20
1033.316336180253
 10
-1053.618915752043
 20
1048.316336180253
 97
        0
 75
     0
 76
     1
 98
        0
  0
LINE
  5
200
330
1F
100
AcDbEntity
  8
@__WIDOCZNE
  6
Continuous
370
    25
100
AcDbLine
 10
-1750.434832153636
 20
1506.123971494343
 30
0.0
 11
-1069.724244437895
 21
1506.123971494343
 31
0.0
  0
LINE
  5
201
330
1F
100
AcDbEntity
  8
@__WIDOCZNE
  6
Continuous
370
    13
100
AcDbLine
 10
-1041.733869437895
 20
1506.123971494343
 30
0.0
 11
-1069.724244437895
 21
1498.623971494343
 31
0.0
  0
LINE
  5
202
330
1F
100
AcDbEntity
  8
@__WIDOCZNE
  6
Continuous
370
    13
100
AcDbLine
 10
-1041.733869437895
 20
1506.123971494343
 30
0.0
 11
-1069.724244437895
 21
1513.623971494343
 31
0.0
  0
LINE
  5
203
330
1F
100
AcDbEntity
  8
@__WIDOCZNE
  6
Continuous
370
    13
100
AcDbLine
 10
-1069.724244437895
 20
1498.623971494343
 30
0.0
 11
-1069.724244437895
 21
1513.623971494343
 31
0.0
  0
HATCH
  5
204
330
1F
100
AcDbEntity
  8
@__WIDOCZNE
  6
Continuous
370
    13
100
AcDbHatch
 10
0.0
 20
0.0
 30
0.0
210
0.0
220
0.0
230
1.0
  2
SOLID
 70
     1
 71
     0
 91
        1
 92
        2
 72
     0
 73
     1
 93
        3
 10
-1041.733869437895
 20
1506.123971494343
 10
-1069.724244437895
 20
1498.623971494343
 10
-1069.724244437895
 20
1513.623971494343
 97
        0
 75
     0
 76
     1
 98
        0
  0
LINE
  5
205
330
1F
100
AcDbEntity
  8
@__WIDOCZNE
  6
Continuous
370
    25
100
AcDbLine
 10
-1750.434832153636
 20
771.7913129705823
 30
0.0
 11
-1186.876054506623
 21
771.7913129705823
 31
0.0
  0
LINE
  5
206
330
1F
100
AcDbEntity
  8
@__WIDOCZNE
  6
Continuous
370
    25
100
AcDbLine
 10
-1158.885679506623
 20
771.7913129705823
 30
0.0
 11
-1186.876054506623
 21
764.2913129705823
 31
0.0
  0
LINE
  5
207
330
1F
100
AcDbEntity
  8
@__WIDOCZNE
  6
Continuous
370
    25
100
AcDbLine
 10
-1158.885679506623
 20
771.7913129705823
 30
0.0
 11
-1186.876054506623
 21
779.2913129705823
 31
0.0
  0
LINE
  5
208
330
1F
100
AcDbEntity
  8
@__WIDOCZNE
  6
Continuous
370
    25
100
AcDbLine
 10
-1186.876054506623
 20
764.2913129705823
 30
0.0
 11
-1186.876054506623
 21
779.2913129705823
 31
0.0
  0
HATCH
  5
209
330
1F
100
AcDbEntity
  8
@__WIDOCZNE
  6
Continuous
370
    25
100
AcDbHatch
 10
0.0
 20
0.0
 30
0.0
210
0.0
220
0.0
230
1.0
  2
SOLID
 70
     1
 71
     0
 91
        1
 92
        2
 72
     0
 73
     1
 93
        3
 10
-1158.885679506623
 20
771.7913129705823
 10
-1186.876054506623
 20
764.2913129705823
 10
-1186.876054506623
 20
779.2913129705823
 97
        0
 75
     0
 76
     1
 98
        0
  0
LINE
  5
20A
330
1F
100
AcDbEntity
  8
@__WIDOCZNE
  6
Przerywana gęsta
370
    50
100
AcDbLine
 10
-758.8856795068414
 20
2551.707815355225
 30
0.0
 11
-1168.885679506623
 21
2551.707815355225
 31
0.0
  0
LINE
  5
20B
330
1F
100
AcDbEntity
  8
@__WIDOCZNE
  6
Przerywana gęsta
370
    50
100
AcDbLine
 10
-758.8856795068414
 20
2031.707815355225
 30
0.0
 11
-1168.885679506623
 21
2031.707815355225
 31
0.0
  0
LINE
  5
20C
330
1F
100
AcDbEntity
  8
@__WIDOCZNE
  6
Przerywana gęsta
370
    50
100
AcDbLine
 10
-758.8856795068414
 20
1851.86572962981
 30
0.0
 11
-1043.359156366367
 21
1851.86572962981
 31
0.0
  0
LINE
  5
20D
330
1F
100
AcDbEntity
  8
@__WIDOCZNE
  6
Przerywana gęsta
370
    50
100
AcDbLine
 10
-758.8856795068414
 20
1140.155657522074
 30
0.0
 11
-1168.885679506623
 21
1140.155657522075
 31
0.0
  0
LINE
  5
20E
330
1F
100
AcDbEntity
  8
@__WIDOCZNE
  6
Przerywana gęsta
370
    50
100
AcDbLine
 10
-758.8856795068415
 20
450.1556515420396
 30
0.0
 11
-1168.885679506623
 21
450.1556515420401
 31
0.0
  0
LINE
  5
20F
330
1F
100
AcDbEntity
  8
@__WIDOCZNE
  6
Przerywana gęsta
370
    50
100
AcDbLine
 10
-268.8856795068414
 20
589.5823017086249
 30
0.0
 11
-268.8856795068407
 21
999.5823017084068
 31
0.0
  0
LINE
  5
210
330
1F
100
AcDbEntity
  8
@__WIDOCZNE
  6
Przerywana gęsta
370
    50
100
AcDbLine
 10
-758.8856795068414
 20
1330.574522729812
 30
0.0
 11
-1043.359156366367
 21
1330.574522729812
 31
0.0
  0
LWPOLYLINE
  5
211
330
1F
100
AcDbEntity
  8
@__WIDOCZNE
  6
Continuous
370
    25
100
AcDbPolyline
 90
        2
 70
   128
 43
0.0
 10
-268.8856795068414
 20
720.1556515420399
 10
-1008.885679506623
 20
720.1556515420402
  0
MTEXT
  5
212
330
1F
100
AcDbEntity
  8
@__WIDOCZNE
  6
Continuous
370
    13
100
AcDbMText
 10
-1081.009331624585
 20
2618.225120608229
 30
0.0
 40
20.0
 41
0.0
 71
     8
 72
     1
  1
{\U+22655cm}
  7
GENERATED_STYLE_3
 73
     1
 44
1.0
  0
ENDSEC
  0
SECTION
  2
OBJECTS
  0
DICTIONARY
  5
C
330
0
100
AcDbDictionary
281
     1
  3
ACAD_GROUP
350
D
  3
ACAD_LAYOUT
350
1A
  3
ACAD_MLEADERSTYLE
350
21B
  3
ACAD_MLINESTYLE
350
17
  3
ACAD_PLOTSETTINGS
350
19
  3
ACAD_PLOTSTYLENAME
350
E
  3
ACAD_SCALELIST
350
3B
  3
ACAD_TABLESTYLE
350
21A
  3
ACAD_VISUALSTYLE
350
2A
  3
AcDbVariableDictionary
350
218
  3
WATERMARKS
350
216
  0
DICTIONARY
  5
D
102
{ACAD_REACTORS
330
C
102
}
330
C
100
AcDbDictionary
281
     1
  0
DICTIONARY
  5
1A
102
{ACAD_REACTORS
330
C
102
}
330
C
100
AcDbDictionary
281
     1
  3
Layout1
350
1E
  3
Layout2
350
26
  3
Model
350
22
  0
DICTIONARY
  5
21B
102
{ACAD_REACTORS
330
C
102
}
330
C
100
AcDbDictionary
281
     1
  0
DICTIONARY
  5
17
102
{ACAD_REACTORS
330
C
102
}
330
C
100
AcDbDictionary
281
     1
  3
Standard
350
18
  0
DICTIONARY
  5
19
102
{ACAD_REACTORS
330
C
102
}
330
C
100
AcDbDictionary
281
     1
  0
ACDBDICTIONARYWDFLT
  5
E
102
{ACAD_REACTORS
330
C
102
}
330
C
100
AcDbDictionary
281
     1
  3
Normal
350
F
100
AcDbDictionaryWithDefault
340
F
  0
DICTIONARY
  5
3B
102
{ACAD_REACTORS
330
C
102
}
330
C
100
AcDbDictionary
281
     1
  3
A0
350
3C
  3
A1
350
3D
  3
A2
350
3E
  3
A3
350
3F
  3
A4
350
40
  3
A5
350
41
  3
A6
350
42
  3
A7
350
43
  3
A8
350
44
  3
A9
350
45
  3
B0
350
46
  3
B1
350
47
  3
B2
350
48
  3
B3
350
49
  3
B4
350
4A
  3
B5
350
4B
  3
B6
350
4C
  3
B7
350
4D
  3
B8
350
4E
  3
B9
350
4F
  3
C0
350
50
  3
C1
350
51
  3
C2
350
52
  3
C3
350
53
  3
C4
350
54
  3
C5
350
55
  3
C6
350
56
  3
C7
350
57
  3
C8
350
58
  3
C9
350
59
  3
D0
350
5A
  3
D1
350
5B
  3
D2
350
5C
  0
DICTIONARY
  5
21A
102
{ACAD_REACTORS
330
C
102
}
330
C
100
AcDbDictionary
281
     1
  0
DICTIONARY
  5
2A
102
{ACAD_REACTORS
330
C
102
}
330
C
100
AcDbDictionary
281
     1
  3
2dWireframe
350
2F
  3
3D Hidden
350
31
  3
3dWireframe
350
30
  3
Basic
350
32
  3
Brighten
350
36
  3
ColorChange
350
3A
  3
Conceptual
350
34
  3
Dim
350
35
  3
Facepattern
350
39
  3
Flat
350
2B
  3
FlatWithEdges
350
2C
  3
Gouraud
350
2D
  3
GouraudWithEdges
350
2E
  3
Linepattern
350
38
  3
Realistic
350
33
  3
Thicken
350
37
  0
DICTIONARY
  5
218
102
{ACAD_REACTORS
330
C
102
}
330
C
100
AcDbDictionary
281
     1
  3
CANNOSCALE
350
219
  0
DICTIONARY
  5
216
102
{ACAD_REACTORS
330
C
102
}
330
C
100
AcDbDictionary
281
     1
  3
AC_WATERMARK
350
217
  0
LAYOUT
  5
1E
102
{ACAD_REACTORS
330
1A
102
}
330
1A
100
AcDbPlotSettings
  1

  2
none_device
  4

  6

 40
0.0
 41
0.0
 42
0.0
 43
0.0
 44
0.0
 45
0.0
 46
0.0
 47
0.0
 48
0.0
 49
0.0
140
0.0
141
0.0
142
1.0
143
1.0
 70
   688
 72
     0
 73
     0
 74
     5
  7

 75
    16
147
1.0
148
0.0
149
0.0
100
AcDbLayout
  1
Layout1
 70
     1
 71
     1
 10
0.0
 20
0.0
 11
12.0
 21
9.0
 12
0.0
 22
0.0
 32
0.0
 14
1.000000000000000E+20
 24
1.000000000000000E+20
 34
1.000000000000000E+20
 15
-1.000000000000000E+20
 25
-1.000000000000000E+20
 35
-1.000000000000000E+20
146
0.0
 13
0.0
 23
0.0
 33
0.0
 16
1.0
 26
0.0
 36
0.0
 17
0.0
 27
1.0
 37
0.0
 76
     0
330
1B
  0
LAYOUT
  5
26
102
{ACAD_REACTORS
330
1A
102
}
330
1A
100
AcDbPlotSettings
  1

  2
none_device
  4

  6

 40
0.0
 41
0.0
 42
0.0
 43
0.0
 44
0.0
 45
0.0
 46
0.0
 47
0.0
 48
0.0
 49
0.0
140
0.0
141
0.0
142
1.0
143
1.0
 70
   688
 72
     0
 73
     0
 74
     5
  7

 75
    16
147
1.0
148
0.0
149
0.0
100
AcDbLayout
  1
Layout2
 70
     1
 71
     2
 10
0.0
 20
0.0
 11
0.0
 21
0.0
 12
0.0
 22
0.0
 32
0.0
 14
0.0
 24
0.0
 34
0.0
 15
0.0
 25
0.0
 35
0.0
146
0.0
 13
0.0
 23
0.0
 33
0.0
 16
1.0
 26
0.0
 36
0.0
 17
0.0
 27
1.0
 37
0.0
 76
     0
330
23
  0
LAYOUT
  5
22
102
{ACAD_REACTORS
330
1A
102
}
330
1A
100
AcDbPlotSettings
  1

  2
none_device
  4

  6

 40
0.0
 41
0.0
 42
0.0
 43
0.0
 44
0.0
 45
0.0
 46
0.0
 47
0.0
 48
0.0
 49
0.0
140
0.0
141
0.0
142
1.0
143
1.0
 70
  1712
 72
     0
 73
     0
 74
     0
  7

 75
     0
147
1.0
148
0.0
149
0.0
100
AcDbLayout
  1
Model
 70
     1
 71
     0
 10
0.0
 20
0.0
 11
12.0
 21
9.0
 12
0.0
 22
0.0
 32
0.0
 14
1.000000000000000E+20
 24
1.000000000000000E+20
 34
1.000000000000000E+20
 15
-1.000000000000000E+20
 25
-1.000000000000000E+20
 35
-1.000000000000000E+20
146
0.0
 13
0.0
 23
0.0
 33
0.0
 16
1.0
 26
0.0
 36
0.0
 17
0.0
 27
1.0
 37
0.0
 76
     0
330
1F
331
29
  0
MLINESTYLE
  5
18
102
{ACAD_REACTORS
330
17
102
}
330
17
100
AcDbMlineStyle
  2
Standard
 70
     0
  3

 62
   256
 51
90.0
 52
90.0
 71
     2
 49
0.5
 62
   256
  6
BYLAYER
 49
-0.5
 62
   256
  6
BYLAYER
  0
ACDBPLACEHOLDER
  5
F
102
{ACAD_REACTORS
330
E
102
}
330
E
  0
SCALE
  5
3C
102
{ACAD_REACTORS
330
3B
102
}
330
3B
100
AcDbScale
 70
     0
300
1:1
140
1.0
141
1.0
290
     1
  0
SCALE
  5
3D
102
{ACAD_REACTORS
330
3B
102
}
330
3B
100
AcDbScale
 70
     0
300
1:2
140
1.0
141
2.0
290
     0
  0
SCALE
  5
3E
102
{ACAD_REACTORS
330
3B
102
}
330
3B
100
AcDbScale
 70
     0
300
1:4
140
1.0
141
4.0
290
     0
  0
SCALE
  5
3F
102
{ACAD_REACTORS
330
3B
102
}
330
3B
100
AcDbScale
 70
     0
300
1:5
140
1.0
141
5.0
290
     0
  0
SCALE
  5
40
102
{ACAD_REACTORS
330
3B
102
}
330
3B
100
AcDbScale
 70
     0
300
1:8
140
1.0
141
8.0
290
     0
  0
SCALE
  5
41
102
{ACAD_REACTORS
330
3B
102
}
330
3B
100
AcDbScale
 70
     0
300
1:10
140
1.0
141
10.0
290
     0
  0
SCALE
  5
42
102
{ACAD_REACTORS
330
3B
102
}
330
3B
100
AcDbScale
 70
     0
300
1:16
140
1.0
141
16.0
290
     0
  0
SCALE
  5
43
102
{ACAD_REACTORS
330
3B
102
}
330
3B
100
AcDbScale
 70
     0
300
1:20
140
1.0
141
20.0
290
     0
  0
SCALE
  5
44
102
{ACAD_REACTORS
330
3B
102
}
330
3B
100
AcDbScale
 70
     0
300
1:30
140
1.0
141
30.0
290
     0
  0
SCALE
  5
45
102
{ACAD_REACTORS
330
3B
102
}
330
3B
100
AcDbScale
 70
     0
300
1:40
140
1.0
141
40.0
290
     0
  0
SCALE
  5
46
102
{ACAD_REACTORS
330
3B
102
}
330
3B
100
AcDbScale
 70
     0
300
1:50
140
1.0
141
50.0
290
     0
  0
SCALE
  5
47
102
{ACAD_REACTORS
330
3B
102
}
330
3B
100
AcDbScale
 70
     0
300
1:100
140
1.0
141
100.0
290
     0
  0
SCALE
  5
48
102
{ACAD_REACTORS
330
3B
102
}
330
3B
100
AcDbScale
 70
     0
300
2:1
140
2.0
141
1.0
290
     0
  0
SCALE
  5
49
102
{ACAD_REACTORS
330
3B
102
}
330
3B
100
AcDbScale
 70
     0
300
4:1
140
4.0
141
1.0
290
     0
  0
SCALE
  5
4A
102
{ACAD_REACTORS
330
3B
102
}
330
3B
100
AcDbScale
 70
     0
300
8:1
140
8.0
141
1.0
290
     0
  0
SCALE
  5
4B
102
{ACAD_REACTORS
330
3B
102
}
330
3B
100
AcDbScale
 70
     0
300
10:1
140
10.0
141
1.0
290
     0
  0
SCALE
  5
4C
102
{ACAD_REACTORS
330
3B
102
}
330
3B
100
AcDbScale
 70
     0
300
100:1
140
100.0
141
1.0
290
     0
  0
SCALE
  5
4D
102
{ACAD_REACTORS
330
3B
102
}
330
3B
100
AcDbScale
 70
     0
300
1/128" = 1'-0"
140
0.0078125
141
12.0
290
     0
  0
SCALE
  5
4E
102
{ACAD_REACTORS
330
3B
102
}
330
3B
100
AcDbScale
 70
     0
300
1/64" = 1'-0"
140
0.015625
141
12.0
290
     0
  0
SCALE
  5
4F
102
{ACAD_REACTORS
330
3B
102
}
330
3B
100
AcDbScale
 70
     0
300
1/32" = 1'-0"
140
0.03125
141
12.0
290
     0
  0
SCALE
  5
50
102
{ACAD_REACTORS
330
3B
102
}
330
3B
100
AcDbScale
 70
     0
300
1/16" = 1'-0"
140
0.0625
141
12.0
290
     0
  0
SCALE
  5
51
102
{ACAD_REACTORS
330
3B
102
}
330
3B
100
AcDbScale
 70
     0
300
3/32" = 1'-0"
140
0.09375
141
12.0
290
     0
  0
SCALE
  5
52
102
{ACAD_REACTORS
330
3B
102
}
330
3B
100
AcDbScale
 70
     0
300
1/8" = 1'-0"
140
0.125
141
12.0
290
     0
  0
SCALE
  5
53
102
{ACAD_REACTORS
330
3B
102
}
330
3B
100
AcDbScale
 70
     0
300
3/16" = 1'-0"
140
0.1875
141
12.0
290
     0
  0
SCALE
  5
54
102
{ACAD_REACTORS
330
3B
102
}
330
3B
100
AcDbScale
 70
     0
300
1/4" = 1'-0"
140
0.25
141
12.0
290
     0
  0
SCALE
  5
55
102
{ACAD_REACTORS
330
3B
102
}
330
3B
100
AcDbScale
 70
     0
300
3/8" = 1'-0"
140
0.375
141
12.0
290
     0
  0
SCALE
  5
56
102
{ACAD_REACTORS
330
3B
102
}
330
3B
100
AcDbScale
 70
     0
300
1/2" = 1'-0"
140
0.5
141
12.0
290
     0
  0
SCALE
  5
57
102
{ACAD_REACTORS
330
3B
102
}
330
3B
100
AcDbScale
 70
     0
300
3/4" = 1'-0"
140
0.75
141
12.0
290
     0
  0
SCALE
  5
58
102
{ACAD_REACTORS
330
3B
102
}
330
3B
100
AcDbScale
 70
     0
300
1" = 1'-0"
140
1.0
141
12.0
290
     0
  0
SCALE
  5
59
102
{ACAD_REACTORS
330
3B
102
}
330
3B
100
AcDbScale
 70
     0
300
1-1/2" = 1'-0"
140
1.5
141
12.0
290
     0
  0
SCALE
  5
5A
102
{ACAD_REACTORS
330
3B
102
}
330
3B
100
AcDbScale
 70
     0
300
3" = 1'-0"
140
3.0
141
12.0
290
     0
  0
SCALE
  5
5B
102
{ACAD_REACTORS
330
3B
102
}
330
3B
100
AcDbScale
 70
     0
300
6" = 1'-0"
140
6.0
141
12.0
290
     0
  0
SCALE
  5
5C
102
{ACAD_REACTORS
330
3B
102
}
330
3B
100
AcDbScale
 70
     0
300
1'-0" = 1'-0"
140
12.0
141
12.0
290
     0
  0
VISUALSTYLE
  5
2F
102
{ACAD_REACTORS
330
2A
102
}
330
2A
100
AcDbVisualStyle
  2
2dWireframe
 70
     4
 71
     0
 72
     2
 73
     0
 90
        0
 40
-0.6
 41
-30.0
 62
     5
 63
     7
 74
     1
 91
        4
 64
     7
 65
   257
 75
     1
175
     1
 42
1.0
 92
        0
 66
   257
 43
1.0
 76
     1
 77
     6
 78
     2
 67
     7
 79
     5
170
     0
171
     0
290
     0
174
     0
 93
        1
 44
0.0
173
     0
291
     0
 45
0.0
1001
ACAD
1000
AcDbSavedByObjectVersion
1070
     0
  0
VISUALSTYLE
  5
31
102
{ACAD_REACTORS
330
2A
102
}
330
2A
100
AcDbVisualStyle
  2
3D Hidden
 70
     6
 71
     1
 72
     2
 73
     2
 90
        0
 40
-0.6
 41
-30.0
 62
     5
 63
     7
 74
     2
 91
        2
 64
     7
 65
   257
 75
     2
175
     1
 42
40.0
 92
        0
 66
   257
 43
1.0
 76
     1
 77
     6
 78
     2
 67
     7
 79
     3
170
     0
171
     0
290
     0
174
     0
 93
        1
 44
0.0
173
     0
291
     0
 45
0.0
1001
ACAD
1000
AcDbSavedByObjectVersion
1070
     0
  0
VISUALSTYLE
  5
30
102
{ACAD_REACTORS
330
2A
102
}
330
2A
100
AcDbVisualStyle
  2
3dWireframe
 70
     5
 71
     0
 72
     2
 73
     0
 90
        0
 40
-0.6
 41
-30.0
 62
     5
 63
     7
 74
     1
 91
        4
 64
     7
 65
   257
 75
     1
175
     1
 42
1.0
 92
        0
 66
   257
 43
1.0
 76
     1
 77
     6
 78
     2
 67
     7
 79
     5
170
     0
171
     0
290
     0
174
     0
 93
        1
 44
0.0
173
     0
291
     0
 45
0.0
1001
ACAD
1000
AcDbSavedByObjectVersion
1070
     0
  0
VISUALSTYLE
  5
32
102
{ACAD_REACTORS
330
2A
102
}
330
2A
100
AcDbVisualStyle
  2
Basic
 70
     7
 71
     1
 72
     0
 73
     1
 90
        0
 40
-0.6
 41
-30.0
 62
     5
 63
     7
 74
     0
 91
        4
 64
     7
 65
   257
 75
     1
175
     1
 42
1.0
 92
        8
 66
     7
 43
1.0
 76
     1
 77
     6
 78
     2
 67
     7
 79
     5
170
     0
171
     0
290
     0
174
     0
 93
        1
 44
0.0
173
     0
291
     1
 45
0.0
1001
ACAD
1000
AcDbSavedByObjectVersion
1070
     0
  0
VISUALSTYLE
  5
36
102
{ACAD_REACTORS
330
2A
102
}
330
2A
100
AcDbVisualStyle
  2
Brighten
 70
    12
 71
     2
 72
     2
 73
     0
 90
        0
 40
-0.6
 41
-30.0
 62
     5
 63
     7
 74
     1
 91
        4
 64
     7
 65
   257
 75
     1
175
     1
 42
1.0
 92
        8
 66
     7
 43
1.0
 76
     1
 77
     6
 78
     2
 67
     7
 79
     5
170
     0
171
     0
290
     0
174
     0
 93
        1
 44
50.0
173
     0
291
     1
 45
0.0
1001
ACAD
1000
AcDbSavedByObjectVersion
1070
     0
  0
VISUALSTYLE
  5
3A
102
{ACAD_REACTORS
330
2A
102
}
330
2A
100
AcDbVisualStyle
  2
ColorChange
 70
    16
 71
     2
 72
     2
 73
     3
 90
        0
 40
-0.6
 41
-30.0
 62
     5
 63
     8
 74
     1
 91
        4
 64
     7
 65
   257
 75
     1
175
     1
 42
1.0
 92
        8
 66
     8
 43
1.0
 76
     1
 77
     6
 78
     2
 67
     7
 79
     5
170
     0
171
     0
290
     0
174
     0
 93
        1
 44
0.0
173
     0
291
     1
 45
0.0
1001
ACAD
1000
AcDbSavedByObjectVersion
1070
     0
  0
VISUALSTYLE
  5
34
102
{ACAD_REACTORS
330
2A
102
}
330
2A
100
AcDbVisualStyle
  2
Conceptual
 70
     9
 71
     3
 72
     2
 73
     0
 90
        0
 40
-0.6
 41
-30.0
 62
     5
 63
     7
 74
     2
 91
        2
 64
     7
 65
   257
 75
     1
175
     1
 42
40.0
 92
        8
 66
     7
 43
1.0
 76
     1
 77
     6
 78
     2
 67
     7
 79
     3
170
     0
171
     0
290
     0
174
     0
 93
        1
 44
0.0
173
     0
291
     0
 45
0.0
1001
ACAD
1000
AcDbSavedByObjectVersion
1070
     0
  0
VISUALSTYLE
  5
35
102
{ACAD_REACTORS
330
2A
102
}
330
2A
100
AcDbVisualStyle
  2
Dim
 70
    11
 71
     2
 72
     2
 73
     0
 90
        0
 40
-0.6
 41
-30.0
 62
     5
 63
     7
 74
     1
 91
        4
 64
     7
 65
   257
 75
     1
175
     1
 42
1.0
 92
        8
 66
     7
 43
1.0
 76
     1
 77
     6
 78
     2
 67
     7
 79
     5
170
     0
171
     0
290
     0
174
     0
 93
        1
 44
-50.0
173
     0
291
     1
 45
0.0
1001
ACAD
1000
AcDbSavedByObjectVersion
1070
     0
  0
VISUALSTYLE
  5
39
102
{ACAD_REACTORS
330
2A
102
}
330
2A
100
AcDbVisualStyle
  2
Facepattern
 70
    15
 71
     2
 72
     2
 73
     0
 90
        0
 40
-0.6
 41
-30.0
 62
     5
 63
     7
 74
     1
 91
        4
 64
     7
 65
   257
 75
     1
175
     1
 42
1.0
 92
        8
 66
     7
 43
1.0
 76
     1
 77
     6
 78
     2
 67
     7
 79
     5
170
     0
171
     0
290
     0
174
     0
 93
        1
 44
0.0
173
     0
291
     1
 45
0.0
1001
ACAD
1000
AcDbSavedByObjectVersion
1070
     0
  0
VISUALSTYLE
  5
2B
102
{ACAD_REACTORS
330
2A
102
}
330
2A
100
AcDbVisualStyle
  2
Flat
 70
     0
 71
     2
 72
     1
 73
     1
 90
        2
 40
-0.6
 41
30.0
 62
     5
 63
     7
 74
     0
 91
        4
 64
     7
 65
   257
 75
     1
175
     1
 42
1.0
 92
        8
 66
     7
 43
1.0
 76
     1
 77
     6
 78
     2
 67
     7
 79
     5
170
     0
171
     0
290
     0
174
     0
 93
       13
 44
0.0
173
     0
291
     1
 45
0.0
1001
ACAD
1000
AcDbSavedByObjectVersion
1070
     0
  0
VISUALSTYLE
  5
2C
102
{ACAD_REACTORS
330
2A
102
}
330
2A
100
AcDbVisualStyle
  2
FlatWithEdges
 70
     1
 71
     2
 72
     1
 73
     1
 90
        2
 40
-0.6
 41
30.0
 62
     5
 63
     7
 74
     1
 91
        4
 64
     7
 65
   257
 75
     1
175
     1
 42
1.0
 92
        0
 66
   257
 43
1.0
 76
     1
 77
     6
 78
     2
 67
     7
 79
     5
170
     0
171
     0
290
     0
174
     0
 93
       13
 44
0.0
173
     0
291
     1
 45
0.0
1001
ACAD
1000
AcDbSavedByObjectVersion
1070
     0
  0
VISUALSTYLE
  5
2D
102
{ACAD_REACTORS
330
2A
102
}
330
2A
100
AcDbVisualStyle
  2
Gouraud
 70
     2
 71
     2
 72
     2
 73
     1
 90
        2
 40
-0.6
 41
30.0
 62
     5
 63
     7
 74
     0
 91
        4
 64
     7
 65
   257
 75
     1
175
     1
 42
1.0
 92
        0
 66
     7
 43
1.0
 76
     1
 77
     6
 78
     2
 67
     7
 79
     5
170
     0
171
     0
290
     0
174
     0
 93
       13
 44
0.0
173
     0
291
     1
 45
0.0
1001
ACAD
1000
AcDbSavedByObjectVersion
1070
     0
  0
VISUALSTYLE
  5
2E
102
{ACAD_REACTORS
330
2A
102
}
330
2A
100
AcDbVisualStyle
  2
GouraudWithEdges
 70
     3
 71
     2
 72
     2
 73
     1
 90
        2
 40
-0.6
 41
30.0
 62
     5
 63
     7
 74
     1
 91
        4
 64
     7
 65
   257
 75
     1
175
     1
 42
1.0
 92
        0
 66
   257
 43
1.0
 76
     1
 77
     6
 78
     2
 67
     7
 79
     5
170
     0
171
     0
290
     0
174
     0
 93
       13
 44
0.0
173
     0
291
     1
 45
0.0
1001
ACAD
1000
AcDbSavedByObjectVersion
1070
     0
  0
VISUALSTYLE
  5
38
102
{ACAD_REACTORS
330
2A
102
}
330
2A
100
AcDbVisualStyle
  2
Linepattern
 70
    14
 71
     2
 72
     2
 73
     0
 90
        0
 40
-0.6
 41
-30.0
 62
     5
 63
     7
 74
     1
 91
        4
 64
     7
 65
   257
 75
     7
175
     7
 42
1.0
 92
        8
 66
     7
 43
1.0
 76
     1
 77
     6
 78
     2
 67
     7
 79
     5
170
     0
171
     0
290
     0
174
     0
 93
        1
 44
0.0
173
     0
291
     1
 45
0.0
1001
ACAD
1000
AcDbSavedByObjectVersion
1070
     0
  0
VISUALSTYLE
  5
33
102
{ACAD_REACTORS
330
2A
102
}
330
2A
100
AcDbVisualStyle
  2
Realistic
 70
     8
 71
     2
 72
     2
 73
     0
 90
        0
 40
-0.6
 41
-30.0
 62
     5
 63
     7
 74
     1
 91
        0
 64
     7
 65
   257
 75
     1
175
     1
 42
1.0
 92
        8
 66
     8
 43
1.0
 76
     1
 77
     6
 78
     2
 67
     7
 79
     5
170
     0
171
     0
290
     0
174
     0
 93
       13
 44
0.0
173
     0
291
     0
 45
0.0
1001
ACAD
1000
AcDbSavedByObjectVersion
1070
     0
  0
VISUALSTYLE
  5
37
102
{ACAD_REACTORS
330
2A
102
}
330
2A
100
AcDbVisualStyle
  2
Thicken
 70
    13
 71
     2
 72
     2
 73
     0
 90
        0
 40
-0.6
 41
-30.0
 62
     5
 63
     7
 74
     1
 91
        4
 64
     7
 65
   257
 75
     1
175
     1
 42
1.0
 92
       12
 66
     7
 43
1.0
 76
     1
 77
     6
 78
     2
 67
     7
 79
     5
170
     0
171
     0
290
     0
174
     0
 93
        1
 44
0.0
173
     0
291
     1
 45
0.0
1001
ACAD
1000
AcDbSavedByObjectVersion
1070
     0
  0
DICTIONARYVAR
  5
219
102
{ACAD_REACTORS
330
218
102
}
330
218
100
DictionaryVariables
280
     0
  1
1:1
  0
XRECORD
  5
217
102
{ACAD_REACTORS
330
216
102
}
330
216
100
AcDbXrecord
280
     1
1000
Ten plik DWG został utworzony w programie ArchiCAD(TM)®
  0
ENDSEC
  0
EOF
