  0
SECTION
  2
HEADER
  9
$ACADVER
  1
AC1015
  9
$ACADMAINTVER
 70
     6
  9
$DWGCODEPAGE
  3
ANSI_1250
  9
$INSBASE
 10
0.0
 20
0.0
 30
0.0
  9
$EXTMIN
 10
1.000000000000000E+20
 20
1.000000000000000E+20
 30
1.000000000000000E+20
  9
$EXTMAX
 10
-1.000000000000000E+20
 20
-1.000000000000000E+20
 30
-1.000000000000000E+20
  9
$LIMMIN
 10
0.0
 20
0.0
  9
$LIMMAX
 10
12.0
 20
9.0
  9
$ORTHOMODE
 70
     0
  9
$REGENMODE
 70
     1
  9
$FILLMODE
 70
     1
  9
$QTEXTMODE
 70
     0
  9
$MIRRTEXT
 70
     1
  9
$LTSCALE
 40
1.0
  9
$ATTMODE
 70
     1
  9
$TEXTSIZE
 40
0.2
  9
$TRACEWID
 40
0.05
  9
$TEXTSTYLE
  7
Standard
  9
$CLAYER
  8
0
  9
$CELTYPE
  6
ByLayer
  9
$CECOLOR
 62
   256
  9
$CELTSCALE
 40
1.0
  9
$DISPSILH
 70
     0
  9
$DIMSCALE
 40
1.0
  9
$DIMASZ
 40
0.18
  9
$DIMEXO
 40
0.0625
  9
$DIMDLI
 40
0.38
  9
$DIMRND
 40
0.0
  9
$DIMDLE
 40
0.0
  9
$DIMEXE
 40
0.18
  9
$DIMTP
 40
0.0
  9
$DIMTM
 40
0.0
  9
$DIMTXT
 40
0.18
  9
$DIMCEN
 40
0.09
  9
$DIMTSZ
 40
0.0
  9
$DIMTOL
 70
     0
  9
$DIMLIM
 70
     0
  9
$DIMTIH
 70
     1
  9
$DIMTOH
 70
     1
  9
$DIMSE1
 70
     0
  9
$DIMSE2
 70
     0
  9
$DIMTAD
 70
     0
  9
$DIMZIN
 70
     0
  9
$DIMBLK
  1

  9
$DIMASO
 70
     1
  9
$DIMSHO
 70
     1
  9
$DIMPOST
  1

  9
$DIMAPOST
  1

  9
$DIMALT
 70
     0
  9
$DIMALTD
 70
     2
  9
$DIMALTF
 40
25.4
  9
$DIMLFAC
 40
1.0
  9
$DIMTOFL
 70
     0
  9
$DIMTVP
 40
0.0
  9
$DIMTIX
 70
     0
  9
$DIMSOXD
 70
     0
  9
$DIMSAH
 70
     0
  9
$DIMBLK1
  1

  9
$DIMBLK2
  1

  9
$DIMSTYLE
  2
Standard
  9
$DIMCLRD
 70
     0
  9
$DIMCLRE
 70
     0
  9
$DIMCLRT
 70
     0
  9
$DIMTFAC
 40
1.0
  9
$DIMGAP
 40
0.09
  9
$DIMJUST
 70
     0
  9
$DIMSD1
 70
     0
  9
$DIMSD2
 70
     0
  9
$DIMTOLJ
 70
     1
  9
$DIMTZIN
 70
     0
  9
$DIMALTZ
 70
     0
  9
$DIMALTTZ
 70
     0
  9
$DIMUPT
 70
     0
  9
$DIMDEC
 70
     4
  9
$DIMTDEC
 70
     4
  9
$DIMALTU
 70
     2
  9
$DIMALTTD
 70
     2
  9
$DIMTXSTY
  7
Standard
  9
$DIMAUNIT
 70
     0
  9
$DIMADEC
 70
     0
  9
$DIMALTRND
 40
0.0
  9
$DIMAZIN
 70
     0
  9
$DIMDSEP
 70
    46
  9
$DIMATFIT
 70
     3
  9
$DIMFRAC
 70
     0
  9
$DIMLDRBLK
  1

  9
$DIMLUNIT
 70
     2
  9
$DIMLWD
 70
    -2
  9
$DIMLWE
 70
    -2
  9
$DIMTMOVE
 70
     0
  9
$LUNITS
 70
     2
  9
$LUPREC
 70
     4
  9
$SKETCHINC
 40
0.1
  9
$FILLETRAD
 40
0.5
  9
$AUNITS
 70
     0
  9
$AUPREC
 70
     0
  9
$MENU
  1
.
  9
$ELEVATION
 40
0.0
  9
$PELEVATION
 40
0.0
  9
$THICKNESS
 40
0.0
  9
$LIMCHECK
 70
     0
  9
$CHAMFERA
 40
0.5
  9
$CHAMFERB
 40
0.5
  9
$CHAMFERC
 40
1.0
  9
$CHAMFERD
 40
0.0
  9
$SKPOLY
 70
     0
  9
$TDCREATE
 40
2458996.588005706
  9
$TDUCREATE
 40
2458996.504672373
  9
$TDUPDATE
 40
2458996.588005717
  9
$TDUUPDATE
 40
2458996.504672384
  9
$TDINDWG
 40
0.0000000116
  9
$TDUSRTIMER
 40
0.0000000116
  9
$USRTIMER
 70
     1
  9
$ANGBASE
 50
0.0
  9
$ANGDIR
 70
     0
  9
$PDMODE
 70
     0
  9
$PDSIZE
 40
0.0
  9
$PLINEWID
 40
0.0
  9
$SPLFRAME
 70
     0
  9
$SPLINETYPE
 70
     6
  9
$SPLINESEGS
 70
     8
  9
$HANDSEED
  5
2E9
  9
$SURFTAB1
 70
     6
  9
$SURFTAB2
 70
     6
  9
$SURFTYPE
 70
     6
  9
$SURFU
 70
     6
  9
$SURFV
 70
     6
  9
$UCSBASE
  2

  9
$UCSNAME
  2

  9
$UCSORG
 10
0.0
 20
0.0
 30
0.0
  9
$UCSXDIR
 10
1.0
 20
0.0
 30
0.0
  9
$UCSYDIR
 10
0.0
 20
1.0
 30
0.0
  9
$UCSORTHOREF
  2

  9
$UCSORTHOVIEW
 70
     0
  9
$UCSORGTOP
 10
0.0
 20
0.0
 30
0.0
  9
$UCSORGBOTTOM
 10
0.0
 20
0.0
 30
0.0
  9
$UCSORGLEFT
 10
0.0
 20
0.0
 30
0.0
  9
$UCSORGRIGHT
 10
0.0
 20
0.0
 30
0.0
  9
$UCSORGFRONT
 10
0.0
 20
0.0
 30
0.0
  9
$UCSORGBACK
 10
0.0
 20
0.0
 30
0.0
  9
$PUCSBASE
  2

  9
$PUCSNAME
  2

  9
$PUCSORG
 10
0.0
 20
0.0
 30
0.0
  9
$PUCSXDIR
 10
1.0
 20
0.0
 30
0.0
  9
$PUCSYDIR
 10
0.0
 20
1.0
 30
0.0
  9
$PUCSORTHOREF
  2

  9
$PUCSORTHOVIEW
 70
     0
  9
$PUCSORGTOP
 10
0.0
 20
0.0
 30
0.0
  9
$PUCSORGBOTTOM
 10
0.0
 20
0.0
 30
0.0
  9
$PUCSORGLEFT
 10
0.0
 20
0.0
 30
0.0
  9
$PUCSORGRIGHT
 10
0.0
 20
0.0
 30
0.0
  9
$PUCSORGFRONT
 10
0.0
 20
0.0
 30
0.0
  9
$PUCSORGBACK
 10
0.0
 20
0.0
 30
0.0
  9
$USERI1
 70
     0
  9
$USERI2
 70
     0
  9
$USERI3
 70
     0
  9
$USERI4
 70
     0
  9
$USERI5
 70
     0
  9
$USERR1
 40
0.0
  9
$USERR2
 40
0.0
  9
$USERR3
 40
0.0
  9
$USERR4
 40
0.0
  9
$USERR5
 40
0.0
  9
$WORLDVIEW
 70
     1
  9
$SHADEDGE
 70
     3
  9
$SHADEDIF
 70
    70
  9
$TILEMODE
 70
     1
  9
$MAXACTVP
 70
    64
  9
$PINSBASE
 10
0.0
 20
0.0
 30
0.0
  9
$PLIMCHECK
 70
     0
  9
$PEXTMIN
 10
1.000000000000000E+20
 20
1.000000000000000E+20
 30
1.000000000000000E+20
  9
$PEXTMAX
 10
-1.000000000000000E+20
 20
-1.000000000000000E+20
 30
-1.000000000000000E+20
  9
$PLIMMIN
 10
0.0
 20
0.0
  9
$PLIMMAX
 10
12.0
 20
9.0
  9
$UNITMODE
 70
     0
  9
$VISRETAIN
 70
     1
  9
$PLINEGEN
 70
     0
  9
$PSLTSCALE
 70
     1
  9
$TREEDEPTH
 70
  3020
  9
$CMLSTYLE
  2
Standard
  9
$CMLJUST
 70
     0
  9
$CMLSCALE
 40
1.0
  9
$PROXYGRAPHICS
 70
     1
  9
$MEASUREMENT
 70
     0
  9
$CELWEIGHT
370
    -1
  9
$ENDCAPS
280
     0
  9
$JOINSTYLE
280
     0
  9
$LWDISPLAY
290
     1
  9
$INSUNITS
 70
     0
  9
$HYPERLINKBASE
  1

  9
$STYLESHEET
  1

  9
$XEDIT
290
     1
  9
$CEPSNTYPE
380
     0
  9
$PSTYLEMODE
290
     1
  9
$FINGERPRINTGUID
  2
{672BA92D-F75C-4463-A8F1-5EC6455A8355}
  9
$VERSIONGUID
  2
{FAEB1C32-E019-11D5-929B-00C0DF256EC4}
  9
$EXTNAMES
290
     1
  9
$PSVPSCALE
 40
0.0
  9
$OLESTARTUP
290
     0
  0
ENDSEC
  0
SECTION
  2
CLASSES
  0
CLASS
  1
ACDBDICTIONARYWDFLT
  2
AcDbDictionaryWithDefault
  3
ObjectDBX Classes
 90
        0
280
     0
281
     0
  0
CLASS
  1
VISUALSTYLE
  2
AcDbVisualStyle
  3
ObjectDBX Classes
 90
     4095
280
     0
281
     0
  0
CLASS
  1
SCALE
  2
AcDbScale
  3
ObjectDBX Classes
 90
     1153
280
     0
281
     0
  0
CLASS
  1
WIPEOUT
  2
AcDbWipeout
  3
WipeOut|AutoCAD Express Tool|expresstools@autodesk.com
 90
      127
280
     0
281
     1
  0
CLASS
  1
DICTIONARYVAR
  2
AcDbDictionaryVar
  3
ObjectDBX Classes
 90
        0
280
     0
281
     0
  0
CLASS
  1
ACDBPLACEHOLDER
  2
AcDbPlaceHolder
  3
ObjectDBX Classes
 90
        0
280
     0
281
     0
  0
CLASS
  1
LAYOUT
  2
AcDbLayout
  3
ObjectDBX Classes
 90
        0
280
     0
281
     0
  0
ENDSEC
  0
SECTION
  2
TABLES
  0
TABLE
  2
VPORT
  5
8
330
0
100
AcDbSymbolTable
 70
     1
  0
VPORT
  5
29
330
8
100
AcDbSymbolTableRecord
100
AcDbViewportTableRecord
  2
*Active
 70
     0
 10
0.0
 20
0.0
 11
1.0
 21
1.0
 12
0.0
 22
0.0
 13
0.0
 23
0.0
 14
0.5
 24
0.5
 15
0.5
 25
0.5
 16
0.0
 26
0.0
 36
1.0
 17
-944.4042110795641
 27
1435.000000000002
 37
0.0
 40
3029.4
 41
0.8455190497783159
 42
50.0
 43
0.0
 44
0.0
 50
0.0
 51
0.0
 71
     0
 72
   100
 73
     1
 74
     3
 75
     0
 76
     0
 77
     0
 78
     0
281
     0
 65
     1
110
0.0
120
0.0
130
0.0
111
1.0
121
0.0
131
0.0
112
0.0
122
1.0
132
0.0
 79
     0
146
0.0
  0
ENDTAB
  0
TABLE
  2
LTYPE
  5
5
330
0
100
AcDbSymbolTable
 70
     5
  0
LTYPE
  5
14
330
5
100
AcDbSymbolTableRecord
100
AcDbLinetypeTableRecord
  2
ByBlock
 70
     0
  3

 72
    65
 73
     0
 40
0.0
  0
LTYPE
  5
15
330
5
100
AcDbSymbolTableRecord
100
AcDbLinetypeTableRecord
  2
ByLayer
 70
     0
  3

 72
    65
 73
     0
 40
0.0
  0
LTYPE
  5
16
330
5
100
AcDbSymbolTableRecord
100
AcDbLinetypeTableRecord
  2
Continuous
 70
     0
  3
Solid line
 72
    65
 73
     0
 40
0.0
  0
LTYPE
  5
5E
330
5
100
AcDbSymbolTableRecord
100
AcDbLinetypeTableRecord
  2
Wipeout_Contour
 70
     0
  3
- - - - - 
 72
    65
 73
     2
 40
1000.0
 49
0.0
 74
     0
 49
-1000.0
 74
     0
  0
LTYPE
  5
63
330
5
100
AcDbSymbolTableRecord
100
AcDbLinetypeTableRecord
  2
@ --- gęsto_burzenie
 70
     0
  3
- - - - - 
 72
    65
 73
     2
 40
10.0
 49
5.0
 74
     0
 49
-5.0
 74
     0
  0
LTYPE
  5
1EC
330
5
100
AcDbSymbolTableRecord
100
AcDbLinetypeTableRecord
  2
Przerywana gęsta
 70
     0
  3
- - - - - 
 72
    65
 73
     2
 40
30.0
 49
20.0
 74
     0
 49
-10.0
 74
     0
  0
LTYPE
  5
289
330
5
100
AcDbSymbolTableRecord
100
AcDbLinetypeTableRecord
  2
Kropki i Kreski
 70
     0
  3
- - - - - 
 72
    65
 73
     4
 40
67.02777624130249
 49
35.27777671813965
 74
     0
 49
-17.63888835906982
 74
     0
 49
0.0
 74
     0
 49
-14.11111116409302
 74
     0
  0
ENDTAB
  0
TABLE
  2
LAYER
  5
2
330
0
100
AcDbSymbolTable
 70
     3
  0
LAYER
  5
10
330
2
100
AcDbSymbolTableRecord
100
AcDbLayerTableRecord
  2
0
 70
     0
 62
     7
  6
Continuous
370
    -3
390
F
  0
LAYER
  5
5F
330
2
100
AcDbSymbolTableRecord
100
AcDbLayerTableRecord
  2
@__WIDOCZNE
 70
     0
 62
     7
  6
Continuous
370
    -3
390
F
  0
LAYER
  5
B1
330
2
100
AcDbSymbolTableRecord
100
AcDbLayerTableRecord
  2
2D - Ogólne
 70
     0
 62
     7
  6
Continuous
370
    -3
390
F
  0
ENDTAB
  0
TABLE
  2
STYLE
  5
3
330
0
100
AcDbSymbolTable
 70
     5
  0
STYLE
  5
11
330
3
100
AcDbSymbolTableRecord
100
AcDbTextStyleTableRecord
  2
Standard
 70
     0
 40
0.0
 41
1.0
 50
0.0
 71
     0
 42
0.2
  3
txt
  4
BIGFONT.SHX
  0
STYLE
  5
1F9
330
3
100
AcDbSymbolTableRecord
100
AcDbTextStyleTableRecord
  2
GENERATED_STYLE_1
 70
     0
 40
0.0
 41
1.0
 50
0.0
 71
     0
 42
0.2
  3

  4

1001
ACAD
1000
Arial
1071
 33615398
  0
STYLE
  5
1FB
330
3
100
AcDbSymbolTableRecord
100
AcDbTextStyleTableRecord
  2
GENERATED_STYLE_2
 70
     0
 40
0.0
 41
1.0
 50
0.0
 71
     0
 42
0.2
  3

  4

1001
ACAD
1000
Arial
1071
    60966
  0
STYLE
  5
201
330
3
100
AcDbSymbolTableRecord
100
AcDbTextStyleTableRecord
  2
GENERATED_STYLE_3
 70
     0
 40
0.0
 41
1.0
 50
0.0
 71
     0
 42
0.2
  3

  4

1001
ACAD
1000
Arial
1071
    41254
  0
STYLE
  5
2DE
330
3
100
AcDbSymbolTableRecord
100
AcDbTextStyleTableRecord
  2
GENERATED_STYLE_4
 70
     0
 40
0.0
 41
1.0
 50
0.0
 71
     0
 42
0.2
  3

  4

1001
ACAD
1000
Times New Roman
1071
    60950
  0
ENDTAB
  0
TABLE
  2
VIEW
  5
6
330
0
100
AcDbSymbolTable
 70
     0
  0
ENDTAB
  0
TABLE
  2
UCS
  5
7
330
0
100
AcDbSymbolTable
 70
     0
  0
ENDTAB
  0
TABLE
  2
APPID
  5
9
330
0
100
AcDbSymbolTable
 70
     1
  0
APPID
  5
12
330
9
100
AcDbSymbolTableRecord
100
AcDbRegAppTableRecord
  2
ACAD
 70
     0
  0
ENDTAB
  0
TABLE
  2
DIMSTYLE
  5
A
330
0
100
AcDbSymbolTable
 70
     1
100
AcDbDimStyleTable
  0
DIMSTYLE
105
27
330
A
100
AcDbSymbolTableRecord
100
AcDbDimStyleTableRecord
  2
Standard
 70
     0
340
11
  0
ENDTAB
  0
TABLE
  2
BLOCK_RECORD
  5
1
330
0
100
AcDbSymbolTable
 70
    10
  0
BLOCK_RECORD
  5
1F
330
1
100
AcDbSymbolTableRecord
100
AcDbBlockTableRecord
  2
*Model_Space
340
22
  0
BLOCK_RECORD
  5
1B
330
1
100
AcDbSymbolTableRecord
100
AcDbBlockTableRecord
  2
*Paper_Space
340
1E
  0
BLOCK_RECORD
  5
23
330
1
100
AcDbSymbolTableRecord
100
AcDbBlockTableRecord
  2
*Paper_Space0
340
26
  0
BLOCK_RECORD
  5
AD
330
1
100
AcDbSymbolTableRecord
100
AcDbBlockTableRecord
  2
*X1
340
0
102
{BLKREFS
331
CA
102
}
  0
BLOCK_RECORD
  5
CF
330
1
100
AcDbSymbolTableRecord
100
AcDbBlockTableRecord
  2
*X2
340
0
102
{BLKREFS
331
E9
102
}
  0
BLOCK_RECORD
  5
F0
330
1
100
AcDbSymbolTableRecord
100
AcDbBlockTableRecord
  2
Izolacja cieplna 12_73
340
0
102
{BLKREFS
331
110
102
}
  0
BLOCK_RECORD
  5
111
330
1
100
AcDbSymbolTableRecord
100
AcDbBlockTableRecord
  2
Izolacja cieplna 12_72
340
0
102
{BLKREFS
331
169
102
}
  0
BLOCK_RECORD
  5
16A
330
1
100
AcDbSymbolTableRecord
100
AcDbBlockTableRecord
  2
Izolacja cieplna 12_70
340
0
102
{BLKREFS
331
18A
102
}
  0
BLOCK_RECORD
  5
18B
330
1
100
AcDbSymbolTableRecord
100
AcDbBlockTableRecord
  2
Izolacja cieplna 12_71
340
0
102
{BLKREFS
331
1E3
102
}
  0
BLOCK_RECORD
  5
221
330
1
100
AcDbSymbolTableRecord
100
AcDbBlockTableRecord
  2
*X7
340
0
102
{BLKREFS
331
24B
102
}
  0
BLOCK_RECORD
  5
250
330
1
100
AcDbSymbolTableRecord
100
AcDbBlockTableRecord
  2
*X8
340
0
102
{BLKREFS
331
27A
102
}
  0
BLOCK_RECORD
  5
2E0
330
1
100
AcDbSymbolTableRecord
100
AcDbBlockTableRecord
  2
Bez nazwy_STORY_MARKER
340
0
  0
ENDTAB
  0
ENDSEC
  0
SECTION
  2
BLOCKS
  0
BLOCK
  5
20
330
1F
100
AcDbEntity
  8
0
100
AcDbBlockBegin
  2
*Model_Space
 70
     0
 10
0.0
 20
0.0
 30
0.0
  3
*Model_Space
  1

  0
ENDBLK
  5
21
330
1F
100
AcDbEntity
  8
0
100
AcDbBlockEnd
  0
BLOCK
  5
1C
330
1B
100
AcDbEntity
 67
     1
  8
0
100
AcDbBlockBegin
  2
*Paper_Space
 70
     0
 10
0.0
 20
0.0
 30
0.0
  3
*Paper_Space
  1

  0
ENDBLK
  5
1D
330
1B
100
AcDbEntity
 67
     1
  8
0
100
AcDbBlockEnd
  0
BLOCK
  5
24
330
23
100
AcDbEntity
  8
0
100
AcDbBlockBegin
  2
*Paper_Space0
 70
     0
 10
0.0
 20
0.0
 30
0.0
  3
*Paper_Space0
  1

  0
ENDBLK
  5
25
330
23
100
AcDbEntity
  8
0
100
AcDbBlockEnd
  0
BLOCK
  5
AE
330
AD
100
AcDbEntity
  8
0
100
AcDbBlockBegin
  2
*X1
 70
     1
 10
0.0
 20
0.0
 30
0.0
  3
*X1
  1

  0
HATCH
  5
B0
330
AD
100
AcDbEntity
  8
2D - Ogólne
  6
Continuous
370
    13
100
AcDbHatch
 10
0.0
 20
0.0
 30
0.0
210
0.0
220
0.0
230
1.0
  2
SOLID
 70
     1
 71
     0
 91
        1
 92
        2
 72
     0
 73
     1
 93
        4
 10
-1200.000001740201
 20
1000.00000318665
 10
-1200.000001740201
 20
974.9999978174052
 10
-1185.846036568228
 20
974.9999978174052
 10
-1185.846036568228
 20
1000.00000318665
 97
        0
 75
     0
 76
     1
 98
        0
  0
HATCH
  5
B2
330
AD
100
AcDbEntity
  8
2D - Ogólne
  6
Continuous
370
    13
100
AcDbHatch
 10
0.0
 20
0.0
 30
0.0
210
0.0
220
0.0
230
1.0
  2
SOLID
 70
     1
 71
     0
 91
        1
 92
        2
 72
     0
 73
     1
 93
        4
 10
-1200.000001740201
 20
1099.999999673829
 10
-1200.000001740201
 20
1075.000002634518
 10
-1185.846036568228
 20
1075.000002634518
 10
-1185.846036568228
 20
1099.999999673829
 97
        0
 75
     0
 76
     1
 98
        0
  0
HATCH
  5
B3
330
AD
100
AcDbEntity
  8
2D - Ogólne
  6
Continuous
370
    13
100
AcDbHatch
 10
0.0
 20
0.0
 30
0.0
210
0.0
220
0.0
230
1.0
  2
SOLID
 70
     1
 71
     0
 91
        1
 92
        2
 72
     0
 73
     1
 93
        4
 10
-1200.000001740201
 20
1199.999996161008
 10
-1200.000001740201
 20
1174.999999121697
 10
-1185.846036568228
 20
1174.999999121697
 10
-1185.846036568228
 20
1199.999996161008
 97
        0
 75
     0
 76
     1
 98
        0
  0
HATCH
  5
B4
330
AD
100
AcDbEntity
  8
2D - Ogólne
  6
Continuous
370
    13
100
AcDbHatch
 10
0.0
 20
0.0
 30
0.0
210
0.0
220
0.0
230
1.0
  2
SOLID
 70
     1
 71
     0
 91
        1
 92
        2
 72
     0
 73
     1
 93
        4
 10
-1200.000001740201
 20
1300.000000978121
 10
-1200.000001740201
 20
1275.00000393881
 10
-1185.846036568228
 20
1275.00000393881
 10
-1185.846036568228
 20
1300.000000978121
 97
        0
 75
     0
 76
     1
 98
        0
  0
HATCH
  5
B5
330
AD
100
AcDbEntity
  8
2D - Ogólne
  6
Continuous
370
    13
100
AcDbHatch
 10
0.0
 20
0.0
 30
0.0
210
0.0
220
0.0
230
1.0
  2
SOLID
 70
     1
 71
     0
 91
        1
 92
        2
 72
     0
 73
     1
 93
        4
 10
-1200.000001740201
 20
1399.9999974653
 10
-1200.000001740201
 20
1375.000000425989
 10
-1185.846036568228
 20
1375.000000425989
 10
-1185.846036568228
 20
1399.9999974653
 97
        0
 75
     0
 76
     1
 98
        0
  0
HATCH
  5
B6
330
AD
100
AcDbEntity
  8
2D - Ogólne
  6
Continuous
370
    13
100
AcDbHatch
 10
0.0
 20
0.0
 30
0.0
210
0.0
220
0.0
230
1.0
  2
SOLID
 70
     1
 71
     0
 91
        1
 92
        2
 72
     0
 73
     1
 93
        4
 10
-1200.000001740201
 20
1500.000002282413
 10
-1200.000001740201
 20
1474.999996913168
 10
-1185.846036568228
 20
1474.999996913168
 10
-1185.846036568228
 20
1500.000002282413
 97
        0
 75
     0
 76
     1
 98
        0
  0
HATCH
  5
B7
330
AD
100
AcDbEntity
  8
2D - Ogólne
  6
Continuous
370
    13
100
AcDbHatch
 10
0.0
 20
0.0
 30
0.0
210
0.0
220
0.0
230
1.0
  2
SOLID
 70
     1
 71
     0
 91
        1
 92
        2
 72
     0
 73
     1
 93
        4
 10
-1199.999997591444
 20
1000.00000318665
 10
-1202.846036070557
 20
1000.00000318665
 10
-1202.846036070557
 20
974.9999978174052
 10
-1199.999997591444
 20
974.9999978174052
 97
        0
 75
     0
 76
     1
 98
        0
  0
HATCH
  5
B8
330
AD
100
AcDbEntity
  8
2D - Ogólne
  6
Continuous
370
    13
100
AcDbHatch
 10
0.0
 20
0.0
 30
0.0
210
0.0
220
0.0
230
1.0
  2
SOLID
 70
     1
 71
     0
 91
        1
 92
        2
 72
     0
 73
     1
 93
        4
 10
-1199.999997591444
 20
1099.999999673829
 10
-1202.846036070557
 20
1099.999999673829
 10
-1202.846036070557
 20
1075.000002634518
 10
-1199.999997591444
 20
1075.000002634518
 97
        0
 75
     0
 76
     1
 98
        0
  0
HATCH
  5
B9
330
AD
100
AcDbEntity
  8
2D - Ogólne
  6
Continuous
370
    13
100
AcDbHatch
 10
0.0
 20
0.0
 30
0.0
210
0.0
220
0.0
230
1.0
  2
SOLID
 70
     1
 71
     0
 91
        1
 92
        2
 72
     0
 73
     1
 93
        4
 10
-1199.999997591444
 20
1199.999996161008
 10
-1202.846036070557
 20
1199.999996161008
 10
-1202.846036070557
 20
1174.999999121697
 10
-1199.999997591444
 20
1174.999999121697
 97
        0
 75
     0
 76
     1
 98
        0
  0
HATCH
  5
BA
330
AD
100
AcDbEntity
  8
2D - Ogólne
  6
Continuous
370
    13
100
AcDbHatch
 10
0.0
 20
0.0
 30
0.0
210
0.0
220
0.0
230
1.0
  2
SOLID
 70
     1
 71
     0
 91
        1
 92
        2
 72
     0
 73
     1
 93
        4
 10
-1199.999997591444
 20
1300.000000978121
 10
-1202.846036070557
 20
1300.000000978121
 10
-1202.846036070557
 20
1275.00000393881
 10
-1199.999997591444
 20
1275.00000393881
 97
        0
 75
     0
 76
     1
 98
        0
  0
HATCH
  5
BB
330
AD
100
AcDbEntity
  8
2D - Ogólne
  6
Continuous
370
    13
100
AcDbHatch
 10
0.0
 20
0.0
 30
0.0
210
0.0
220
0.0
230
1.0
  2
SOLID
 70
     1
 71
     0
 91
        1
 92
        2
 72
     0
 73
     1
 93
        4
 10
-1199.999997591444
 20
1399.9999974653
 10
-1202.846036070557
 20
1399.9999974653
 10
-1202.846036070557
 20
1375.000000425989
 10
-1199.999997591444
 20
1375.000000425989
 97
        0
 75
     0
 76
     1
 98
        0
  0
HATCH
  5
BC
330
AD
100
AcDbEntity
  8
2D - Ogólne
  6
Continuous
370
    13
100
AcDbHatch
 10
0.0
 20
0.0
 30
0.0
210
0.0
220
0.0
230
1.0
  2
SOLID
 70
     1
 71
     0
 91
        1
 92
        2
 72
     0
 73
     1
 93
        4
 10
-1199.999997591444
 20
1500.000002282413
 10
-1202.846036070557
 20
1500.000002282413
 10
-1202.846036070557
 20
1474.999996913168
 10
-1199.999997591444
 20
1474.999996913168
 97
        0
 75
     0
 76
     1
 98
        0
  0
HATCH
  5
BD
330
AD
100
AcDbEntity
  8
2D - Ogólne
  6
Continuous
370
    13
100
AcDbHatch
 10
0.0
 20
0.0
 30
0.0
210
0.0
220
0.0
230
1.0
  2
SOLID
 70
     1
 71
     0
 91
        1
 92
        2
 72
     0
 73
     1
 93
        4
 10
-1200.000001740201
 20
1025.000000225962
 10
-1200.000001740201
 20
1000.00000318665
 10
-1185.846036568228
 20
1000.00000318665
 10
-1185.846036568228
 20
1025.000000225962
 97
        0
 75
     0
 76
     1
 98
        0
  0
HATCH
  5
BE
330
AD
100
AcDbEntity
  8
2D - Ogólne
  6
Continuous
370
    13
100
AcDbHatch
 10
0.0
 20
0.0
 30
0.0
210
0.0
220
0.0
230
1.0
  2
SOLID
 70
     1
 71
     0
 91
        1
 92
        2
 72
     0
 73
     1
 93
        4
 10
-1200.000001740201
 20
1124.99999671314
 10
-1200.000001740201
 20
1099.999999673829
 10
-1185.846036568228
 20
1099.999999673829
 10
-1185.846036568228
 20
1124.99999671314
 97
        0
 75
     0
 76
     1
 98
        0
  0
HATCH
  5
BF
330
AD
100
AcDbEntity
  8
2D - Ogólne
  6
Continuous
370
    13
100
AcDbHatch
 10
0.0
 20
0.0
 30
0.0
210
0.0
220
0.0
230
1.0
  2
SOLID
 70
     1
 71
     0
 91
        1
 92
        2
 72
     0
 73
     1
 93
        4
 10
-1200.000001740201
 20
1225.000001530253
 10
-1200.000001740201
 20
1199.999996161008
 10
-1185.846036568228
 20
1199.999996161008
 10
-1185.846036568228
 20
1225.000001530253
 97
        0
 75
     0
 76
     1
 98
        0
  0
HATCH
  5
C0
330
AD
100
AcDbEntity
  8
2D - Ogólne
  6
Continuous
370
    13
100
AcDbHatch
 10
0.0
 20
0.0
 30
0.0
210
0.0
220
0.0
230
1.0
  2
SOLID
 70
     1
 71
     0
 91
        1
 92
        2
 72
     0
 73
     1
 93
        4
 10
-1200.000001740201
 20
1324.999998017433
 10
-1200.000001740201
 20
1300.000000978121
 10
-1185.846036568228
 20
1300.000000978121
 10
-1185.846036568228
 20
1324.999998017433
 97
        0
 75
     0
 76
     1
 98
        0
  0
HATCH
  5
C1
330
AD
100
AcDbEntity
  8
2D - Ogólne
  6
Continuous
370
    13
100
AcDbHatch
 10
0.0
 20
0.0
 30
0.0
210
0.0
220
0.0
230
1.0
  2
SOLID
 70
     1
 71
     0
 91
        1
 92
        2
 72
     0
 73
     1
 93
        4
 10
-1200.000001740201
 20
1425.000002834545
 10
-1200.000001740201
 20
1399.9999974653
 10
-1185.846036568228
 20
1399.9999974653
 10
-1185.846036568228
 20
1425.000002834545
 97
        0
 75
     0
 76
     1
 98
        0
  0
HATCH
  5
C2
330
AD
100
AcDbEntity
  8
2D - Ogólne
  6
Continuous
370
    13
100
AcDbHatch
 10
0.0
 20
0.0
 30
0.0
210
0.0
220
0.0
230
1.0
  2
SOLID
 70
     1
 71
     0
 91
        1
 92
        2
 72
     0
 73
     1
 93
        4
 10
-1185.846039191693
 20
1518.600245037096
 10
-1199.999999961695
 20
1518.600245037096
 10
-1199.999999961695
 20
1500.000001958033
 10
-1185.846039191693
 20
1500.000001958033
 97
        0
 75
     0
 76
     1
 98
        0
  0
HATCH
  5
C3
330
AD
100
AcDbEntity
  8
2D - Ogólne
  6
Continuous
370
    13
100
AcDbHatch
 10
0.0
 20
0.0
 30
0.0
210
0.0
220
0.0
230
1.0
  2
SOLID
 70
     1
 71
     0
 91
        1
 92
        2
 72
     0
 73
     1
 93
        4
 10
-1199.999997591444
 20
1025.000000225962
 10
-1202.846036070557
 20
1025.000000225962
 10
-1202.846036070557
 20
1000.00000318665
 10
-1199.999997591444
 20
1000.00000318665
 97
        0
 75
     0
 76
     1
 98
        0
  0
HATCH
  5
C4
330
AD
100
AcDbEntity
  8
2D - Ogólne
  6
Continuous
370
    13
100
AcDbHatch
 10
0.0
 20
0.0
 30
0.0
210
0.0
220
0.0
230
1.0
  2
SOLID
 70
     1
 71
     0
 91
        1
 92
        2
 72
     0
 73
     1
 93
        4
 10
-1199.999997591444
 20
1124.99999671314
 10
-1202.846036070557
 20
1124.99999671314
 10
-1202.846036070557
 20
1099.999999673829
 10
-1199.999997591444
 20
1099.999999673829
 97
        0
 75
     0
 76
     1
 98
        0
  0
HATCH
  5
C5
330
AD
100
AcDbEntity
  8
2D - Ogólne
  6
Continuous
370
    13
100
AcDbHatch
 10
0.0
 20
0.0
 30
0.0
210
0.0
220
0.0
230
1.0
  2
SOLID
 70
     1
 71
     0
 91
        1
 92
        2
 72
     0
 73
     1
 93
        4
 10
-1199.999997591444
 20
1225.000001530253
 10
-1202.846036070557
 20
1225.000001530253
 10
-1202.846036070557
 20
1199.999996161008
 10
-1199.999997591444
 20
1199.999996161008
 97
        0
 75
     0
 76
     1
 98
        0
  0
HATCH
  5
C6
330
AD
100
AcDbEntity
  8
2D - Ogólne
  6
Continuous
370
    13
100
AcDbHatch
 10
0.0
 20
0.0
 30
0.0
210
0.0
220
0.0
230
1.0
  2
SOLID
 70
     1
 71
     0
 91
        1
 92
        2
 72
     0
 73
     1
 93
        4
 10
-1199.999997591444
 20
1324.999998017433
 10
-1202.846036070557
 20
1324.999998017433
 10
-1202.846036070557
 20
1300.000000978121
 10
-1199.999997591444
 20
1300.000000978121
 97
        0
 75
     0
 76
     1
 98
        0
  0
HATCH
  5
C7
330
AD
100
AcDbEntity
  8
2D - Ogólne
  6
Continuous
370
    13
100
AcDbHatch
 10
0.0
 20
0.0
 30
0.0
210
0.0
220
0.0
230
1.0
  2
SOLID
 70
     1
 71
     0
 91
        1
 92
        2
 72
     0
 73
     1
 93
        4
 10
-1199.999997591444
 20
1425.000002834545
 10
-1202.846036070557
 20
1425.000002834545
 10
-1202.846036070557
 20
1399.9999974653
 10
-1199.999997591444
 20
1399.9999974653
 97
        0
 75
     0
 76
     1
 98
        0
  0
HATCH
  5
C8
330
AD
100
AcDbEntity
  8
2D - Ogólne
  6
Continuous
370
    13
100
AcDbHatch
 10
0.0
 20
0.0
 30
0.0
210
0.0
220
0.0
230
1.0
  2
SOLID
 70
     1
 71
     0
 91
        1
 92
        2
 72
     0
 73
     1
 93
        4
 10
-1200.000003916063
 20
1518.600245037096
 10
-1202.846044173683
 20
1518.600245037096
 10
-1202.846044173683
 20
1500.000001958033
 10
-1200.000003916063
 20
1500.000001958033
 97
        0
 75
     0
 76
     1
 98
        0
  0
ENDBLK
  5
AF
330
AD
100
AcDbEntity
  8
0
100
AcDbBlockEnd
  0
BLOCK
  5
D0
330
CF
100
AcDbEntity
  8
0
100
AcDbBlockBegin
  2
*X2
 70
     1
 10
0.0
 20
0.0
 30
0.0
  3
*X2
  1

  0
HATCH
  5
D2
330
CF
100
AcDbEntity
  8
2D - Ogólne
  6
Continuous
370
    13
100
AcDbHatch
 10
0.0
 20
0.0
 30
0.0
210
0.0
220
0.0
230
1.0
  2
SOLID
 70
     1
 71
     0
 91
        1
 92
        2
 72
     0
 73
     1
 93
        4
 10
-1200.000001129378
 20
2300.000003843313
 10
-1200.000001129378
 20
2275.00000075261
 10
-1186.921853372364
 20
2275.00000075261
 10
-1186.921853372364
 20
2300.000003843313
 97
        0
 75
     0
 76
     1
 98
        0
  0
HATCH
  5
D3
330
CF
100
AcDbEntity
  8
2D - Ogólne
  6
Continuous
370
    13
100
AcDbHatch
 10
0.0
 20
0.0
 30
0.0
210
0.0
220
0.0
230
1.0
  2
SOLID
 70
     1
 71
     0
 91
        1
 92
        2
 72
     0
 73
     1
 93
        4
 10
-1200.000001129378
 20
2400.000000715258
 10
-1200.000001129378
 20
2374.999997624555
 10
-1186.921853372364
 20
2374.999997624555
 10
-1186.921853372364
 20
2400.000000715258
 97
        0
 75
     0
 76
     1
 98
        0
  0
HATCH
  5
D4
330
CF
100
AcDbEntity
  8
2D - Ogólne
  6
Continuous
370
    13
100
AcDbHatch
 10
0.0
 20
0.0
 30
0.0
210
0.0
220
0.0
230
1.0
  2
SOLID
 70
     1
 71
     0
 91
        1
 92
        2
 72
     0
 73
     1
 93
        4
 10
-1200.000001129378
 20
2499.999997587203
 10
-1200.000001129378
 20
2475.000002241934
 10
-1186.921853372364
 20
2475.000002241934
 10
-1186.921853372364
 20
2499.999997587203
 97
        0
 75
     0
 76
     1
 98
        0
  0
HATCH
  5
D5
330
CF
100
AcDbEntity
  8
2D - Ogólne
  6
Continuous
370
    13
100
AcDbHatch
 10
0.0
 20
0.0
 30
0.0
210
0.0
220
0.0
230
1.0
  2
SOLID
 70
     1
 71
     0
 91
        1
 92
        2
 72
     0
 73
     1
 93
        4
 10
-1200.000001129378
 20
2600.000002204582
 10
-1200.000001129378
 20
2574.999999113879
 10
-1186.921853372364
 20
2574.999999113879
 10
-1186.921853372364
 20
2600.000002204582
 97
        0
 75
     0
 76
     1
 98
        0
  0
HATCH
  5
D6
330
CF
100
AcDbEntity
  8
2D - Ogólne
  6
Continuous
370
    13
100
AcDbHatch
 10
0.0
 20
0.0
 30
0.0
210
0.0
220
0.0
230
1.0
  2
SOLID
 70
     1
 71
     0
 91
        1
 92
        2
 72
     0
 73
     1
 93
        4
 10
-1200.000001129378
 20
2699.999999076527
 10
-1200.000001129378
 20
2675.000003731257
 10
-1186.921853372364
 20
2675.000003731257
 10
-1186.921853372364
 20
2699.999999076527
 97
        0
 75
     0
 76
     1
 98
        0
  0
HATCH
  5
D7
330
CF
100
AcDbEntity
  8
2D - Ogólne
  6
Continuous
370
    13
100
AcDbHatch
 10
0.0
 20
0.0
 30
0.0
210
0.0
220
0.0
230
1.0
  2
SOLID
 70
     1
 71
     0
 91
        1
 92
        2
 72
     0
 73
     1
 93
        4
 10
-1200.000001564027
 20
2300.000003843313
 10
-1203.921854979239
 20
2300.000003843313
 10
-1203.921854979239
 20
2275.00000075261
 10
-1200.000001564027
 20
2275.00000075261
 97
        0
 75
     0
 76
     1
 98
        0
  0
HATCH
  5
D8
330
CF
100
AcDbEntity
  8
2D - Ogólne
  6
Continuous
370
    13
100
AcDbHatch
 10
0.0
 20
0.0
 30
0.0
210
0.0
220
0.0
230
1.0
  2
SOLID
 70
     1
 71
     0
 91
        1
 92
        2
 72
     0
 73
     1
 93
        4
 10
-1200.000001564027
 20
2400.000000715258
 10
-1203.921854979239
 20
2400.000000715258
 10
-1203.921854979239
 20
2374.999997624555
 10
-1200.000001564027
 20
2374.999997624555
 97
        0
 75
     0
 76
     1
 98
        0
  0
HATCH
  5
D9
330
CF
100
AcDbEntity
  8
2D - Ogólne
  6
Continuous
370
    13
100
AcDbHatch
 10
0.0
 20
0.0
 30
0.0
210
0.0
220
0.0
230
1.0
  2
SOLID
 70
     1
 71
     0
 91
        1
 92
        2
 72
     0
 73
     1
 93
        4
 10
-1200.000001564027
 20
2499.999997587203
 10
-1203.921854979239
 20
2499.999997587203
 10
-1203.921854979239
 20
2475.000002241934
 10
-1200.000001564027
 20
2475.000002241934
 97
        0
 75
     0
 76
     1
 98
        0
  0
HATCH
  5
DA
330
CF
100
AcDbEntity
  8
2D - Ogólne
  6
Continuous
370
    13
100
AcDbHatch
 10
0.0
 20
0.0
 30
0.0
210
0.0
220
0.0
230
1.0
  2
SOLID
 70
     1
 71
     0
 91
        1
 92
        2
 72
     0
 73
     1
 93
        4
 10
-1200.000001564027
 20
2600.000002204582
 10
-1203.921854979239
 20
2600.000002204582
 10
-1203.921854979239
 20
2574.999999113879
 10
-1200.000001564027
 20
2574.999999113879
 97
        0
 75
     0
 76
     1
 98
        0
  0
HATCH
  5
DB
330
CF
100
AcDbEntity
  8
2D - Ogólne
  6
Continuous
370
    13
100
AcDbHatch
 10
0.0
 20
0.0
 30
0.0
210
0.0
220
0.0
230
1.0
  2
SOLID
 70
     1
 71
     0
 91
        1
 92
        2
 72
     0
 73
     1
 93
        4
 10
-1200.000001564027
 20
2699.999999076527
 10
-1203.921854979239
 20
2699.999999076527
 10
-1203.921854979239
 20
2675.000003731257
 10
-1200.000001564027
 20
2675.000003731257
 97
        0
 75
     0
 76
     1
 98
        0
  0
HATCH
  5
DC
330
CF
100
AcDbEntity
  8
2D - Ogólne
  6
Continuous
370
    13
100
AcDbHatch
 10
0.0
 20
0.0
 30
0.0
210
0.0
220
0.0
230
1.0
  2
SOLID
 70
     1
 71
     0
 91
        1
 92
        2
 72
     0
 73
     1
 93
        4
 10
-1200.000003460977
 20
2225.000002980237
 10
-1200.000003460977
 20
2200.213303769403
 10
-1186.921850968308
 20
2200.213303769403
 10
-1186.921850968308
 20
2225.000002980237
 97
        0
 75
     0
 76
     1
 98
        0
  0
HATCH
  5
DD
330
CF
100
AcDbEntity
  8
2D - Ogólne
  6
Continuous
370
    13
100
AcDbHatch
 10
0.0
 20
0.0
 30
0.0
210
0.0
220
0.0
230
1.0
  2
SOLID
 70
     1
 71
     0
 91
        1
 92
        2
 72
     0
 73
     1
 93
        4
 10
-1200.000001129378
 20
2324.999999188582
 10
-1200.000001129378
 20
2300.000003843313
 10
-1186.921853372364
 20
2300.000003843313
 10
-1186.921853372364
 20
2324.999999188582
 97
        0
 75
     0
 76
     1
 98
        0
  0
HATCH
  5
DE
330
CF
100
AcDbEntity
  8
2D - Ogólne
  6
Continuous
370
    13
100
AcDbHatch
 10
0.0
 20
0.0
 30
0.0
210
0.0
220
0.0
230
1.0
  2
SOLID
 70
     1
 71
     0
 91
        1
 92
        2
 72
     0
 73
     1
 93
        4
 10
-1200.000001129378
 20
2425.000003805961
 10
-1200.000001129378
 20
2400.000000715258
 10
-1186.921853372364
 20
2400.000000715258
 10
-1186.921853372364
 20
2425.000003805961
 97
        0
 75
     0
 76
     1
 98
        0
  0
HATCH
  5
DF
330
CF
100
AcDbEntity
  8
2D - Ogólne
  6
Continuous
370
    13
100
AcDbHatch
 10
0.0
 20
0.0
 30
0.0
210
0.0
220
0.0
230
1.0
  2
SOLID
 70
     1
 71
     0
 91
        1
 92
        2
 72
     0
 73
     1
 93
        4
 10
-1200.000001129378
 20
2525.000000677906
 10
-1200.000001129378
 20
2499.999997587203
 10
-1186.921853372364
 20
2499.999997587203
 10
-1186.921853372364
 20
2525.000000677906
 97
        0
 75
     0
 76
     1
 98
        0
  0
HATCH
  5
E0
330
CF
100
AcDbEntity
  8
2D - Ogólne
  6
Continuous
370
    13
100
AcDbHatch
 10
0.0
 20
0.0
 30
0.0
210
0.0
220
0.0
230
1.0
  2
SOLID
 70
     1
 71
     0
 91
        1
 92
        2
 72
     0
 73
     1
 93
        4
 10
-1200.000001129378
 20
2624.999997549851
 10
-1200.000001129378
 20
2600.000002204582
 10
-1186.921853372364
 20
2600.000002204582
 10
-1186.921853372364
 20
2624.999997549851
 97
        0
 75
     0
 76
     1
 98
        0
  0
HATCH
  5
E1
330
CF
100
AcDbEntity
  8
2D - Ogólne
  6
Continuous
370
    13
100
AcDbHatch
 10
0.0
 20
0.0
 30
0.0
210
0.0
220
0.0
230
1.0
  2
SOLID
 70
     1
 71
     0
 91
        1
 92
        2
 72
     0
 73
     1
 93
        4
 10
-1186.921855301407
 20
2720.000001602585
 10
-1199.999998909661
 20
2720.000001602585
 10
-1199.999998909661
 20
2700.000000192976
 10
-1186.921855301407
 20
2700.000000192976
 97
        0
 75
     0
 76
     1
 98
        0
  0
HATCH
  5
E2
330
CF
100
AcDbEntity
  8
2D - Ogólne
  6
Continuous
370
    13
100
AcDbHatch
 10
0.0
 20
0.0
 30
0.0
210
0.0
220
0.0
230
1.0
  2
SOLID
 70
     1
 71
     0
 91
        1
 92
        2
 72
     0
 73
     1
 93
        4
 10
-1200.000001788141
 20
2225.000002980237
 10
-1203.921852871754
 20
2225.000002980237
 10
-1203.921852871754
 20
2200.213303769403
 10
-1200.000001788141
 20
2200.213303769403
 97
        0
 75
     0
 76
     1
 98
        0
  0
HATCH
  5
E3
330
CF
100
AcDbEntity
  8
2D - Ogólne
  6
Continuous
370
    13
100
AcDbHatch
 10
0.0
 20
0.0
 30
0.0
210
0.0
220
0.0
230
1.0
  2
SOLID
 70
     1
 71
     0
 91
        1
 92
        2
 72
     0
 73
     1
 93
        4
 10
-1200.000001564027
 20
2324.999999188582
 10
-1203.921854979239
 20
2324.999999188582
 10
-1203.921854979239
 20
2300.000003843313
 10
-1200.000001564027
 20
2300.000003843313
 97
        0
 75
     0
 76
     1
 98
        0
  0
HATCH
  5
E4
330
CF
100
AcDbEntity
  8
2D - Ogólne
  6
Continuous
370
    13
100
AcDbHatch
 10
0.0
 20
0.0
 30
0.0
210
0.0
220
0.0
230
1.0
  2
SOLID
 70
     1
 71
     0
 91
        1
 92
        2
 72
     0
 73
     1
 93
        4
 10
-1200.000001564027
 20
2425.000003805961
 10
-1203.921854979239
 20
2425.000003805961
 10
-1203.921854979239
 20
2400.000000715258
 10
-1200.000001564027
 20
2400.000000715258
 97
        0
 75
     0
 76
     1
 98
        0
  0
HATCH
  5
E5
330
CF
100
AcDbEntity
  8
2D - Ogólne
  6
Continuous
370
    13
100
AcDbHatch
 10
0.0
 20
0.0
 30
0.0
210
0.0
220
0.0
230
1.0
  2
SOLID
 70
     1
 71
     0
 91
        1
 92
        2
 72
     0
 73
     1
 93
        4
 10
-1200.000001564027
 20
2525.000000677906
 10
-1203.921854979239
 20
2525.000000677906
 10
-1203.921854979239
 20
2499.999997587203
 10
-1200.000001564027
 20
2499.999997587203
 97
        0
 75
     0
 76
     1
 98
        0
  0
HATCH
  5
E6
330
CF
100
AcDbEntity
  8
2D - Ogólne
  6
Continuous
370
    13
100
AcDbHatch
 10
0.0
 20
0.0
 30
0.0
210
0.0
220
0.0
230
1.0
  2
SOLID
 70
     1
 71
     0
 91
        1
 92
        2
 72
     0
 73
     1
 93
        4
 10
-1200.000001564027
 20
2624.999997549851
 10
-1203.921854979239
 20
2624.999997549851
 10
-1203.921854979239
 20
2600.000002204582
 10
-1200.000001564027
 20
2600.000002204582
 97
        0
 75
     0
 76
     1
 98
        0
  0
HATCH
  5
E7
330
CF
100
AcDbEntity
  8
2D - Ogólne
  6
Continuous
370
    13
100
AcDbHatch
 10
0.0
 20
0.0
 30
0.0
210
0.0
220
0.0
230
1.0
  2
SOLID
 70
     1
 71
     0
 91
        1
 92
        2
 72
     0
 73
     1
 93
        4
 10
-1200.000000385947
 20
2720.000001602585
 10
-1203.921856020876
 20
2720.000001602585
 10
-1203.921856020876
 20
2700.000000192976
 10
-1200.000000385947
 20
2700.000000192976
 97
        0
 75
     0
 76
     1
 98
        0
  0
ENDBLK
  5
D1
330
CF
100
AcDbEntity
  8
0
100
AcDbBlockEnd
  0
BLOCK
  5
F1
330
F0
100
AcDbEntity
  8
0
100
AcDbBlockBegin
  2
Izolacja cieplna 12_73
 70
     0
 10
-928.4508477520782
 20
1031.588387580286
 30
0.0
  3
Izolacja cieplna 12_73
  1

  0
LINE
  5
F3
330
F0
100
AcDbEntity
  8
@__WIDOCZNE
  6
Continuous
370
    13
100
AcDbLine
 10
-934.4106783497105
 20
1036.233983756587
 30
0.0
 11
-942.4912000295178
 21
1039.799653267548
 31
0.0
  0
LINE
  5
F4
330
F0
100
AcDbEntity
  8
@__WIDOCZNE
  6
Continuous
370
    13
100
AcDbLine
 10
-942.4912000295178
 20
1031.948363670969
 30
0.0
 11
-934.4106783497105
 21
1035.514029968502
 31
0.0
  0
LINE
  5
F5
330
F0
100
AcDbEntity
  8
@__WIDOCZNE
  6
Continuous
370
    13
100
AcDbLine
 10
-934.4106783497105
 20
1044.805412328016
 30
0.0
 11
-942.4912000295178
 21
1048.371081838977
 31
0.0
  0
LINE
  5
F6
330
F0
100
AcDbEntity
  8
@__WIDOCZNE
  6
Continuous
370
    13
100
AcDbLine
 10
-942.4912000295178
 20
1040.519792242397
 30
0.0
 11
-934.4106783497105
 21
1044.08545853993
 31
0.0
  0
LINE
  5
F7
330
F0
100
AcDbEntity
  8
@__WIDOCZNE
  6
Continuous
370
    13
100
AcDbLine
 10
-934.4106783497105
 20
1053.376840899444
 30
0.0
 11
-942.4912000295178
 21
1056.942510410405
 31
0.0
  0
LINE
  5
F8
330
F0
100
AcDbEntity
  8
@__WIDOCZNE
  6
Continuous
370
    13
100
AcDbLine
 10
-942.4912000295178
 20
1049.091220813826
 30
0.0
 11
-934.4106783497105
 21
1052.656887111359
 31
0.0
  0
LINE
  5
F9
330
F0
100
AcDbEntity
  8
@__WIDOCZNE
  6
Continuous
370
    13
100
AcDbLine
 10
-934.4106783497105
 20
1061.948269470873
 30
0.0
 11
-942.4912000295178
 21
1065.513938981834
 31
0.0
  0
LINE
  5
FA
330
F0
100
AcDbEntity
  8
@__WIDOCZNE
  6
Continuous
370
    13
100
AcDbLine
 10
-942.4912000295178
 20
1057.662649385254
 30
0.0
 11
-934.4106783497105
 21
1061.228315682788
 31
0.0
  0
LINE
  5
FB
330
F0
100
AcDbEntity
  8
@__WIDOCZNE
  6
Continuous
370
    13
100
AcDbLine
 10
-934.4106783497105
 20
1070.519698042302
 30
0.0
 11
-942.4912000295178
 21
1074.085367553263
 31
0.0
  0
LINE
  5
FC
330
F0
100
AcDbEntity
  8
@__WIDOCZNE
  6
Continuous
370
    13
100
AcDbLine
 10
-942.4912000295178
 20
1066.234077956683
 30
0.0
 11
-934.4106783497105
 21
1069.799744254216
 31
0.0
  0
LINE
  5
FD
330
F0
100
AcDbEntity
  8
@__WIDOCZNE
  6
Continuous
370
    13
100
AcDbLine
 10
-934.4106783497105
 20
1079.09112661373
 30
0.0
 11
-942.4912000295178
 21
1082.656796124691
 31
0.0
  0
LINE
  5
FE
330
F0
100
AcDbEntity
  8
@__WIDOCZNE
  6
Continuous
370
    13
100
AcDbLine
 10
-942.4912000295178
 20
1074.805506528111
 30
0.0
 11
-934.4106783497105
 21
1078.371172825645
 31
0.0
  0
LINE
  5
FF
330
F0
100
AcDbEntity
  8
@__WIDOCZNE
  6
Continuous
370
    13
100
AcDbLine
 10
-934.4106783497105
 20
1087.662555185159
 30
0.0
 11
-942.4912000295178
 21
1091.22822469612
 31
0.0
  0
LINE
  5
100
330
F0
100
AcDbEntity
  8
@__WIDOCZNE
  6
Continuous
370
    13
100
AcDbLine
 10
-942.4912000295178
 20
1083.37693509954
 30
0.0
 11
-934.4106783497105
 21
1086.942601397073
 31
0.0
  0
ELLIPSE
  5
101
330
F0
100
AcDbEntity
  8
@__WIDOCZNE
  6
Continuous
370
    13
100
AcDbEllipse
 10
-932.7043166907044
 20
1031.588387580286
 30
0.0
 11
2.624186197982728E-16
 21
4.285621290660766
 31
0.0
210
0.0
220
0.0
230
1.0
 40
0.9924977147570956
 41
4.71238898038469
 42
6.695978724992947
  0
ELLIPSE
  5
102
330
F0
100
AcDbEntity
  8
@__WIDOCZNE
  6
Continuous
370
    13
100
AcDbEllipse
 10
-944.1975632832133
 20
1035.874010879346
 30
0.0
 11
2.624186197982728E-16
 21
4.285621290660766
 31
0.0
210
0.0
220
0.0
230
1.0
 40
0.9924977147570956
 41
5.870391545941226
 42
9.837571270799275
  0
ELLIPSE
  5
103
330
F0
100
AcDbEntity
  8
@__WIDOCZNE
  6
Continuous
370
    13
100
AcDbEllipse
 10
-932.7043182853736
 20
1040.159629358256
 30
0.0
 11
2.624186197982728E-16
 21
4.285621290660766
 31
0.0
210
0.0
220
0.0
230
1.0
 40
0.9924977147570956
 41
2.72879988000158
 42
6.695979068410936
  0
ELLIPSE
  5
104
330
F0
100
AcDbEntity
  8
@__WIDOCZNE
  6
Continuous
370
    13
100
AcDbEllipse
 10
-944.1975632832133
 20
1044.445439450775
 30
0.0
 11
2.624186197982728E-16
 21
4.285621290660766
 31
0.0
210
0.0
220
0.0
230
1.0
 40
0.9924977147570956
 41
5.870391545941226
 42
9.837571270799275
  0
ELLIPSE
  5
105
330
F0
100
AcDbEntity
  8
@__WIDOCZNE
  6
Continuous
370
    13
100
AcDbEllipse
 10
-932.7043182853736
 20
1048.731057929685
 30
0.0
 11
2.624186197982728E-16
 21
4.285621290660766
 31
0.0
210
0.0
220
0.0
230
1.0
 40
0.9924977147570956
 41
2.72879988000158
 42
6.695979068410936
  0
ELLIPSE
  5
106
330
F0
100
AcDbEntity
  8
@__WIDOCZNE
  6
Continuous
370
    13
100
AcDbEllipse
 10
-944.1975632832133
 20
1053.016868022203
 30
0.0
 11
2.624186197982728E-16
 21
4.285621290660766
 31
0.0
210
0.0
220
0.0
230
1.0
 40
0.9924977147570956
 41
5.870391545941206
 42
9.837571270799256
  0
ELLIPSE
  5
107
330
F0
100
AcDbEntity
  8
@__WIDOCZNE
  6
Continuous
370
    13
100
AcDbEllipse
 10
-932.7043182853736
 20
1057.302486501113
 30
0.0
 11
2.624186197982728E-16
 21
4.285621290660766
 31
0.0
210
0.0
220
0.0
230
1.0
 40
0.9924977147570956
 41
2.72879988000158
 42
6.695979068410936
  0
ELLIPSE
  5
108
330
F0
100
AcDbEntity
  8
@__WIDOCZNE
  6
Continuous
370
    13
100
AcDbEllipse
 10
-944.1975632832133
 20
1061.588296593632
 30
0.0
 11
2.624186197982728E-16
 21
4.285621290660766
 31
0.0
210
0.0
220
0.0
230
1.0
 40
0.9924977147570956
 41
5.870391545941226
 42
9.837571270799275
  0
ELLIPSE
  5
109
330
F0
100
AcDbEntity
  8
@__WIDOCZNE
  6
Continuous
370
    13
100
AcDbEllipse
 10
-932.7043182853736
 20
1065.873915072542
 30
0.0
 11
2.624186197982728E-16
 21
4.285621290660766
 31
0.0
210
0.0
220
0.0
230
1.0
 40
0.9924977147570956
 41
2.728799880001602
 42
6.695979068410956
  0
ELLIPSE
  5
10A
330
F0
100
AcDbEntity
  8
@__WIDOCZNE
  6
Continuous
370
    13
100
AcDbEllipse
 10
-944.1975632832133
 20
1070.159725165061
 30
0.0
 11
2.624186197982728E-16
 21
4.285621290660766
 31
0.0
210
0.0
220
0.0
230
1.0
 40
0.9924977147570956
 41
5.870391545941226
 42
9.837571270799256
  0
ELLIPSE
  5
10B
330
F0
100
AcDbEntity
  8
@__WIDOCZNE
  6
Continuous
370
    13
100
AcDbEllipse
 10
-932.7043182853736
 20
1074.445343643971
 30
0.0
 11
2.624186197982728E-16
 21
4.285621290660766
 31
0.0
210
0.0
220
0.0
230
1.0
 40
0.9924977147570956
 41
2.72879988000158
 42
6.695979068410936
  0
ELLIPSE
  5
10C
330
F0
100
AcDbEntity
  8
@__WIDOCZNE
  6
Continuous
370
    13
100
AcDbEllipse
 10
-944.1975632832133
 20
1078.731153736489
 30
0.0
 11
2.624186197982728E-16
 21
4.285621290660766
 31
0.0
210
0.0
220
0.0
230
1.0
 40
0.9924977147570956
 41
5.870391545941226
 42
9.837571270799275
  0
ELLIPSE
  5
10D
330
F0
100
AcDbEntity
  8
@__WIDOCZNE
  6
Continuous
370
    13
100
AcDbEllipse
 10
-932.7043182853736
 20
1083.016772215399
 30
0.0
 11
2.624186197982728E-16
 21
4.285621290660766
 31
0.0
210
0.0
220
0.0
230
1.0
 40
0.9924977147570956
 41
2.728799880001602
 42
6.695979068410956
  0
ELLIPSE
  5
10E
330
F0
100
AcDbEntity
  8
@__WIDOCZNE
  6
Continuous
370
    13
100
AcDbEllipse
 10
-944.1975632832133
 20
1087.302582307918
 30
0.0
 11
2.624186197982728E-16
 21
4.285621290660766
 31
0.0
210
0.0
220
0.0
230
1.0
 40
0.9924977147570956
 41
5.870391545941226
 42
9.837571270799256
  0
ELLIPSE
  5
10F
330
F0
100
AcDbEntity
  8
@__WIDOCZNE
  6
Continuous
370
    13
100
AcDbEllipse
 10
-932.7043182853736
 20
1091.588200786828
 30
0.0
 11
2.624186197982728E-16
 21
4.285621290660766
 31
0.0
210
0.0
220
0.0
230
1.0
 40
0.9924977147570956
 41
2.72879988000158
 42
4.71238898038469
  0
ENDBLK
  5
F2
330
F0
100
AcDbEntity
  8
0
100
AcDbBlockEnd
  0
BLOCK
  5
112
330
111
100
AcDbEntity
  8
0
100
AcDbBlockBegin
  2
Izolacja cieplna 12_72
 70
     0
 10
-948.4508473534154
 20
959.5877220539375
 30
0.0
  3
Izolacja cieplna 12_72
  1

  0
LINE
  5
114
330
111
100
AcDbEntity
  8
@__WIDOCZNE
  6
Continuous
370
    13
100
AcDbLine
 10
-931.7158695140466
 20
981.0431122054136
 30
0.0
 11
-918.8711456112555
 21
1010.13299025272
 31
0.0
  0
LINE
  5
115
330
111
100
AcDbEntity
  8
@__WIDOCZNE
  6
Continuous
370
    13
100
AcDbLine
 10
-947.1540941119254
 20
1010.13299025272
 30
0.0
 11
-934.309381784967
 21
981.0431122054136
 31
0.0
  0
LINE
  5
116
330
111
100
AcDbEntity
  8
@__WIDOCZNE
  6
Continuous
370
    13
100
AcDbLine
 10
-900.8387416383287
 20
981.0431122054136
 30
0.0
 11
-887.9940177355377
 21
1010.13299025272
 31
0.0
  0
LINE
  5
117
330
111
100
AcDbEntity
  8
@__WIDOCZNE
  6
Continuous
370
    13
100
AcDbLine
 10
-916.2769662362076
 20
1010.13299025272
 30
0.0
 11
-903.4322539092491
 21
981.0431122054136
 31
0.0
  0
LINE
  5
118
330
111
100
AcDbEntity
  8
@__WIDOCZNE
  6
Continuous
370
    13
100
AcDbLine
 10
-869.9616137626108
 20
981.0431122054136
 30
0.0
 11
-857.1168898598198
 21
1010.13299025272
 31
0.0
  0
LINE
  5
119
330
111
100
AcDbEntity
  8
@__WIDOCZNE
  6
Continuous
370
    13
100
AcDbLine
 10
-885.3998383604896
 20
1010.13299025272
 30
0.0
 11
-872.5551260335312
 21
981.0431122054136
 31
0.0
  0
LINE
  5
11A
330
111
100
AcDbEntity
  8
@__WIDOCZNE
  6
Continuous
370
    13
100
AcDbLine
 10
-839.0844858868929
 20
981.0431122054136
 30
0.0
 11
-826.239761984102
 21
1010.13299025272
 31
0.0
  0
LINE
  5
11B
330
111
100
AcDbEntity
  8
@__WIDOCZNE
  6
Continuous
370
    13
100
AcDbLine
 10
-854.5227104847718
 20
1010.13299025272
 30
0.0
 11
-841.6779981578132
 21
981.0431122054136
 31
0.0
  0
LINE
  5
11C
330
111
100
AcDbEntity
  8
@__WIDOCZNE
  6
Continuous
370
    13
100
AcDbLine
 10
-808.2073580111751
 20
981.0431122054136
 30
0.0
 11
-795.362634108384
 21
1010.13299025272
 31
0.0
  0
LINE
  5
11D
330
111
100
AcDbEntity
  8
@__WIDOCZNE
  6
Continuous
370
    13
100
AcDbLine
 10
-823.6455826090539
 20
1010.13299025272
 30
0.0
 11
-810.8008702820955
 21
981.0431122054136
 31
0.0
  0
LINE
  5
11E
330
111
100
AcDbEntity
  8
@__WIDOCZNE
  6
Continuous
370
    13
100
AcDbLine
 10
-777.3302301354572
 20
981.0431122054136
 30
0.0
 11
-764.4855062326662
 21
1010.13299025272
 31
0.0
  0
LINE
  5
11F
330
111
100
AcDbEntity
  8
@__WIDOCZNE
  6
Continuous
370
    13
100
AcDbLine
 10
-792.7684547333361
 20
1010.13299025272
 30
0.0
 11
-779.9237424063776
 21
981.0431122054136
 31
0.0
  0
LINE
  5
120
330
111
100
AcDbEntity
  8
@__WIDOCZNE
  6
Continuous
370
    13
100
AcDbLine
 10
-746.4531022597394
 20
981.0431122054136
 30
0.0
 11
-733.6083783569484
 21
1010.13299025272
 31
0.0
  0
LINE
  5
121
330
111
100
AcDbEntity
  8
@__WIDOCZNE
  6
Continuous
370
    13
100
AcDbLine
 10
-761.8913268576182
 20
1010.13299025272
 30
0.0
 11
-749.0466145306598
 21
981.0431122054136
 31
0.0
  0
LINE
  5
122
330
111
100
AcDbEntity
  8
@__WIDOCZNE
  6
Continuous
370
    13
100
AcDbLine
 10
-715.5759743840215
 20
981.0431122054136
 30
0.0
 11
-702.7312504812304
 21
1010.13299025272
 31
0.0
  0
LINE
  5
123
330
111
100
AcDbEntity
  8
@__WIDOCZNE
  6
Continuous
370
    13
100
AcDbLine
 10
-731.0141989819003
 20
1010.13299025272
 30
0.0
 11
-718.1694866549419
 21
981.0431122054136
 31
0.0
  0
LINE
  5
124
330
111
100
AcDbEntity
  8
@__WIDOCZNE
  6
Continuous
370
    13
100
AcDbLine
 10
-684.6988465083036
 20
981.0431122054136
 30
0.0
 11
-671.8541226055125
 21
1010.13299025272
 31
0.0
  0
LINE
  5
125
330
111
100
AcDbEntity
  8
@__WIDOCZNE
  6
Continuous
370
    13
100
AcDbLine
 10
-700.1370711061825
 20
1010.13299025272
 30
0.0
 11
-687.2923587792241
 21
981.0431122054136
 31
0.0
  0
LINE
  5
126
330
111
100
AcDbEntity
  8
@__WIDOCZNE
  6
Continuous
370
    13
100
AcDbLine
 10
-653.8217186325858
 20
981.0431122054136
 30
0.0
 11
-640.9769947297948
 21
1010.13299025272
 31
0.0
  0
LINE
  5
127
330
111
100
AcDbEntity
  8
@__WIDOCZNE
  6
Continuous
370
    13
100
AcDbLine
 10
-669.2599432304646
 20
1010.13299025272
 30
0.0
 11
-656.4152309035062
 21
981.0431122054136
 31
0.0
  0
LINE
  5
128
330
111
100
AcDbEntity
  8
@__WIDOCZNE
  6
Continuous
370
    13
100
AcDbLine
 10
-622.9445907568678
 20
981.0431122054136
 30
0.0
 11
-610.0998668540769
 21
1010.13299025272
 31
0.0
  0
LINE
  5
129
330
111
100
AcDbEntity
  8
@__WIDOCZNE
  6
Continuous
370
    13
100
AcDbLine
 10
-638.3828153547468
 20
1010.13299025272
 30
0.0
 11
-625.5381030277882
 21
981.0431122054136
 31
0.0
  0
LINE
  5
12A
330
111
100
AcDbEntity
  8
@__WIDOCZNE
  6
Continuous
370
    13
100
AcDbLine
 10
-592.0674628811499
 20
981.0431122054136
 30
0.0
 11
-579.222738978359
 21
1010.13299025272
 31
0.0
  0
LINE
  5
12B
330
111
100
AcDbEntity
  8
@__WIDOCZNE
  6
Continuous
370
    13
100
AcDbLine
 10
-607.5056874790288
 20
1010.13299025272
 30
0.0
 11
-594.6609751520704
 21
981.0431122054136
 31
0.0
  0
LINE
  5
12C
330
111
100
AcDbEntity
  8
@__WIDOCZNE
  6
Continuous
370
    13
100
AcDbLine
 10
-561.1903350054322
 20
981.0431122054136
 30
0.0
 11
-548.345611102641
 21
1010.13299025272
 31
0.0
  0
LINE
  5
12D
330
111
100
AcDbEntity
  8
@__WIDOCZNE
  6
Continuous
370
    13
100
AcDbLine
 10
-576.6285596033109
 20
1010.13299025272
 30
0.0
 11
-563.7838472763525
 21
981.0431122054136
 31
0.0
  0
LINE
  5
12E
330
111
100
AcDbEntity
  8
@__WIDOCZNE
  6
Continuous
370
    13
100
AcDbLine
 10
-530.3132071297142
 20
981.0431122054136
 30
0.0
 11
-517.4684832269231
 21
1010.13299025272
 31
0.0
  0
LINE
  5
12F
330
111
100
AcDbEntity
  8
@__WIDOCZNE
  6
Continuous
370
    13
100
AcDbLine
 10
-545.7514317275931
 20
1010.13299025272
 30
0.0
 11
-532.9067194006346
 21
981.0431122054136
 31
0.0
  0
LINE
  5
130
330
111
100
AcDbEntity
  8
@__WIDOCZNE
  6
Continuous
370
    13
100
AcDbLine
 10
-499.4360792539963
 20
981.0431122054136
 30
0.0
 11
-486.5913553512053
 21
1010.13299025272
 31
0.0
  0
LINE
  5
131
330
111
100
AcDbEntity
  8
@__WIDOCZNE
  6
Continuous
370
    13
100
AcDbLine
 10
-514.8743038518752
 20
1010.13299025272
 30
0.0
 11
-502.0295915249167
 21
981.0431122054136
 31
0.0
  0
LINE
  5
132
330
111
100
AcDbEntity
  8
@__WIDOCZNE
  6
Continuous
370
    13
100
AcDbLine
 10
-468.5589513782784
 20
981.0431122054136
 30
0.0
 11
-455.7142274754874
 21
1010.13299025272
 31
0.0
  0
LINE
  5
133
330
111
100
AcDbEntity
  8
@__WIDOCZNE
  6
Continuous
370
    13
100
AcDbLine
 10
-483.9971759761573
 20
1010.13299025272
 30
0.0
 11
-471.1524636491988
 21
981.0431122054136
 31
0.0
  0
LINE
  5
134
330
111
100
AcDbEntity
  8
@__WIDOCZNE
  6
Continuous
370
    13
100
AcDbLine
 10
-437.6818235025605
 20
981.0431122054136
 30
0.0
 11
-424.8370995997694
 21
1010.13299025272
 31
0.0
  0
LINE
  5
135
330
111
100
AcDbEntity
  8
@__WIDOCZNE
  6
Continuous
370
    13
100
AcDbLine
 10
-453.1200481004394
 20
1010.13299025272
 30
0.0
 11
-440.2753357734809
 21
981.0431122054136
 31
0.0
  0
LINE
  5
136
330
111
100
AcDbEntity
  8
@__WIDOCZNE
  6
Continuous
370
    13
100
AcDbLine
 10
-406.8046956268426
 20
981.0431122054136
 30
0.0
 11
-393.9599717240516
 21
1010.13299025272
 31
0.0
  0
LINE
  5
137
330
111
100
AcDbEntity
  8
@__WIDOCZNE
  6
Continuous
370
    13
100
AcDbLine
 10
-422.2429202247216
 20
1010.13299025272
 30
0.0
 11
-409.398207897763
 21
981.0431122054136
 31
0.0
  0
LINE
  5
138
330
111
100
AcDbEntity
  8
@__WIDOCZNE
  6
Continuous
370
    13
100
AcDbLine
 10
-375.9275677511248
 20
981.0431122054136
 30
0.0
 11
-363.0828438483338
 21
1010.13299025272
 31
0.0
  0
LINE
  5
139
330
111
100
AcDbEntity
  8
@__WIDOCZNE
  6
Continuous
370
    13
100
AcDbLine
 10
-391.3657923490037
 20
1010.13299025272
 30
0.0
 11
-378.5210800220452
 21
981.0431122054136
 31
0.0
  0
LINE
  5
13A
330
111
100
AcDbEntity
  8
@__WIDOCZNE
  6
Continuous
370
    13
100
AcDbLine
 10
-345.0504398754069
 20
981.0431122054136
 30
0.0
 11
-332.205715972616
 21
1010.13299025272
 31
0.0
  0
LINE
  5
13B
330
111
100
AcDbEntity
  8
@__WIDOCZNE
  6
Continuous
370
    13
100
AcDbLine
 10
-360.4886644732859
 20
1010.13299025272
 30
0.0
 11
-347.6439521463274
 21
981.0431122054136
 31
0.0
  0
LINE
  5
13C
330
111
100
AcDbEntity
  8
@__WIDOCZNE
  6
Continuous
370
    13
100
AcDbLine
 10
-314.1733119996891
 20
981.0431122054136
 30
0.0
 11
-301.3285880968981
 21
1010.13299025272
 31
0.0
  0
LINE
  5
13D
330
111
100
AcDbEntity
  8
@__WIDOCZNE
  6
Continuous
370
    13
100
AcDbLine
 10
-329.611536597568
 20
1010.13299025272
 30
0.0
 11
-316.7668242706096
 21
981.0431122054136
 31
0.0
  0
ELLIPSE
  5
13E
330
111
100
AcDbEntity
  8
@__WIDOCZNE
  6
Continuous
370
    13
100
AcDbEllipse
 10
-948.4508473534154
 20
974.9002102329918
 30
0.0
 11
15.43822893884035
 21
0.0
 31
0.0
210
0.0
220
0.0
230
1.0
 40
0.9918553271184227
 41
4.71238898038469
 42
6.695978724992973
  0
ELLIPSE
  5
13F
330
111
100
AcDbEntity
  8
@__WIDOCZNE
  6
Continuous
370
    13
100
AcDbEllipse
 10
-933.0126111796554
 20
1016.275897966024
 30
0.0
 11
15.43822893884035
 21
0.0
 31
0.0
210
0.0
220
0.0
230
1.0
 40
0.9918553271184227
 41
5.870391545941209
 42
9.837571270799241
  0
ELLIPSE
  5
140
330
111
100
AcDbEntity
  8
@__WIDOCZNE
  6
Continuous
370
    13
100
AcDbEllipse
 10
-917.5743923696734
 20
974.9002159738011
 30
0.0
 11
15.43822893884035
 21
0.0
 31
0.0
210
0.0
220
0.0
230
1.0
 40
0.9918553271184227
 41
2.728799880001598
 42
6.695979068410931
  0
ELLIPSE
  5
141
330
111
100
AcDbEntity
  8
@__WIDOCZNE
  6
Continuous
370
    13
100
AcDbEllipse
 10
-902.1354833039375
 20
1016.275897966024
 30
0.0
 11
15.43822893884035
 21
0.0
 31
0.0
210
0.0
220
0.0
230
1.0
 40
0.9918553271184227
 41
5.870391545941207
 42
9.837571270799238
  0
ELLIPSE
  5
142
330
111
100
AcDbEntity
  8
@__WIDOCZNE
  6
Continuous
370
    13
100
AcDbEllipse
 10
-886.6972644939555
 20
974.9002159738011
 30
0.0
 11
15.43822893884035
 21
0.0
 31
0.0
210
0.0
220
0.0
230
1.0
 40
0.9918553271184227
 41
2.728799880001598
 42
6.695979068410935
  0
ELLIPSE
  5
143
330
111
100
AcDbEntity
  8
@__WIDOCZNE
  6
Continuous
370
    13
100
AcDbEllipse
 10
-871.2583554282196
 20
1016.275897966024
 30
0.0
 11
15.43822893884035
 21
0.0
 31
0.0
210
0.0
220
0.0
230
1.0
 40
0.9918553271184227
 41
5.870391545941207
 42
9.837571270799241
  0
ELLIPSE
  5
144
330
111
100
AcDbEntity
  8
@__WIDOCZNE
  6
Continuous
370
    13
100
AcDbEllipse
 10
-855.8201366182376
 20
974.9002159738011
 30
0.0
 11
15.43822893884035
 21
0.0
 31
0.0
210
0.0
220
0.0
230
1.0
 40
0.9918553271184227
 41
2.728799880001598
 42
6.695979068410931
  0
ELLIPSE
  5
145
330
111
100
AcDbEntity
  8
@__WIDOCZNE
  6
Continuous
370
    13
100
AcDbEllipse
 10
-840.3812275525017
 20
1016.275897966024
 30
0.0
 11
15.43822893884035
 21
0.0
 31
0.0
210
0.0
220
0.0
230
1.0
 40
0.9918553271184227
 41
5.870391545941207
 42
9.837571270799241
  0
ELLIPSE
  5
146
330
111
100
AcDbEntity
  8
@__WIDOCZNE
  6
Continuous
370
    13
100
AcDbEllipse
 10
-824.9430087425199
 20
974.9002159738011
 30
0.0
 11
15.43822893884035
 21
0.0
 31
0.0
210
0.0
220
0.0
230
1.0
 40
0.9918553271184227
 41
2.728799880001595
 42
6.695979068410931
  0
ELLIPSE
  5
147
330
111
100
AcDbEntity
  8
@__WIDOCZNE
  6
Continuous
370
    13
100
AcDbEllipse
 10
-809.504099676784
 20
1016.275897966024
 30
0.0
 11
15.43822893884035
 21
0.0
 31
0.0
210
0.0
220
0.0
230
1.0
 40
0.9918553271184227
 41
5.870391545941209
 42
9.837571270799241
  0
ELLIPSE
  5
148
330
111
100
AcDbEntity
  8
@__WIDOCZNE
  6
Continuous
370
    13
100
AcDbEllipse
 10
-794.0658808668019
 20
974.9002159738011
 30
0.0
 11
15.43822893884035
 21
0.0
 31
0.0
210
0.0
220
0.0
230
1.0
 40
0.9918553271184227
 41
2.728799880001598
 42
6.695979068410935
  0
ELLIPSE
  5
149
330
111
100
AcDbEntity
  8
@__WIDOCZNE
  6
Continuous
370
    13
100
AcDbEllipse
 10
-778.626971801066
 20
1016.275897966024
 30
0.0
 11
15.43822893884035
 21
0.0
 31
0.0
210
0.0
220
0.0
230
1.0
 40
0.9918553271184227
 41
5.870391545941207
 42
9.837571270799241
  0
ELLIPSE
  5
14A
330
111
100
AcDbEntity
  8
@__WIDOCZNE
  6
Continuous
370
    13
100
AcDbEllipse
 10
-763.188752991084
 20
974.9002159738011
 30
0.0
 11
15.43822893884035
 21
0.0
 31
0.0
210
0.0
220
0.0
230
1.0
 40
0.9918553271184227
 41
2.728799880001598
 42
6.695979068410935
  0
ELLIPSE
  5
14B
330
111
100
AcDbEntity
  8
@__WIDOCZNE
  6
Continuous
370
    13
100
AcDbEllipse
 10
-747.7498439253482
 20
1016.275897966024
 30
0.0
 11
15.43822893884035
 21
0.0
 31
0.0
210
0.0
220
0.0
230
1.0
 40
0.9918553271184227
 41
5.870391545941207
 42
9.837571270799241
  0
ELLIPSE
  5
14C
330
111
100
AcDbEntity
  8
@__WIDOCZNE
  6
Continuous
370
    13
100
AcDbEllipse
 10
-732.3116251153662
 20
974.9002159738011
 30
0.0
 11
15.43822893884035
 21
0.0
 31
0.0
210
0.0
220
0.0
230
1.0
 40
0.9918553271184227
 41
2.728799880001598
 42
6.695979068410931
  0
ELLIPSE
  5
14D
330
111
100
AcDbEntity
  8
@__WIDOCZNE
  6
Continuous
370
    13
100
AcDbEllipse
 10
-716.8727160496303
 20
1016.275897966024
 30
0.0
 11
15.43822893884035
 21
0.0
 31
0.0
210
0.0
220
0.0
230
1.0
 40
0.9918553271184227
 41
5.870391545941209
 42
9.837571270799241
  0
ELLIPSE
  5
14E
330
111
100
AcDbEntity
  8
@__WIDOCZNE
  6
Continuous
370
    13
100
AcDbEllipse
 10
-701.4344972396482
 20
974.9002159738011
 30
0.0
 11
15.43822893884035
 21
0.0
 31
0.0
210
0.0
220
0.0
230
1.0
 40
0.9918553271184227
 41
2.728799880001601
 42
6.695979068410935
  0
ELLIPSE
  5
14F
330
111
100
AcDbEntity
  8
@__WIDOCZNE
  6
Continuous
370
    13
100
AcDbEllipse
 10
-685.9955881739123
 20
1016.275897966024
 30
0.0
 11
15.43822893884035
 21
0.0
 31
0.0
210
0.0
220
0.0
230
1.0
 40
0.9918553271184227
 41
5.870391545941207
 42
9.837571270799238
  0
ELLIPSE
  5
150
330
111
100
AcDbEntity
  8
@__WIDOCZNE
  6
Continuous
370
    13
100
AcDbEllipse
 10
-670.5573693639304
 20
974.9002159738011
 30
0.0
 11
15.43822893884035
 21
0.0
 31
0.0
210
0.0
220
0.0
230
1.0
 40
0.9918553271184227
 41
2.728799880001598
 42
6.695979068410935
  0
ELLIPSE
  5
151
330
111
100
AcDbEntity
  8
@__WIDOCZNE
  6
Continuous
370
    13
100
AcDbEllipse
 10
-655.1184602981946
 20
1016.275897966024
 30
0.0
 11
15.43822893884035
 21
0.0
 31
0.0
210
0.0
220
0.0
230
1.0
 40
0.9918553271184227
 41
5.870391545941207
 42
9.837571270799238
  0
ELLIPSE
  5
152
330
111
100
AcDbEntity
  8
@__WIDOCZNE
  6
Continuous
370
    13
100
AcDbEllipse
 10
-639.6802414882126
 20
974.9002159738011
 30
0.0
 11
15.43822893884035
 21
0.0
 31
0.0
210
0.0
220
0.0
230
1.0
 40
0.9918553271184227
 41
2.728799880001598
 42
6.695979068410931
  0
ELLIPSE
  5
153
330
111
100
AcDbEntity
  8
@__WIDOCZNE
  6
Continuous
370
    13
100
AcDbEllipse
 10
-624.2413324224767
 20
1016.275897966024
 30
0.0
 11
15.43822893884035
 21
0.0
 31
0.0
210
0.0
220
0.0
230
1.0
 40
0.9918553271184227
 41
5.870391545941207
 42
9.837571270799241
  0
ELLIPSE
  5
154
330
111
100
AcDbEntity
  8
@__WIDOCZNE
  6
Continuous
370
    13
100
AcDbEllipse
 10
-608.8031136124947
 20
974.9002159738011
 30
0.0
 11
15.43822893884035
 21
0.0
 31
0.0
210
0.0
220
0.0
230
1.0
 40
0.9918553271184227
 41
2.728799880001595
 42
6.695979068410931
  0
ELLIPSE
  5
155
330
111
100
AcDbEntity
  8
@__WIDOCZNE
  6
Continuous
370
    13
100
AcDbEllipse
 10
-593.3642045467587
 20
1016.275897966024
 30
0.0
 11
15.43822893884035
 21
0.0
 31
0.0
210
0.0
220
0.0
230
1.0
 40
0.9918553271184227
 41
5.870391545941207
 42
9.837571270799241
  0
ELLIPSE
  5
156
330
111
100
AcDbEntity
  8
@__WIDOCZNE
  6
Continuous
370
    13
100
AcDbEllipse
 10
-577.9259857367767
 20
974.9002159738011
 30
0.0
 11
15.43822893884035
 21
0.0
 31
0.0
210
0.0
220
0.0
230
1.0
 40
0.9918553271184227
 41
2.728799880001598
 42
6.695979068410935
  0
ELLIPSE
  5
157
330
111
100
AcDbEntity
  8
@__WIDOCZNE
  6
Continuous
370
    13
100
AcDbEllipse
 10
-562.4870766710408
 20
1016.275897966024
 30
0.0
 11
15.43822893884035
 21
0.0
 31
0.0
210
0.0
220
0.0
230
1.0
 40
0.9918553271184227
 41
5.870391545941207
 42
9.837571270799238
  0
ELLIPSE
  5
158
330
111
100
AcDbEntity
  8
@__WIDOCZNE
  6
Continuous
370
    13
100
AcDbEllipse
 10
-547.0488578610589
 20
974.9002159738011
 30
0.0
 11
15.43822893884035
 21
0.0
 31
0.0
210
0.0
220
0.0
230
1.0
 40
0.9918553271184227
 41
2.728799880001601
 42
6.695979068410935
  0
ELLIPSE
  5
159
330
111
100
AcDbEntity
  8
@__WIDOCZNE
  6
Continuous
370
    13
100
AcDbEllipse
 10
-531.609948795323
 20
1016.275897966024
 30
0.0
 11
15.43822893884035
 21
0.0
 31
0.0
210
0.0
220
0.0
230
1.0
 40
0.9918553271184227
 41
5.870391545941207
 42
9.837571270799238
  0
ELLIPSE
  5
15A
330
111
100
AcDbEntity
  8
@__WIDOCZNE
  6
Continuous
370
    13
100
AcDbEllipse
 10
-516.171729985341
 20
974.9002159738011
 30
0.0
 11
15.43822893884035
 21
0.0
 31
0.0
210
0.0
220
0.0
230
1.0
 40
0.9918553271184227
 41
2.728799880001598
 42
6.695979068410931
  0
ELLIPSE
  5
15B
330
111
100
AcDbEntity
  8
@__WIDOCZNE
  6
Continuous
370
    13
100
AcDbEllipse
 10
-500.7328209196052
 20
1016.275897966024
 30
0.0
 11
15.43822893884035
 21
0.0
 31
0.0
210
0.0
220
0.0
230
1.0
 40
0.9918553271184227
 41
5.870391545941207
 42
9.837571270799241
  0
ELLIPSE
  5
15C
330
111
100
AcDbEntity
  8
@__WIDOCZNE
  6
Continuous
370
    13
100
AcDbEllipse
 10
-485.2946021096231
 20
974.9002159738011
 30
0.0
 11
15.43822893884035
 21
0.0
 31
0.0
210
0.0
220
0.0
230
1.0
 40
0.9918553271184227
 41
2.728799880001598
 42
6.695979068410933
  0
ELLIPSE
  5
15D
330
111
100
AcDbEntity
  8
@__WIDOCZNE
  6
Continuous
370
    13
100
AcDbEllipse
 10
-469.8556930438872
 20
1016.275897966024
 30
0.0
 11
15.43822893884035
 21
0.0
 31
0.0
210
0.0
220
0.0
230
1.0
 40
0.9918553271184227
 41
5.870391545941207
 42
9.83757127079924
  0
ELLIPSE
  5
15E
330
111
100
AcDbEntity
  8
@__WIDOCZNE
  6
Continuous
370
    13
100
AcDbEllipse
 10
-454.4174742339052
 20
974.9002159738011
 30
0.0
 11
15.43822893884035
 21
0.0
 31
0.0
210
0.0
220
0.0
230
1.0
 40
0.9918553271184227
 41
2.728799880001598
 42
6.695979068410931
  0
ELLIPSE
  5
15F
330
111
100
AcDbEntity
  8
@__WIDOCZNE
  6
Continuous
370
    13
100
AcDbEllipse
 10
-438.9785651681694
 20
1016.275897966024
 30
0.0
 11
15.43822893884035
 21
0.0
 31
0.0
210
0.0
220
0.0
230
1.0
 40
0.9918553271184227
 41
5.870391545941209
 42
9.837571270799241
  0
ELLIPSE
  5
160
330
111
100
AcDbEntity
  8
@__WIDOCZNE
  6
Continuous
370
    13
100
AcDbEllipse
 10
-423.5403463581874
 20
974.9002159738011
 30
0.0
 11
15.43822893884035
 21
0.0
 31
0.0
210
0.0
220
0.0
230
1.0
 40
0.9918553271184227
 41
2.728799880001595
 42
6.695979068410931
  0
ELLIPSE
  5
161
330
111
100
AcDbEntity
  8
@__WIDOCZNE
  6
Continuous
370
    13
100
AcDbEllipse
 10
-408.1014372924515
 20
1016.275897966024
 30
0.0
 11
15.43822893884035
 21
0.0
 31
0.0
210
0.0
220
0.0
230
1.0
 40
0.9918553271184227
 41
5.870391545941209
 42
9.837571270799241
  0
ELLIPSE
  5
162
330
111
100
AcDbEntity
  8
@__WIDOCZNE
  6
Continuous
370
    13
100
AcDbEllipse
 10
-392.6632184824695
 20
974.9002159738011
 30
0.0
 11
15.43822893884035
 21
0.0
 31
0.0
210
0.0
220
0.0
230
1.0
 40
0.9918553271184227
 41
2.728799880001595
 42
6.695979068410931
  0
ELLIPSE
  5
163
330
111
100
AcDbEntity
  8
@__WIDOCZNE
  6
Continuous
370
    13
100
AcDbEllipse
 10
-377.2243094167337
 20
1016.275897966024
 30
0.0
 11
15.43822893884035
 21
0.0
 31
0.0
210
0.0
220
0.0
230
1.0
 40
0.9918553271184227
 41
5.870391545941209
 42
9.837571270799241
  0
ELLIPSE
  5
164
330
111
100
AcDbEntity
  8
@__WIDOCZNE
  6
Continuous
370
    13
100
AcDbEllipse
 10
-361.7860906067517
 20
974.9002159738011
 30
0.0
 11
15.43822893884035
 21
0.0
 31
0.0
210
0.0
220
0.0
230
1.0
 40
0.9918553271184227
 41
2.728799880001595
 42
6.695979068410931
  0
ELLIPSE
  5
165
330
111
100
AcDbEntity
  8
@__WIDOCZNE
  6
Continuous
370
    13
100
AcDbEllipse
 10
-346.3471815410159
 20
1016.275897966024
 30
0.0
 11
15.43822893884035
 21
0.0
 31
0.0
210
0.0
220
0.0
230
1.0
 40
0.9918553271184227
 41
5.870391545941209
 42
9.837571270799241
  0
ELLIPSE
  5
166
330
111
100
AcDbEntity
  8
@__WIDOCZNE
  6
Continuous
370
    13
100
AcDbEllipse
 10
-330.9089627310339
 20
974.9002159738011
 30
0.0
 11
15.43822893884035
 21
0.0
 31
0.0
210
0.0
220
0.0
230
1.0
 40
0.9918553271184227
 41
2.728799880001595
 42
6.695979068410931
  0
ELLIPSE
  5
167
330
111
100
AcDbEntity
  8
@__WIDOCZNE
  6
Continuous
370
    13
100
AcDbEllipse
 10
-315.470053665298
 20
1016.275897966024
 30
0.0
 11
15.43822893884035
 21
0.0
 31
0.0
210
0.0
220
0.0
230
1.0
 40
0.9918553271184227
 41
5.870391545941209
 42
9.837571270799241
  0
ELLIPSE
  5
168
330
111
100
AcDbEntity
  8
@__WIDOCZNE
  6
Continuous
370
    13
100
AcDbEllipse
 10
-300.031834855316
 20
974.9002159738011
 30
0.0
 11
15.43822893884035
 21
0.0
 31
0.0
210
0.0
220
0.0
230
1.0
 40
0.9918553271184227
 41
2.728799880001595
 42
4.71238898038469
  0
ENDBLK
  5
113
330
111
100
AcDbEntity
  8
0
100
AcDbBlockEnd
  0
BLOCK
  5
16B
330
16A
100
AcDbEntity
  8
0
100
AcDbBlockBegin
  2
Izolacja cieplna 12_70
 70
     0
 10
-928.4508477520782
 20
2232.988143067052
 30
0.0
  3
Izolacja cieplna 12_70
  1

  0
LINE
  5
16D
330
16A
100
AcDbEntity
  8
@__WIDOCZNE
  6
Continuous
370
    13
100
AcDbLine
 10
-934.4106783497105
 20
2237.633739243353
 30
0.0
 11
-942.4912000295178
 21
2241.199408754314
 31
0.0
  0
LINE
  5
16E
330
16A
100
AcDbEntity
  8
@__WIDOCZNE
  6
Continuous
370
    13
100
AcDbLine
 10
-942.4912000295178
 20
2233.348119157735
 30
0.0
 11
-934.4106783497105
 21
2236.913785455268
 31
0.0
  0
LINE
  5
16F
330
16A
100
AcDbEntity
  8
@__WIDOCZNE
  6
Continuous
370
    13
100
AcDbLine
 10
-934.4106783497105
 20
2246.205167814782
 30
0.0
 11
-942.4912000295178
 21
2249.770837325743
 31
0.0
  0
LINE
  5
170
330
16A
100
AcDbEntity
  8
@__WIDOCZNE
  6
Continuous
370
    13
100
AcDbLine
 10
-942.4912000295178
 20
2241.919547729163
 30
0.0
 11
-934.4106783497105
 21
2245.485214026696
 31
0.0
  0
LINE
  5
171
330
16A
100
AcDbEntity
  8
@__WIDOCZNE
  6
Continuous
370
    13
100
AcDbLine
 10
-934.4106783497105
 20
2254.77659638621
 30
0.0
 11
-942.4912000295178
 21
2258.342265897171
 31
0.0
  0
LINE
  5
172
330
16A
100
AcDbEntity
  8
@__WIDOCZNE
  6
Continuous
370
    13
100
AcDbLine
 10
-942.4912000295178
 20
2250.490976300592
 30
0.0
 11
-934.4106783497105
 21
2254.056642598125
 31
0.0
  0
LINE
  5
173
330
16A
100
AcDbEntity
  8
@__WIDOCZNE
  6
Continuous
370
    13
100
AcDbLine
 10
-934.4106783497105
 20
2263.348024957639
 30
0.0
 11
-942.4912000295178
 21
2266.9136944686
 31
0.0
  0
LINE
  5
174
330
16A
100
AcDbEntity
  8
@__WIDOCZNE
  6
Continuous
370
    13
100
AcDbLine
 10
-942.4912000295178
 20
2259.06240487202
 30
0.0
 11
-934.4106783497105
 21
2262.628071169554
 31
0.0
  0
LINE
  5
175
330
16A
100
AcDbEntity
  8
@__WIDOCZNE
  6
Continuous
370
    13
100
AcDbLine
 10
-934.4106783497105
 20
2271.919453529067
 30
0.0
 11
-942.4912000295178
 21
2275.485123040029
 31
0.0
  0
LINE
  5
176
330
16A
100
AcDbEntity
  8
@__WIDOCZNE
  6
Continuous
370
    13
100
AcDbLine
 10
-942.4912000295178
 20
2267.633833443449
 30
0.0
 11
-934.4106783497105
 21
2271.199499740982
 31
0.0
  0
LINE
  5
177
330
16A
100
AcDbEntity
  8
@__WIDOCZNE
  6
Continuous
370
    13
100
AcDbLine
 10
-934.4106783497105
 20
2280.490882100496
 30
0.0
 11
-942.4912000295178
 21
2284.056551611457
 31
0.0
  0
LINE
  5
178
330
16A
100
AcDbEntity
  8
@__WIDOCZNE
  6
Continuous
370
    13
100
AcDbLine
 10
-942.4912000295178
 20
2276.205262014877
 30
0.0
 11
-934.4106783497105
 21
2279.77092831241
 31
0.0
  0
LINE
  5
179
330
16A
100
AcDbEntity
  8
@__WIDOCZNE
  6
Continuous
370
    13
100
AcDbLine
 10
-934.4106783497105
 20
2289.062310671924
 30
0.0
 11
-942.4912000295178
 21
2292.627980182885
 31
0.0
  0
LINE
  5
17A
330
16A
100
AcDbEntity
  8
@__WIDOCZNE
  6
Continuous
370
    13
100
AcDbLine
 10
-942.4912000295178
 20
2284.776690586306
 30
0.0
 11
-934.4106783497105
 21
2288.342356883839
 31
0.0
  0
ELLIPSE
  5
17B
330
16A
100
AcDbEntity
  8
@__WIDOCZNE
  6
Continuous
370
    13
100
AcDbEllipse
 10
-932.7043166907044
 20
2232.988143067052
 30
0.0
 11
2.624186197982728E-16
 21
4.285621290660766
 31
0.0
210
0.0
220
0.0
230
1.0
 40
0.9924977147570956
 41
4.71238898038469
 42
6.695978724993042
  0
ELLIPSE
  5
17C
330
16A
100
AcDbEntity
  8
@__WIDOCZNE
  6
Continuous
370
    13
100
AcDbEllipse
 10
-944.1975632832133
 20
2237.273766366112
 30
0.0
 11
2.624186197982728E-16
 21
4.285621290660766
 31
0.0
210
0.0
220
0.0
230
1.0
 40
0.9924977147570956
 41
5.870391545941247
 42
9.837571270799248
  0
ELLIPSE
  5
17D
330
16A
100
AcDbEntity
  8
@__WIDOCZNE
  6
Continuous
370
    13
100
AcDbEllipse
 10
-932.7043182853736
 20
2241.559384845022
 30
0.0
 11
2.624186197982728E-16
 21
4.285621290660766
 31
0.0
210
0.0
220
0.0
230
1.0
 40
0.9924977147570956
 41
2.728799880001602
 42
6.695979068410983
  0
ELLIPSE
  5
17E
330
16A
100
AcDbEntity
  8
@__WIDOCZNE
  6
Continuous
370
    13
100
AcDbEllipse
 10
-944.1975632832133
 20
2245.845194937541
 30
0.0
 11
2.624186197982728E-16
 21
4.285621290660766
 31
0.0
210
0.0
220
0.0
230
1.0
 40
0.9924977147570956
 41
5.870391545941206
 42
9.837571270799208
  0
ELLIPSE
  5
17F
330
16A
100
AcDbEntity
  8
@__WIDOCZNE
  6
Continuous
370
    13
100
AcDbEllipse
 10
-932.7043182853736
 20
2250.130813416451
 30
0.0
 11
2.624186197982728E-16
 21
4.285621290660766
 31
0.0
210
0.0
220
0.0
230
1.0
 40
0.9924977147570956
 41
2.72879988000156
 42
6.695979068410983
  0
ELLIPSE
  5
180
330
16A
100
AcDbEntity
  8
@__WIDOCZNE
  6
Continuous
370
    13
100
AcDbEllipse
 10
-944.1975632832133
 20
2254.416623508969
 30
0.0
 11
2.624186197982728E-16
 21
4.285621290660766
 31
0.0
210
0.0
220
0.0
230
1.0
 40
0.9924977147570956
 41
5.870391545941206
 42
9.837571270799208
  0
ELLIPSE
  5
181
330
16A
100
AcDbEntity
  8
@__WIDOCZNE
  6
Continuous
370
    13
100
AcDbEllipse
 10
-932.7043182853736
 20
2258.702241987879
 30
0.0
 11
2.624186197982728E-16
 21
4.285621290660766
 31
0.0
210
0.0
220
0.0
230
1.0
 40
0.9924977147570956
 41
2.728799880001602
 42
6.695979068411025
  0
ELLIPSE
  5
182
330
16A
100
AcDbEntity
  8
@__WIDOCZNE
  6
Continuous
370
    13
100
AcDbEllipse
 10
-944.1975632832133
 20
2262.988052080398
 30
0.0
 11
2.624186197982728E-16
 21
4.285621290660766
 31
0.0
210
0.0
220
0.0
230
1.0
 40
0.9924977147570956
 41
5.870391545941206
 42
9.837571270799208
  0
ELLIPSE
  5
183
330
16A
100
AcDbEntity
  8
@__WIDOCZNE
  6
Continuous
370
    13
100
AcDbEllipse
 10
-932.7043182853736
 20
2267.273670559308
 30
0.0
 11
2.624186197982728E-16
 21
4.285621290660766
 31
0.0
210
0.0
220
0.0
230
1.0
 40
0.9924977147570956
 41
2.728799880001602
 42
6.695979068410983
  0
ELLIPSE
  5
184
330
16A
100
AcDbEntity
  8
@__WIDOCZNE
  6
Continuous
370
    13
100
AcDbEllipse
 10
-944.1975632832133
 20
2271.559480651826
 30
0.0
 11
2.624186197982728E-16
 21
4.285621290660766
 31
0.0
210
0.0
220
0.0
230
1.0
 40
0.9924977147570956
 41
5.870391545941247
 42
9.837571270799248
  0
ELLIPSE
  5
185
330
16A
100
AcDbEntity
  8
@__WIDOCZNE
  6
Continuous
370
    13
100
AcDbEllipse
 10
-932.7043182853736
 20
2275.845099130736
 30
0.0
 11
2.624186197982728E-16
 21
4.285621290660766
 31
0.0
210
0.0
220
0.0
230
1.0
 40
0.9924977147570956
 41
2.728799880001602
 42
6.695979068410983
  0
ELLIPSE
  5
186
330
16A
100
AcDbEntity
  8
@__WIDOCZNE
  6
Continuous
370
    13
100
AcDbEllipse
 10
-944.1975632832133
 20
2280.130909223255
 30
0.0
 11
2.624186197982728E-16
 21
4.285621290660766
 31
0.0
210
0.0
220
0.0
230
1.0
 40
0.9924977147570956
 41
5.870391545941206
 42
9.837571270799208
  0
ELLIPSE
  5
187
330
16A
100
AcDbEntity
  8
@__WIDOCZNE
  6
Continuous
370
    13
100
AcDbEllipse
 10
-932.7043182853736
 20
2284.416527702165
 30
0.0
 11
2.624186197982728E-16
 21
4.285621290660766
 31
0.0
210
0.0
220
0.0
230
1.0
 40
0.9924977147570956
 41
2.72879988000156
 42
6.695979068410983
  0
ELLIPSE
  5
188
330
16A
100
AcDbEntity
  8
@__WIDOCZNE
  6
Continuous
370
    13
100
AcDbEllipse
 10
-944.1975632832133
 20
2288.702337794683
 30
0.0
 11
2.624186197982728E-16
 21
4.285621290660766
 31
0.0
210
0.0
220
0.0
230
1.0
 40
0.9924977147570956
 41
5.870391545941206
 42
9.837571270799208
  0
ELLIPSE
  5
189
330
16A
100
AcDbEntity
  8
@__WIDOCZNE
  6
Continuous
370
    13
100
AcDbEllipse
 10
-932.7043182853736
 20
2292.987956273594
 30
0.0
 11
2.624186197982728E-16
 21
4.285621290660766
 31
0.0
210
0.0
220
0.0
230
1.0
 40
0.9924977147570956
 41
2.728799880001602
 42
4.71238898038469
  0
ENDBLK
  5
16C
330
16A
100
AcDbEntity
  8
0
100
AcDbBlockEnd
  0
BLOCK
  5
18C
330
18B
100
AcDbEntity
  8
0
100
AcDbBlockBegin
  2
Izolacja cieplna 12_71
 70
     0
 10
-948.4508473534154
 20
2160.987477540703
 30
0.0
  3
Izolacja cieplna 12_71
  1

  0
LINE
  5
18E
330
18B
100
AcDbEntity
  8
@__WIDOCZNE
  6
Continuous
370
    13
100
AcDbLine
 10
-931.7158695140466
 20
2182.442867692179
 30
0.0
 11
-918.8711456112555
 21
2211.532745739486
 31
0.0
  0
LINE
  5
18F
330
18B
100
AcDbEntity
  8
@__WIDOCZNE
  6
Continuous
370
    13
100
AcDbLine
 10
-947.1540941119254
 20
2211.532745739486
 30
0.0
 11
-934.309381784967
 21
2182.442867692179
 31
0.0
  0
LINE
  5
190
330
18B
100
AcDbEntity
  8
@__WIDOCZNE
  6
Continuous
370
    13
100
AcDbLine
 10
-900.8387416383287
 20
2182.442867692179
 30
0.0
 11
-887.9940177355377
 21
2211.532745739486
 31
0.0
  0
LINE
  5
191
330
18B
100
AcDbEntity
  8
@__WIDOCZNE
  6
Continuous
370
    13
100
AcDbLine
 10
-916.2769662362076
 20
2211.532745739486
 30
0.0
 11
-903.4322539092491
 21
2182.442867692179
 31
0.0
  0
LINE
  5
192
330
18B
100
AcDbEntity
  8
@__WIDOCZNE
  6
Continuous
370
    13
100
AcDbLine
 10
-869.9616137626108
 20
2182.442867692179
 30
0.0
 11
-857.1168898598198
 21
2211.532745739486
 31
0.0
  0
LINE
  5
193
330
18B
100
AcDbEntity
  8
@__WIDOCZNE
  6
Continuous
370
    13
100
AcDbLine
 10
-885.3998383604896
 20
2211.532745739486
 30
0.0
 11
-872.5551260335312
 21
2182.442867692179
 31
0.0
  0
LINE
  5
194
330
18B
100
AcDbEntity
  8
@__WIDOCZNE
  6
Continuous
370
    13
100
AcDbLine
 10
-839.0844858868929
 20
2182.442867692179
 30
0.0
 11
-826.239761984102
 21
2211.532745739486
 31
0.0
  0
LINE
  5
195
330
18B
100
AcDbEntity
  8
@__WIDOCZNE
  6
Continuous
370
    13
100
AcDbLine
 10
-854.5227104847718
 20
2211.532745739486
 30
0.0
 11
-841.6779981578132
 21
2182.442867692179
 31
0.0
  0
LINE
  5
196
330
18B
100
AcDbEntity
  8
@__WIDOCZNE
  6
Continuous
370
    13
100
AcDbLine
 10
-808.2073580111751
 20
2182.442867692179
 30
0.0
 11
-795.362634108384
 21
2211.532745739486
 31
0.0
  0
LINE
  5
197
330
18B
100
AcDbEntity
  8
@__WIDOCZNE
  6
Continuous
370
    13
100
AcDbLine
 10
-823.6455826090539
 20
2211.532745739486
 30
0.0
 11
-810.8008702820955
 21
2182.442867692179
 31
0.0
  0
LINE
  5
198
330
18B
100
AcDbEntity
  8
@__WIDOCZNE
  6
Continuous
370
    13
100
AcDbLine
 10
-777.3302301354572
 20
2182.442867692179
 30
0.0
 11
-764.4855062326662
 21
2211.532745739486
 31
0.0
  0
LINE
  5
199
330
18B
100
AcDbEntity
  8
@__WIDOCZNE
  6
Continuous
370
    13
100
AcDbLine
 10
-792.7684547333361
 20
2211.532745739486
 30
0.0
 11
-779.9237424063776
 21
2182.442867692179
 31
0.0
  0
LINE
  5
19A
330
18B
100
AcDbEntity
  8
@__WIDOCZNE
  6
Continuous
370
    13
100
AcDbLine
 10
-746.4531022597394
 20
2182.442867692179
 30
0.0
 11
-733.6083783569484
 21
2211.532745739486
 31
0.0
  0
LINE
  5
19B
330
18B
100
AcDbEntity
  8
@__WIDOCZNE
  6
Continuous
370
    13
100
AcDbLine
 10
-761.8913268576182
 20
2211.532745739486
 30
0.0
 11
-749.0466145306598
 21
2182.442867692179
 31
0.0
  0
LINE
  5
19C
330
18B
100
AcDbEntity
  8
@__WIDOCZNE
  6
Continuous
370
    13
100
AcDbLine
 10
-715.5759743840215
 20
2182.442867692179
 30
0.0
 11
-702.7312504812304
 21
2211.532745739486
 31
0.0
  0
LINE
  5
19D
330
18B
100
AcDbEntity
  8
@__WIDOCZNE
  6
Continuous
370
    13
100
AcDbLine
 10
-731.0141989819003
 20
2211.532745739486
 30
0.0
 11
-718.1694866549419
 21
2182.442867692179
 31
0.0
  0
LINE
  5
19E
330
18B
100
AcDbEntity
  8
@__WIDOCZNE
  6
Continuous
370
    13
100
AcDbLine
 10
-684.6988465083036
 20
2182.442867692179
 30
0.0
 11
-671.8541226055125
 21
2211.532745739486
 31
0.0
  0
LINE
  5
19F
330
18B
100
AcDbEntity
  8
@__WIDOCZNE
  6
Continuous
370
    13
100
AcDbLine
 10
-700.1370711061825
 20
2211.532745739486
 30
0.0
 11
-687.2923587792241
 21
2182.442867692179
 31
0.0
  0
LINE
  5
1A0
330
18B
100
AcDbEntity
  8
@__WIDOCZNE
  6
Continuous
370
    13
100
AcDbLine
 10
-653.8217186325858
 20
2182.442867692179
 30
0.0
 11
-640.9769947297948
 21
2211.532745739486
 31
0.0
  0
LINE
  5
1A1
330
18B
100
AcDbEntity
  8
@__WIDOCZNE
  6
Continuous
370
    13
100
AcDbLine
 10
-669.2599432304646
 20
2211.532745739486
 30
0.0
 11
-656.4152309035062
 21
2182.442867692179
 31
0.0
  0
LINE
  5
1A2
330
18B
100
AcDbEntity
  8
@__WIDOCZNE
  6
Continuous
370
    13
100
AcDbLine
 10
-622.9445907568678
 20
2182.442867692179
 30
0.0
 11
-610.0998668540769
 21
2211.532745739486
 31
0.0
  0
LINE
  5
1A3
330
18B
100
AcDbEntity
  8
@__WIDOCZNE
  6
Continuous
370
    13
100
AcDbLine
 10
-638.3828153547468
 20
2211.532745739486
 30
0.0
 11
-625.5381030277882
 21
2182.442867692179
 31
0.0
  0
LINE
  5
1A4
330
18B
100
AcDbEntity
  8
@__WIDOCZNE
  6
Continuous
370
    13
100
AcDbLine
 10
-592.0674628811499
 20
2182.442867692179
 30
0.0
 11
-579.222738978359
 21
2211.532745739486
 31
0.0
  0
LINE
  5
1A5
330
18B
100
AcDbEntity
  8
@__WIDOCZNE
  6
Continuous
370
    13
100
AcDbLine
 10
-607.5056874790288
 20
2211.532745739486
 30
0.0
 11
-594.6609751520704
 21
2182.442867692179
 31
0.0
  0
LINE
  5
1A6
330
18B
100
AcDbEntity
  8
@__WIDOCZNE
  6
Continuous
370
    13
100
AcDbLine
 10
-561.1903350054322
 20
2182.442867692179
 30
0.0
 11
-548.345611102641
 21
2211.532745739486
 31
0.0
  0
LINE
  5
1A7
330
18B
100
AcDbEntity
  8
@__WIDOCZNE
  6
Continuous
370
    13
100
AcDbLine
 10
-576.6285596033109
 20
2211.532745739486
 30
0.0
 11
-563.7838472763525
 21
2182.442867692179
 31
0.0
  0
LINE
  5
1A8
330
18B
100
AcDbEntity
  8
@__WIDOCZNE
  6
Continuous
370
    13
100
AcDbLine
 10
-530.3132071297142
 20
2182.442867692179
 30
0.0
 11
-517.4684832269231
 21
2211.532745739486
 31
0.0
  0
LINE
  5
1A9
330
18B
100
AcDbEntity
  8
@__WIDOCZNE
  6
Continuous
370
    13
100
AcDbLine
 10
-545.7514317275931
 20
2211.532745739486
 30
0.0
 11
-532.9067194006346
 21
2182.442867692179
 31
0.0
  0
LINE
  5
1AA
330
18B
100
AcDbEntity
  8
@__WIDOCZNE
  6
Continuous
370
    13
100
AcDbLine
 10
-499.4360792539963
 20
2182.442867692179
 30
0.0
 11
-486.5913553512053
 21
2211.532745739486
 31
0.0
  0
LINE
  5
1AB
330
18B
100
AcDbEntity
  8
@__WIDOCZNE
  6
Continuous
370
    13
100
AcDbLine
 10
-514.8743038518752
 20
2211.532745739486
 30
0.0
 11
-502.0295915249167
 21
2182.442867692179
 31
0.0
  0
LINE
  5
1AC
330
18B
100
AcDbEntity
  8
@__WIDOCZNE
  6
Continuous
370
    13
100
AcDbLine
 10
-468.5589513782784
 20
2182.442867692179
 30
0.0
 11
-455.7142274754874
 21
2211.532745739486
 31
0.0
  0
LINE
  5
1AD
330
18B
100
AcDbEntity
  8
@__WIDOCZNE
  6
Continuous
370
    13
100
AcDbLine
 10
-483.9971759761573
 20
2211.532745739486
 30
0.0
 11
-471.1524636491988
 21
2182.442867692179
 31
0.0
  0
LINE
  5
1AE
330
18B
100
AcDbEntity
  8
@__WIDOCZNE
  6
Continuous
370
    13
100
AcDbLine
 10
-437.6818235025605
 20
2182.442867692179
 30
0.0
 11
-424.8370995997694
 21
2211.532745739486
 31
0.0
  0
LINE
  5
1AF
330
18B
100
AcDbEntity
  8
@__WIDOCZNE
  6
Continuous
370
    13
100
AcDbLine
 10
-453.1200481004394
 20
2211.532745739486
 30
0.0
 11
-440.2753357734809
 21
2182.442867692179
 31
0.0
  0
LINE
  5
1B0
330
18B
100
AcDbEntity
  8
@__WIDOCZNE
  6
Continuous
370
    13
100
AcDbLine
 10
-406.8046956268426
 20
2182.442867692179
 30
0.0
 11
-393.9599717240516
 21
2211.532745739486
 31
0.0
  0
LINE
  5
1B1
330
18B
100
AcDbEntity
  8
@__WIDOCZNE
  6
Continuous
370
    13
100
AcDbLine
 10
-422.2429202247216
 20
2211.532745739486
 30
0.0
 11
-409.398207897763
 21
2182.442867692179
 31
0.0
  0
LINE
  5
1B2
330
18B
100
AcDbEntity
  8
@__WIDOCZNE
  6
Continuous
370
    13
100
AcDbLine
 10
-375.9275677511248
 20
2182.442867692179
 30
0.0
 11
-363.0828438483338
 21
2211.532745739486
 31
0.0
  0
LINE
  5
1B3
330
18B
100
AcDbEntity
  8
@__WIDOCZNE
  6
Continuous
370
    13
100
AcDbLine
 10
-391.3657923490037
 20
2211.532745739486
 30
0.0
 11
-378.5210800220452
 21
2182.442867692179
 31
0.0
  0
LINE
  5
1B4
330
18B
100
AcDbEntity
  8
@__WIDOCZNE
  6
Continuous
370
    13
100
AcDbLine
 10
-345.0504398754069
 20
2182.442867692179
 30
0.0
 11
-332.205715972616
 21
2211.532745739486
 31
0.0
  0
LINE
  5
1B5
330
18B
100
AcDbEntity
  8
@__WIDOCZNE
  6
Continuous
370
    13
100
AcDbLine
 10
-360.4886644732859
 20
2211.532745739486
 30
0.0
 11
-347.6439521463274
 21
2182.442867692179
 31
0.0
  0
LINE
  5
1B6
330
18B
100
AcDbEntity
  8
@__WIDOCZNE
  6
Continuous
370
    13
100
AcDbLine
 10
-314.1733119996891
 20
2182.442867692179
 30
0.0
 11
-301.3285880968981
 21
2211.532745739486
 31
0.0
  0
LINE
  5
1B7
330
18B
100
AcDbEntity
  8
@__WIDOCZNE
  6
Continuous
370
    13
100
AcDbLine
 10
-329.611536597568
 20
2211.532745739486
 30
0.0
 11
-316.7668242706096
 21
2182.442867692179
 31
0.0
  0
ELLIPSE
  5
1B8
330
18B
100
AcDbEntity
  8
@__WIDOCZNE
  6
Continuous
370
    13
100
AcDbEllipse
 10
-948.4508473534154
 20
2176.299965719758
 30
0.0
 11
15.43822893884035
 21
0.0
 31
0.0
210
0.0
220
0.0
230
1.0
 40
0.9918553271184227
 41
4.71238898038469
 42
6.695978724992954
  0
ELLIPSE
  5
1B9
330
18B
100
AcDbEntity
  8
@__WIDOCZNE
  6
Continuous
370
    13
100
AcDbEllipse
 10
-933.0126111796554
 20
2217.675653452789
 30
0.0
 11
15.43822893884035
 21
0.0
 31
0.0
210
0.0
220
0.0
230
1.0
 40
0.9918553271184227
 41
5.870391545941223
 42
9.837571270799229
  0
ELLIPSE
  5
1BA
330
18B
100
AcDbEntity
  8
@__WIDOCZNE
  6
Continuous
370
    13
100
AcDbEllipse
 10
-917.5743923696734
 20
2176.299971460567
 30
0.0
 11
15.43822893884035
 21
0.0
 31
0.0
210
0.0
220
0.0
230
1.0
 40
0.9918553271184227
 41
2.728799880001611
 42
6.695979068410945
  0
ELLIPSE
  5
1BB
330
18B
100
AcDbEntity
  8
@__WIDOCZNE
  6
Continuous
370
    13
100
AcDbEllipse
 10
-902.1354833039375
 20
2217.675653452789
 30
0.0
 11
15.43822893884035
 21
0.0
 31
0.0
210
0.0
220
0.0
230
1.0
 40
0.9918553271184227
 41
5.87039154594122
 42
9.837571270799225
  0
ELLIPSE
  5
1BC
330
18B
100
AcDbEntity
  8
@__WIDOCZNE
  6
Continuous
370
    13
100
AcDbEllipse
 10
-886.6972644939555
 20
2176.299971460567
 30
0.0
 11
15.43822893884035
 21
0.0
 31
0.0
210
0.0
220
0.0
230
1.0
 40
0.9918553271184227
 41
2.728799880001611
 42
6.695979068410948
  0
ELLIPSE
  5
1BD
330
18B
100
AcDbEntity
  8
@__WIDOCZNE
  6
Continuous
370
    13
100
AcDbEllipse
 10
-871.2583554282196
 20
2217.675653452789
 30
0.0
 11
15.43822893884035
 21
0.0
 31
0.0
210
0.0
220
0.0
230
1.0
 40
0.9918553271184227
 41
5.87039154594122
 42
9.837571270799229
  0
ELLIPSE
  5
1BE
330
18B
100
AcDbEntity
  8
@__WIDOCZNE
  6
Continuous
370
    13
100
AcDbEllipse
 10
-855.8201366182376
 20
2176.299971460567
 30
0.0
 11
15.43822893884035
 21
0.0
 31
0.0
210
0.0
220
0.0
230
1.0
 40
0.9918553271184227
 41
2.728799880001611
 42
6.695979068410945
  0
ELLIPSE
  5
1BF
330
18B
100
AcDbEntity
  8
@__WIDOCZNE
  6
Continuous
370
    13
100
AcDbEllipse
 10
-840.3812275525017
 20
2217.675653452789
 30
0.0
 11
15.43822893884035
 21
0.0
 31
0.0
210
0.0
220
0.0
230
1.0
 40
0.9918553271184227
 41
5.87039154594122
 42
9.837571270799229
  0
ELLIPSE
  5
1C0
330
18B
100
AcDbEntity
  8
@__WIDOCZNE
  6
Continuous
370
    13
100
AcDbEllipse
 10
-824.9430087425199
 20
2176.299971460567
 30
0.0
 11
15.43822893884035
 21
0.0
 31
0.0
210
0.0
220
0.0
230
1.0
 40
0.9918553271184227
 41
2.728799880001608
 42
6.695979068410945
  0
ELLIPSE
  5
1C1
330
18B
100
AcDbEntity
  8
@__WIDOCZNE
  6
Continuous
370
    13
100
AcDbEllipse
 10
-809.504099676784
 20
2217.675653452789
 30
0.0
 11
15.43822893884035
 21
0.0
 31
0.0
210
0.0
220
0.0
230
1.0
 40
0.9918553271184227
 41
5.870391545941223
 42
9.837571270799229
  0
ELLIPSE
  5
1C2
330
18B
100
AcDbEntity
  8
@__WIDOCZNE
  6
Continuous
370
    13
100
AcDbEllipse
 10
-794.0658808668019
 20
2176.299971460567
 30
0.0
 11
15.43822893884035
 21
0.0
 31
0.0
210
0.0
220
0.0
230
1.0
 40
0.9918553271184227
 41
2.728799880001611
 42
6.695979068410948
  0
ELLIPSE
  5
1C3
330
18B
100
AcDbEntity
  8
@__WIDOCZNE
  6
Continuous
370
    13
100
AcDbEllipse
 10
-778.626971801066
 20
2217.675653452789
 30
0.0
 11
15.43822893884035
 21
0.0
 31
0.0
210
0.0
220
0.0
230
1.0
 40
0.9918553271184227
 41
5.87039154594122
 42
9.837571270799229
  0
ELLIPSE
  5
1C4
330
18B
100
AcDbEntity
  8
@__WIDOCZNE
  6
Continuous
370
    13
100
AcDbEllipse
 10
-763.188752991084
 20
2176.299971460567
 30
0.0
 11
15.43822893884035
 21
0.0
 31
0.0
210
0.0
220
0.0
230
1.0
 40
0.9918553271184227
 41
2.728799880001611
 42
6.695979068410948
  0
ELLIPSE
  5
1C5
330
18B
100
AcDbEntity
  8
@__WIDOCZNE
  6
Continuous
370
    13
100
AcDbEllipse
 10
-747.7498439253482
 20
2217.675653452789
 30
0.0
 11
15.43822893884035
 21
0.0
 31
0.0
210
0.0
220
0.0
230
1.0
 40
0.9918553271184227
 41
5.87039154594122
 42
9.837571270799229
  0
ELLIPSE
  5
1C6
330
18B
100
AcDbEntity
  8
@__WIDOCZNE
  6
Continuous
370
    13
100
AcDbEllipse
 10
-732.3116251153662
 20
2176.299971460567
 30
0.0
 11
15.43822893884035
 21
0.0
 31
0.0
210
0.0
220
0.0
230
1.0
 40
0.9918553271184227
 41
2.728799880001611
 42
6.695979068410945
  0
ELLIPSE
  5
1C7
330
18B
100
AcDbEntity
  8
@__WIDOCZNE
  6
Continuous
370
    13
100
AcDbEllipse
 10
-716.8727160496303
 20
2217.675653452789
 30
0.0
 11
15.43822893884035
 21
0.0
 31
0.0
210
0.0
220
0.0
230
1.0
 40
0.9918553271184227
 41
5.870391545941223
 42
9.837571270799229
  0
ELLIPSE
  5
1C8
330
18B
100
AcDbEntity
  8
@__WIDOCZNE
  6
Continuous
370
    13
100
AcDbEllipse
 10
-701.4344972396482
 20
2176.299971460567
 30
0.0
 11
15.43822893884035
 21
0.0
 31
0.0
210
0.0
220
0.0
230
1.0
 40
0.9918553271184227
 41
2.728799880001614
 42
6.695979068410948
  0
ELLIPSE
  5
1C9
330
18B
100
AcDbEntity
  8
@__WIDOCZNE
  6
Continuous
370
    13
100
AcDbEllipse
 10
-685.9955881739123
 20
2217.675653452789
 30
0.0
 11
15.43822893884035
 21
0.0
 31
0.0
210
0.0
220
0.0
230
1.0
 40
0.9918553271184227
 41
5.87039154594122
 42
9.837571270799225
  0
ELLIPSE
  5
1CA
330
18B
100
AcDbEntity
  8
@__WIDOCZNE
  6
Continuous
370
    13
100
AcDbEllipse
 10
-670.5573693639304
 20
2176.299971460567
 30
0.0
 11
15.43822893884035
 21
0.0
 31
0.0
210
0.0
220
0.0
230
1.0
 40
0.9918553271184227
 41
2.728799880001611
 42
6.695979068410948
  0
ELLIPSE
  5
1CB
330
18B
100
AcDbEntity
  8
@__WIDOCZNE
  6
Continuous
370
    13
100
AcDbEllipse
 10
-655.1184602981946
 20
2217.675653452789
 30
0.0
 11
15.43822893884035
 21
0.0
 31
0.0
210
0.0
220
0.0
230
1.0
 40
0.9918553271184227
 41
5.87039154594122
 42
9.837571270799225
  0
ELLIPSE
  5
1CC
330
18B
100
AcDbEntity
  8
@__WIDOCZNE
  6
Continuous
370
    13
100
AcDbEllipse
 10
-639.6802414882126
 20
2176.299971460567
 30
0.0
 11
15.43822893884035
 21
0.0
 31
0.0
210
0.0
220
0.0
230
1.0
 40
0.9918553271184227
 41
2.728799880001611
 42
6.695979068410945
  0
ELLIPSE
  5
1CD
330
18B
100
AcDbEntity
  8
@__WIDOCZNE
  6
Continuous
370
    13
100
AcDbEllipse
 10
-624.2413324224767
 20
2217.675653452789
 30
0.0
 11
15.43822893884035
 21
0.0
 31
0.0
210
0.0
220
0.0
230
1.0
 40
0.9918553271184227
 41
5.87039154594122
 42
9.837571270799229
  0
ELLIPSE
  5
1CE
330
18B
100
AcDbEntity
  8
@__WIDOCZNE
  6
Continuous
370
    13
100
AcDbEllipse
 10
-608.8031136124947
 20
2176.299971460567
 30
0.0
 11
15.43822893884035
 21
0.0
 31
0.0
210
0.0
220
0.0
230
1.0
 40
0.9918553271184227
 41
2.728799880001608
 42
6.695979068410945
  0
ELLIPSE
  5
1CF
330
18B
100
AcDbEntity
  8
@__WIDOCZNE
  6
Continuous
370
    13
100
AcDbEllipse
 10
-593.3642045467587
 20
2217.675653452789
 30
0.0
 11
15.43822893884035
 21
0.0
 31
0.0
210
0.0
220
0.0
230
1.0
 40
0.9918553271184227
 41
5.87039154594122
 42
9.837571270799229
  0
ELLIPSE
  5
1D0
330
18B
100
AcDbEntity
  8
@__WIDOCZNE
  6
Continuous
370
    13
100
AcDbEllipse
 10
-577.9259857367767
 20
2176.299971460567
 30
0.0
 11
15.43822893884035
 21
0.0
 31
0.0
210
0.0
220
0.0
230
1.0
 40
0.9918553271184227
 41
2.728799880001611
 42
6.695979068410948
  0
ELLIPSE
  5
1D1
330
18B
100
AcDbEntity
  8
@__WIDOCZNE
  6
Continuous
370
    13
100
AcDbEllipse
 10
-562.4870766710408
 20
2217.675653452789
 30
0.0
 11
15.43822893884035
 21
0.0
 31
0.0
210
0.0
220
0.0
230
1.0
 40
0.9918553271184227
 41
5.87039154594122
 42
9.837571270799225
  0
ELLIPSE
  5
1D2
330
18B
100
AcDbEntity
  8
@__WIDOCZNE
  6
Continuous
370
    13
100
AcDbEllipse
 10
-547.0488578610589
 20
2176.299971460567
 30
0.0
 11
15.43822893884035
 21
0.0
 31
0.0
210
0.0
220
0.0
230
1.0
 40
0.9918553271184227
 41
2.728799880001614
 42
6.695979068410948
  0
ELLIPSE
  5
1D3
330
18B
100
AcDbEntity
  8
@__WIDOCZNE
  6
Continuous
370
    13
100
AcDbEllipse
 10
-531.609948795323
 20
2217.675653452789
 30
0.0
 11
15.43822893884035
 21
0.0
 31
0.0
210
0.0
220
0.0
230
1.0
 40
0.9918553271184227
 41
5.87039154594122
 42
9.837571270799225
  0
ELLIPSE
  5
1D4
330
18B
100
AcDbEntity
  8
@__WIDOCZNE
  6
Continuous
370
    13
100
AcDbEllipse
 10
-516.171729985341
 20
2176.299971460567
 30
0.0
 11
15.43822893884035
 21
0.0
 31
0.0
210
0.0
220
0.0
230
1.0
 40
0.9918553271184227
 41
2.728799880001611
 42
6.695979068410945
  0
ELLIPSE
  5
1D5
330
18B
100
AcDbEntity
  8
@__WIDOCZNE
  6
Continuous
370
    13
100
AcDbEllipse
 10
-500.7328209196052
 20
2217.675653452789
 30
0.0
 11
15.43822893884035
 21
0.0
 31
0.0
210
0.0
220
0.0
230
1.0
 40
0.9918553271184227
 41
5.870391545941221
 42
9.837571270799229
  0
ELLIPSE
  5
1D6
330
18B
100
AcDbEntity
  8
@__WIDOCZNE
  6
Continuous
370
    13
100
AcDbEllipse
 10
-485.2946021096231
 20
2176.299971460567
 30
0.0
 11
15.43822893884035
 21
0.0
 31
0.0
210
0.0
220
0.0
230
1.0
 40
0.9918553271184227
 41
2.728799880001611
 42
6.695979068410947
  0
ELLIPSE
  5
1D7
330
18B
100
AcDbEntity
  8
@__WIDOCZNE
  6
Continuous
370
    13
100
AcDbEllipse
 10
-469.8556930438872
 20
2217.675653452789
 30
0.0
 11
15.43822893884035
 21
0.0
 31
0.0
210
0.0
220
0.0
230
1.0
 40
0.9918553271184227
 41
5.87039154594122
 42
9.837571270799227
  0
ELLIPSE
  5
1D8
330
18B
100
AcDbEntity
  8
@__WIDOCZNE
  6
Continuous
370
    13
100
AcDbEllipse
 10
-454.4174742339052
 20
2176.299971460567
 30
0.0
 11
15.43822893884035
 21
0.0
 31
0.0
210
0.0
220
0.0
230
1.0
 40
0.9918553271184227
 41
2.728799880001611
 42
6.695979068410945
  0
ELLIPSE
  5
1D9
330
18B
100
AcDbEntity
  8
@__WIDOCZNE
  6
Continuous
370
    13
100
AcDbEllipse
 10
-438.9785651681694
 20
2217.675653452789
 30
0.0
 11
15.43822893884035
 21
0.0
 31
0.0
210
0.0
220
0.0
230
1.0
 40
0.9918553271184227
 41
5.870391545941223
 42
9.837571270799229
  0
ELLIPSE
  5
1DA
330
18B
100
AcDbEntity
  8
@__WIDOCZNE
  6
Continuous
370
    13
100
AcDbEllipse
 10
-423.5403463581874
 20
2176.299971460567
 30
0.0
 11
15.43822893884035
 21
0.0
 31
0.0
210
0.0
220
0.0
230
1.0
 40
0.9918553271184227
 41
2.728799880001608
 42
6.695979068410945
  0
ELLIPSE
  5
1DB
330
18B
100
AcDbEntity
  8
@__WIDOCZNE
  6
Continuous
370
    13
100
AcDbEllipse
 10
-408.1014372924515
 20
2217.675653452789
 30
0.0
 11
15.43822893884035
 21
0.0
 31
0.0
210
0.0
220
0.0
230
1.0
 40
0.9918553271184227
 41
5.870391545941223
 42
9.837571270799229
  0
ELLIPSE
  5
1DC
330
18B
100
AcDbEntity
  8
@__WIDOCZNE
  6
Continuous
370
    13
100
AcDbEllipse
 10
-392.6632184824695
 20
2176.299971460567
 30
0.0
 11
15.43822893884035
 21
0.0
 31
0.0
210
0.0
220
0.0
230
1.0
 40
0.9918553271184227
 41
2.728799880001608
 42
6.695979068410945
  0
ELLIPSE
  5
1DD
330
18B
100
AcDbEntity
  8
@__WIDOCZNE
  6
Continuous
370
    13
100
AcDbEllipse
 10
-377.2243094167337
 20
2217.675653452789
 30
0.0
 11
15.43822893884035
 21
0.0
 31
0.0
210
0.0
220
0.0
230
1.0
 40
0.9918553271184227
 41
5.870391545941223
 42
9.837571270799229
  0
ELLIPSE
  5
1DE
330
18B
100
AcDbEntity
  8
@__WIDOCZNE
  6
Continuous
370
    13
100
AcDbEllipse
 10
-361.7860906067517
 20
2176.299971460567
 30
0.0
 11
15.43822893884035
 21
0.0
 31
0.0
210
0.0
220
0.0
230
1.0
 40
0.9918553271184227
 41
2.728799880001608
 42
6.695979068410945
  0
ELLIPSE
  5
1DF
330
18B
100
AcDbEntity
  8
@__WIDOCZNE
  6
Continuous
370
    13
100
AcDbEllipse
 10
-346.3471815410159
 20
2217.675653452789
 30
0.0
 11
15.43822893884035
 21
0.0
 31
0.0
210
0.0
220
0.0
230
1.0
 40
0.9918553271184227
 41
5.870391545941223
 42
9.837571270799229
  0
ELLIPSE
  5
1E0
330
18B
100
AcDbEntity
  8
@__WIDOCZNE
  6
Continuous
370
    13
100
AcDbEllipse
 10
-330.9089627310339
 20
2176.299971460567
 30
0.0
 11
15.43822893884035
 21
0.0
 31
0.0
210
0.0
220
0.0
230
1.0
 40
0.9918553271184227
 41
2.728799880001608
 42
6.695979068410945
  0
ELLIPSE
  5
1E1
330
18B
100
AcDbEntity
  8
@__WIDOCZNE
  6
Continuous
370
    13
100
AcDbEllipse
 10
-315.470053665298
 20
2217.675653452789
 30
0.0
 11
15.43822893884035
 21
0.0
 31
0.0
210
0.0
220
0.0
230
1.0
 40
0.9918553271184227
 41
5.870391545941223
 42
9.837571270799229
  0
ELLIPSE
  5
1E2
330
18B
100
AcDbEntity
  8
@__WIDOCZNE
  6
Continuous
370
    13
100
AcDbEllipse
 10
-300.031834855316
 20
2176.299971460567
 30
0.0
 11
15.43822893884035
 21
0.0
 31
0.0
210
0.0
220
0.0
230
1.0
 40
0.9918553271184227
 41
2.728799880001608
 42
4.71238898038469
  0
ENDBLK
  5
18D
330
18B
100
AcDbEntity
  8
0
100
AcDbBlockEnd
  0
BLOCK
  5
222
330
221
100
AcDbEntity
  8
0
100
AcDbBlockBegin
  2
*X7
 70
     1
 10
0.0
 20
0.0
 30
0.0
  3
*X7
  1

  0
HATCH
  5
224
330
221
100
AcDbEntity
  8
2D - Ogólne
  6
Continuous
370
    13
100
AcDbHatch
 10
0.0
 20
0.0
 30
0.0
210
0.0
220
0.0
230
1.0
  2
SOLID
 70
     1
 71
     0
 91
        1
 92
        2
 72
     0
 73
     1
 93
        4
 10
-1200.000006287448
 20
950.000001208228
 10
-1202.914116829594
 20
950.000001208228
 10
-1202.914116829594
 20
942.7282047470597
 10
-1200.000006287448
 20
942.7282047470597
 97
        0
 75
     0
 76
     1
 98
        0
  0
HATCH
  5
225
330
221
100
AcDbEntity
  8
2D - Ogólne
  6
Continuous
370
    13
100
AcDbHatch
 10
0.0
 20
0.0
 30
0.0
210
0.0
220
0.0
230
1.0
  2
SOLID
 70
     1
 71
     0
 91
        1
 92
        2
 72
     0
 73
     1
 93
        4
 10
-1100.000005279998
 20
949.9999984945373
 10
-1125.000004527267
 20
949.9999984945373
 10
-1125.000004527267
 20
942.7282097973357
 10
-1100.000005279998
 20
942.7282097973357
 97
        0
 75
     0
 76
     1
 98
        0
  0
HATCH
  5
226
330
221
100
AcDbEntity
  8
2D - Ogólne
  6
Continuous
370
    13
100
AcDbHatch
 10
0.0
 20
0.0
 30
0.0
210
0.0
220
0.0
230
1.0
  2
SOLID
 70
     1
 71
     0
 91
        1
 92
        2
 72
     0
 73
     1
 93
        4
 10
-999.999994836906
 20
949.9999984945373
 10
-1024.999994084175
 20
949.9999984945373
 10
-1024.999994084175
 20
942.7282097973357
 10
-999.999994836906
 20
942.7282097973357
 97
        0
 75
     0
 76
     1
 98
        0
  0
HATCH
  5
227
330
221
100
AcDbEntity
  8
2D - Ogólne
  6
Continuous
370
    13
100
AcDbHatch
 10
0.0
 20
0.0
 30
0.0
210
0.0
220
0.0
230
1.0
  2
SOLID
 70
     1
 71
     0
 91
        1
 92
        2
 72
     0
 73
     1
 93
        4
 10
-899.9999978478311
 20
949.9999984945373
 10
-924.9999970951
 20
949.9999984945373
 10
-924.9999970951
 20
942.7282097973357
 10
-899.9999978478311
 20
942.7282097973357
 97
        0
 75
     0
 76
     1
 98
        0
  0
HATCH
  5
228
330
221
100
AcDbEntity
  8
2D - Ogólne
  6
Continuous
370
    13
100
AcDbHatch
 10
0.0
 20
0.0
 30
0.0
210
0.0
220
0.0
230
1.0
  2
SOLID
 70
     1
 71
     0
 91
        1
 92
        2
 72
     0
 73
     1
 93
        4
 10
-800.0000008587564
 20
949.9999984945373
 10
-825.000000106025
 20
949.9999984945373
 10
-825.000000106025
 20
942.7282097973357
 10
-800.0000008587564
 20
942.7282097973357
 97
        0
 75
     0
 76
     1
 98
        0
  0
HATCH
  5
229
330
221
100
AcDbEntity
  8
2D - Ogólne
  6
Continuous
370
    13
100
AcDbHatch
 10
0.0
 20
0.0
 30
0.0
210
0.0
220
0.0
230
1.0
  2
SOLID
 70
     1
 71
     0
 91
        1
 92
        2
 72
     0
 73
     1
 93
        4
 10
-700.0000038696816
 20
949.9999984945373
 10
-725.0000031169502
 20
949.9999984945373
 10
-725.0000031169502
 20
942.7282097973357
 10
-700.0000038696816
 20
942.7282097973357
 97
        0
 75
     0
 76
     1
 98
        0
  0
HATCH
  5
22A
330
221
100
AcDbEntity
  8
2D - Ogólne
  6
Continuous
370
    13
100
AcDbHatch
 10
0.0
 20
0.0
 30
0.0
210
0.0
220
0.0
230
1.0
  2
SOLID
 70
     1
 71
     0
 91
        1
 92
        2
 72
     0
 73
     1
 93
        4
 10
-599.9999934265894
 20
949.9999984945373
 10
-625.0000061278753
 20
949.9999984945373
 10
-625.0000061278753
 20
942.7282097973357
 10
-599.9999934265894
 20
942.7282097973357
 97
        0
 75
     0
 76
     1
 98
        0
  0
HATCH
  5
22B
330
221
100
AcDbEntity
  8
2D - Ogólne
  6
Continuous
370
    13
100
AcDbHatch
 10
0.0
 20
0.0
 30
0.0
210
0.0
220
0.0
230
1.0
  2
SOLID
 70
     1
 71
     0
 91
        1
 92
        2
 72
     0
 73
     1
 93
        4
 10
-499.9999964375145
 20
949.9999984945373
 10
-524.9999956847832
 20
949.9999984945373
 10
-524.9999956847832
 20
942.7282097973357
 10
-499.9999964375145
 20
942.7282097973357
 97
        0
 75
     0
 76
     1
 98
        0
  0
HATCH
  5
22C
330
221
100
AcDbEntity
  8
2D - Ogólne
  6
Continuous
370
    13
100
AcDbHatch
 10
0.0
 20
0.0
 30
0.0
210
0.0
220
0.0
230
1.0
  2
SOLID
 70
     1
 71
     0
 91
        1
 92
        2
 72
     0
 73
     1
 93
        4
 10
-399.9999994484397
 20
949.9999984945373
 10
-424.9999986957084
 20
949.9999984945373
 10
-424.9999986957084
 20
942.7282097973357
 10
-399.9999994484397
 20
942.7282097973357
 97
        0
 75
     0
 76
     1
 98
        0
  0
HATCH
  5
22D
330
221
100
AcDbEntity
  8
2D - Ogólne
  6
Continuous
370
    13
100
AcDbHatch
 10
0.0
 20
0.0
 30
0.0
210
0.0
220
0.0
230
1.0
  2
SOLID
 70
     1
 71
     0
 91
        1
 92
        2
 72
     0
 73
     1
 93
        4
 10
-325.0000010065734
 20
942.7282045192173
 10
-300.03116057941
 20
942.7282045192173
 10
-300.03116057941
 20
950.0000020131462
 10
-325.0000010065734
 20
950.0000020131462
 97
        0
 75
     0
 76
     1
 98
        0
  0
HATCH
  5
22E
330
221
100
AcDbEntity
  8
2D - Ogólne
  6
Continuous
370
    13
100
AcDbHatch
 10
0.0
 20
0.0
 30
0.0
210
0.0
220
0.0
230
1.0
  2
SOLID
 70
     1
 71
     0
 91
        1
 92
        2
 72
     0
 73
     1
 93
        4
 10
-1200.000006287448
 20
959.8316666510744
 10
-1202.914116829594
 20
959.8316666510744
 10
-1202.914116829594
 20
949.9999996894002
 10
-1200.000006287448
 20
949.9999996894002
 97
        0
 75
     0
 76
     1
 98
        0
  0
HATCH
  5
22F
330
221
100
AcDbEntity
  8
2D - Ogólne
  6
Continuous
370
    13
100
AcDbHatch
 10
0.0
 20
0.0
 30
0.0
210
0.0
220
0.0
230
1.0
  2
SOLID
 70
     1
 71
     0
 91
        1
 92
        2
 72
     0
 73
     1
 93
        4
 10
-1125.000004527267
 20
959.8316764868043
 10
-1125.000004527267
 20
950.0000053794507
 10
-1100.000005279998
 20
950.0000053794507
 10
-1100.000005279998
 20
959.8316764868043
 97
        0
 75
     0
 76
     1
 98
        0
  0
HATCH
  5
230
330
221
100
AcDbEntity
  8
2D - Ogólne
  6
Continuous
370
    13
100
AcDbHatch
 10
0.0
 20
0.0
 30
0.0
210
0.0
220
0.0
230
1.0
  2
SOLID
 70
     1
 71
     0
 91
        1
 92
        2
 72
     0
 73
     1
 93
        4
 10
-1024.999994084175
 20
959.8316764868043
 10
-1024.999994084175
 20
950.0000053794507
 10
-999.999994836906
 20
950.0000053794507
 10
-999.999994836906
 20
959.8316764868043
 97
        0
 75
     0
 76
     1
 98
        0
  0
HATCH
  5
231
330
221
100
AcDbEntity
  8
2D - Ogólne
  6
Continuous
370
    13
100
AcDbHatch
 10
0.0
 20
0.0
 30
0.0
210
0.0
220
0.0
230
1.0
  2
SOLID
 70
     1
 71
     0
 91
        1
 92
        2
 72
     0
 73
     1
 93
        4
 10
-924.9999970951
 20
959.8316764868043
 10
-924.9999970951
 20
950.0000053794507
 10
-899.9999978478311
 20
950.0000053794507
 10
-899.9999978478311
 20
959.8316764868043
 97
        0
 75
     0
 76
     1
 98
        0
  0
HATCH
  5
232
330
221
100
AcDbEntity
  8
2D - Ogólne
  6
Continuous
370
    13
100
AcDbHatch
 10
0.0
 20
0.0
 30
0.0
210
0.0
220
0.0
230
1.0
  2
SOLID
 70
     1
 71
     0
 91
        1
 92
        2
 72
     0
 73
     1
 93
        4
 10
-825.000000106025
 20
959.8316764868043
 10
-825.000000106025
 20
950.0000053794507
 10
-800.0000008587564
 20
950.0000053794507
 10
-800.0000008587564
 20
959.8316764868043
 97
        0
 75
     0
 76
     1
 98
        0
  0
HATCH
  5
233
330
221
100
AcDbEntity
  8
2D - Ogólne
  6
Continuous
370
    13
100
AcDbHatch
 10
0.0
 20
0.0
 30
0.0
210
0.0
220
0.0
230
1.0
  2
SOLID
 70
     1
 71
     0
 91
        1
 92
        2
 72
     0
 73
     1
 93
        4
 10
-725.0000031169502
 20
959.8316764868043
 10
-725.0000031169502
 20
950.0000053794507
 10
-700.0000038696816
 20
950.0000053794507
 10
-700.0000038696816
 20
959.8316764868043
 97
        0
 75
     0
 76
     1
 98
        0
  0
HATCH
  5
234
330
221
100
AcDbEntity
  8
2D - Ogólne
  6
Continuous
370
    13
100
AcDbHatch
 10
0.0
 20
0.0
 30
0.0
210
0.0
220
0.0
230
1.0
  2
SOLID
 70
     1
 71
     0
 91
        1
 92
        2
 72
     0
 73
     1
 93
        4
 10
-625.0000061278753
 20
959.8316764868043
 10
-625.0000061278753
 20
950.0000053794507
 10
-599.9999934265894
 20
950.0000053794507
 10
-599.9999934265894
 20
959.8316764868043
 97
        0
 75
     0
 76
     1
 98
        0
  0
HATCH
  5
235
330
221
100
AcDbEntity
  8
2D - Ogólne
  6
Continuous
370
    13
100
AcDbHatch
 10
0.0
 20
0.0
 30
0.0
210
0.0
220
0.0
230
1.0
  2
SOLID
 70
     1
 71
     0
 91
        1
 92
        2
 72
     0
 73
     1
 93
        4
 10
-524.9999956847832
 20
959.8316764868043
 10
-524.9999956847832
 20
950.0000053794507
 10
-499.9999964375145
 20
950.0000053794507
 10
-499.9999964375145
 20
959.8316764868043
 97
        0
 75
     0
 76
     1
 98
        0
  0
HATCH
  5
236
330
221
100
AcDbEntity
  8
2D - Ogólne
  6
Continuous
370
    13
100
AcDbHatch
 10
0.0
 20
0.0
 30
0.0
210
0.0
220
0.0
230
1.0
  2
SOLID
 70
     1
 71
     0
 91
        1
 92
        2
 72
     0
 73
     1
 93
        4
 10
-424.9999986957084
 20
959.8316764868043
 10
-424.9999986957084
 20
950.0000053794507
 10
-399.9999994484397
 20
950.0000053794507
 10
-399.9999994484397
 20
959.8316764868043
 97
        0
 75
     0
 76
     1
 98
        0
  0
HATCH
  5
237
330
221
100
AcDbEntity
  8
2D - Ogólne
  6
Continuous
370
    13
100
AcDbHatch
 10
0.0
 20
0.0
 30
0.0
210
0.0
220
0.0
230
1.0
  2
SOLID
 70
     1
 71
     0
 91
        1
 92
        2
 72
     0
 73
     1
 93
        4
 10
-325.0000010065734
 20
959.831674796258
 10
-325.0000010065734
 20
950.0000007221607
 10
-300.03116057941
 20
950.0000007221607
 10
-300.03116057941
 20
959.831674796258
 97
        0
 75
     0
 76
     1
 98
        0
  0
HATCH
  5
238
330
221
100
AcDbEntity
  8
2D - Ogólne
  6
Continuous
370
    13
100
AcDbHatch
 10
0.0
 20
0.0
 30
0.0
210
0.0
220
0.0
230
1.0
  2
SOLID
 70
     1
 71
     0
 91
        1
 92
        2
 72
     0
 73
     1
 93
        4
 10
-1175.000003021804
 20
949.9999984945373
 10
-1200.000002269073
 20
949.9999984945373
 10
-1200.000002269073
 20
942.7282097973357
 10
-1175.000003021804
 20
942.7282097973357
 97
        0
 75
     0
 76
     1
 98
        0
  0
HATCH
  5
239
330
221
100
AcDbEntity
  8
2D - Ogólne
  6
Continuous
370
    13
100
AcDbHatch
 10
0.0
 20
0.0
 30
0.0
210
0.0
220
0.0
230
1.0
  2
SOLID
 70
     1
 71
     0
 91
        1
 92
        2
 72
     0
 73
     1
 93
        4
 10
-1075.000006032729
 20
949.9999984945373
 10
-1100.000005279998
 20
949.9999984945373
 10
-1100.000005279998
 20
942.7282097973357
 10
-1075.000006032729
 20
942.7282097973357
 97
        0
 75
     0
 76
     1
 98
        0
  0
HATCH
  5
23A
330
221
100
AcDbEntity
  8
2D - Ogólne
  6
Continuous
370
    13
100
AcDbHatch
 10
0.0
 20
0.0
 30
0.0
210
0.0
220
0.0
230
1.0
  2
SOLID
 70
     1
 71
     0
 91
        1
 92
        2
 72
     0
 73
     1
 93
        4
 10
-974.9999955896374
 20
949.9999984945373
 10
-999.999994836906
 20
949.9999984945373
 10
-999.999994836906
 20
942.7282097973357
 10
-974.9999955896374
 20
942.7282097973357
 97
        0
 75
     0
 76
     1
 98
        0
  0
HATCH
  5
23B
330
221
100
AcDbEntity
  8
2D - Ogólne
  6
Continuous
370
    13
100
AcDbHatch
 10
0.0
 20
0.0
 30
0.0
210
0.0
220
0.0
230
1.0
  2
SOLID
 70
     1
 71
     0
 91
        1
 92
        2
 72
     0
 73
     1
 93
        4
 10
-874.9999986005625
 20
949.9999984945373
 10
-899.9999978478311
 20
949.9999984945373
 10
-899.9999978478311
 20
942.7282097973357
 10
-874.9999986005625
 20
942.7282097973357
 97
        0
 75
     0
 76
     1
 98
        0
  0
HATCH
  5
23C
330
221
100
AcDbEntity
  8
2D - Ogólne
  6
Continuous
370
    13
100
AcDbHatch
 10
0.0
 20
0.0
 30
0.0
210
0.0
220
0.0
230
1.0
  2
SOLID
 70
     1
 71
     0
 91
        1
 92
        2
 72
     0
 73
     1
 93
        4
 10
-775.0000016114876
 20
949.9999984945373
 10
-800.0000008587564
 20
949.9999984945373
 10
-800.0000008587564
 20
942.7282097973357
 10
-775.0000016114876
 20
942.7282097973357
 97
        0
 75
     0
 76
     1
 98
        0
  0
HATCH
  5
23D
330
221
100
AcDbEntity
  8
2D - Ogólne
  6
Continuous
370
    13
100
AcDbHatch
 10
0.0
 20
0.0
 30
0.0
210
0.0
220
0.0
230
1.0
  2
SOLID
 70
     1
 71
     0
 91
        1
 92
        2
 72
     0
 73
     1
 93
        4
 10
-675.0000046224127
 20
949.9999984945373
 10
-700.0000038696816
 20
949.9999984945373
 10
-700.0000038696816
 20
942.7282097973357
 10
-675.0000046224127
 20
942.7282097973357
 97
        0
 75
     0
 76
     1
 98
        0
  0
HATCH
  5
23E
330
221
100
AcDbEntity
  8
2D - Ogólne
  6
Continuous
370
    13
100
AcDbHatch
 10
0.0
 20
0.0
 30
0.0
210
0.0
220
0.0
230
1.0
  2
SOLID
 70
     1
 71
     0
 91
        1
 92
        2
 72
     0
 73
     1
 93
        4
 10
-574.9999941793207
 20
949.9999984945373
 10
-599.9999934265894
 20
949.9999984945373
 10
-599.9999934265894
 20
942.7282097973357
 10
-574.9999941793207
 20
942.7282097973357
 97
        0
 75
     0
 76
     1
 98
        0
  0
HATCH
  5
23F
330
221
100
AcDbEntity
  8
2D - Ogólne
  6
Continuous
370
    13
100
AcDbHatch
 10
0.0
 20
0.0
 30
0.0
210
0.0
220
0.0
230
1.0
  2
SOLID
 70
     1
 71
     0
 91
        1
 92
        2
 72
     0
 73
     1
 93
        4
 10
-474.9999971902459
 20
949.9999984945373
 10
-499.9999964375145
 20
949.9999984945373
 10
-499.9999964375145
 20
942.7282097973357
 10
-474.9999971902459
 20
942.7282097973357
 97
        0
 75
     0
 76
     1
 98
        0
  0
HATCH
  5
240
330
221
100
AcDbEntity
  8
2D - Ogólne
  6
Continuous
370
    13
100
AcDbHatch
 10
0.0
 20
0.0
 30
0.0
210
0.0
220
0.0
230
1.0
  2
SOLID
 70
     1
 71
     0
 91
        1
 92
        2
 72
     0
 73
     1
 93
        4
 10
-375.000000201171
 20
949.9999984945373
 10
-399.9999994484397
 20
949.9999984945373
 10
-399.9999994484397
 20
942.7282097973357
 10
-375.000000201171
 20
942.7282097973357
 97
        0
 75
     0
 76
     1
 98
        0
  0
HATCH
  5
241
330
221
100
AcDbEntity
  8
2D - Ogólne
  6
Continuous
370
    13
100
AcDbHatch
 10
0.0
 20
0.0
 30
0.0
210
0.0
220
0.0
230
1.0
  2
SOLID
 70
     1
 71
     0
 91
        1
 92
        2
 72
     0
 73
     1
 93
        4
 10
-1200.000002269073
 20
959.8316764868043
 10
-1200.000002269073
 20
950.0000053794507
 10
-1175.000003021804
 20
950.0000053794507
 10
-1175.000003021804
 20
959.8316764868043
 97
        0
 75
     0
 76
     1
 98
        0
  0
HATCH
  5
242
330
221
100
AcDbEntity
  8
2D - Ogólne
  6
Continuous
370
    13
100
AcDbHatch
 10
0.0
 20
0.0
 30
0.0
210
0.0
220
0.0
230
1.0
  2
SOLID
 70
     1
 71
     0
 91
        1
 92
        2
 72
     0
 73
     1
 93
        4
 10
-1100.000005279998
 20
959.8316764868043
 10
-1100.000005279998
 20
950.0000053794507
 10
-1075.000006032729
 20
950.0000053794507
 10
-1075.000006032729
 20
959.8316764868043
 97
        0
 75
     0
 76
     1
 98
        0
  0
HATCH
  5
243
330
221
100
AcDbEntity
  8
2D - Ogólne
  6
Continuous
370
    13
100
AcDbHatch
 10
0.0
 20
0.0
 30
0.0
210
0.0
220
0.0
230
1.0
  2
SOLID
 70
     1
 71
     0
 91
        1
 92
        2
 72
     0
 73
     1
 93
        4
 10
-999.999994836906
 20
959.8316764868043
 10
-999.999994836906
 20
950.0000053794507
 10
-974.9999955896374
 20
950.0000053794507
 10
-974.9999955896374
 20
959.8316764868043
 97
        0
 75
     0
 76
     1
 98
        0
  0
HATCH
  5
244
330
221
100
AcDbEntity
  8
2D - Ogólne
  6
Continuous
370
    13
100
AcDbHatch
 10
0.0
 20
0.0
 30
0.0
210
0.0
220
0.0
230
1.0
  2
SOLID
 70
     1
 71
     0
 91
        1
 92
        2
 72
     0
 73
     1
 93
        4
 10
-899.9999978478311
 20
959.8316764868043
 10
-899.9999978478311
 20
950.0000053794507
 10
-874.9999986005625
 20
950.0000053794507
 10
-874.9999986005625
 20
959.8316764868043
 97
        0
 75
     0
 76
     1
 98
        0
  0
HATCH
  5
245
330
221
100
AcDbEntity
  8
2D - Ogólne
  6
Continuous
370
    13
100
AcDbHatch
 10
0.0
 20
0.0
 30
0.0
210
0.0
220
0.0
230
1.0
  2
SOLID
 70
     1
 71
     0
 91
        1
 92
        2
 72
     0
 73
     1
 93
        4
 10
-800.0000008587564
 20
959.8316764868043
 10
-800.0000008587564
 20
950.0000053794507
 10
-775.0000016114876
 20
950.0000053794507
 10
-775.0000016114876
 20
959.8316764868043
 97
        0
 75
     0
 76
     1
 98
        0
  0
HATCH
  5
246
330
221
100
AcDbEntity
  8
2D - Ogólne
  6
Continuous
370
    13
100
AcDbHatch
 10
0.0
 20
0.0
 30
0.0
210
0.0
220
0.0
230
1.0
  2
SOLID
 70
     1
 71
     0
 91
        1
 92
        2
 72
     0
 73
     1
 93
        4
 10
-700.0000038696816
 20
959.8316764868043
 10
-700.0000038696816
 20
950.0000053794507
 10
-675.0000046224127
 20
950.0000053794507
 10
-675.0000046224127
 20
959.8316764868043
 97
        0
 75
     0
 76
     1
 98
        0
  0
HATCH
  5
247
330
221
100
AcDbEntity
  8
2D - Ogólne
  6
Continuous
370
    13
100
AcDbHatch
 10
0.0
 20
0.0
 30
0.0
210
0.0
220
0.0
230
1.0
  2
SOLID
 70
     1
 71
     0
 91
        1
 92
        2
 72
     0
 73
     1
 93
        4
 10
-599.9999934265894
 20
959.8316764868043
 10
-599.9999934265894
 20
950.0000053794507
 10
-574.9999941793207
 20
950.0000053794507
 10
-574.9999941793207
 20
959.8316764868043
 97
        0
 75
     0
 76
     1
 98
        0
  0
HATCH
  5
248
330
221
100
AcDbEntity
  8
2D - Ogólne
  6
Continuous
370
    13
100
AcDbHatch
 10
0.0
 20
0.0
 30
0.0
210
0.0
220
0.0
230
1.0
  2
SOLID
 70
     1
 71
     0
 91
        1
 92
        2
 72
     0
 73
     1
 93
        4
 10
-499.9999964375145
 20
959.8316764868043
 10
-499.9999964375145
 20
950.0000053794507
 10
-474.9999971902459
 20
950.0000053794507
 10
-474.9999971902459
 20
959.8316764868043
 97
        0
 75
     0
 76
     1
 98
        0
  0
HATCH
  5
249
330
221
100
AcDbEntity
  8
2D - Ogólne
  6
Continuous
370
    13
100
AcDbHatch
 10
0.0
 20
0.0
 30
0.0
210
0.0
220
0.0
230
1.0
  2
SOLID
 70
     1
 71
     0
 91
        1
 92
        2
 72
     0
 73
     1
 93
        4
 10
-399.9999994484397
 20
959.8316764868043
 10
-399.9999994484397
 20
950.0000053794507
 10
-375.000000201171
 20
950.0000053794507
 10
-375.000000201171
 20
959.8316764868043
 97
        0
 75
     0
 76
     1
 98
        0
  0
ENDBLK
  5
223
330
221
100
AcDbEntity
  8
0
100
AcDbBlockEnd
  0
BLOCK
  5
251
330
250
100
AcDbEntity
  8
0
100
AcDbBlockBegin
  2
*X8
 70
     1
 10
0.0
 20
0.0
 30
0.0
  3
*X8
  1

  0
HATCH
  5
253
330
250
100
AcDbEntity
  8
2D - Ogólne
  6
Continuous
370
    13
100
AcDbHatch
 10
0.0
 20
0.0
 30
0.0
210
0.0
220
0.0
230
1.0
  2
SOLID
 70
     1
 71
     0
 91
        1
 92
        2
 72
     0
 73
     1
 93
        4
 10
-1200.000006287448
 20
2150.000001208227
 10
-1222.753268268648
 20
2150.000001208227
 10
-1222.753268268648
 20
2144.127963576239
 10
-1200.000006287448
 20
2144.127963576239
 97
        0
 75
     0
 76
     1
 98
        0
  0
HATCH
  5
254
330
250
100
AcDbEntity
  8
2D - Ogólne
  6
Continuous
370
    13
100
AcDbHatch
 10
0.0
 20
0.0
 30
0.0
210
0.0
220
0.0
230
1.0
  2
SOLID
 70
     1
 71
     0
 91
        1
 92
        2
 72
     0
 73
     1
 93
        4
 10
-1099.999995178287
 20
2150.000002806671
 10
-1124.999996581623
 20
2150.000002806671
 10
-1124.999996581623
 20
2144.127956106657
 10
-1099.999995178287
 20
2144.127956106657
 97
        0
 75
     0
 76
     1
 98
        0
  0
HATCH
  5
255
330
250
100
AcDbEntity
  8
2D - Ogólne
  6
Continuous
370
    13
100
AcDbHatch
 10
0.0
 20
0.0
 30
0.0
210
0.0
220
0.0
230
1.0
  2
SOLID
 70
     1
 71
     0
 91
        1
 92
        2
 72
     0
 73
     1
 93
        4
 10
-1000.000003314587
 20
2150.000002806671
 10
-1025.000004717923
 20
2150.000002806671
 10
-1025.000004717923
 20
2144.127956106657
 10
-1000.000003314587
 20
2144.127956106657
 97
        0
 75
     0
 76
     1
 98
        0
  0
HATCH
  5
256
330
250
100
AcDbEntity
  8
2D - Ogólne
  6
Continuous
370
    13
100
AcDbHatch
 10
0.0
 20
0.0
 30
0.0
210
0.0
220
0.0
230
1.0
  2
SOLID
 70
     1
 71
     0
 91
        1
 92
        2
 72
     0
 73
     1
 93
        4
 10
-899.9999977012425
 20
2150.000002806671
 10
-924.9999991045786
 20
2150.000002806671
 10
-924.9999991045786
 20
2144.127956106657
 10
-899.9999977012425
 20
2144.127956106657
 97
        0
 75
     0
 76
     1
 98
        0
  0
HATCH
  5
257
330
250
100
AcDbEntity
  8
2D - Ogólne
  6
Continuous
370
    13
100
AcDbHatch
 10
0.0
 20
0.0
 30
0.0
210
0.0
220
0.0
230
1.0
  2
SOLID
 70
     1
 71
     0
 91
        1
 92
        2
 72
     0
 73
     1
 93
        4
 10
-800.0000058375421
 20
2150.000002806671
 10
-824.9999934912342
 20
2150.000002806671
 10
-824.9999934912342
 20
2144.127956106657
 10
-800.0000058375421
 20
2144.127956106657
 97
        0
 75
     0
 76
     1
 98
        0
  0
HATCH
  5
258
330
250
100
AcDbEntity
  8
2D - Ogólne
  6
Continuous
370
    13
100
AcDbHatch
 10
0.0
 20
0.0
 30
0.0
210
0.0
220
0.0
230
1.0
  2
SOLID
 70
     1
 71
     0
 91
        1
 92
        2
 72
     0
 73
     1
 93
        4
 10
-700.0000002241975
 20
2150.000002806671
 10
-725.0000016275336
 20
2150.000002806671
 10
-725.0000016275336
 20
2144.127956106657
 10
-700.0000002241975
 20
2144.127956106657
 97
        0
 75
     0
 76
     1
 98
        0
  0
HATCH
  5
259
330
250
100
AcDbEntity
  8
2D - Ogólne
  6
Continuous
370
    13
100
AcDbHatch
 10
0.0
 20
0.0
 30
0.0
210
0.0
220
0.0
230
1.0
  2
SOLID
 70
     1
 71
     0
 91
        1
 92
        2
 72
     0
 73
     1
 93
        4
 10
-599.999994610853
 20
2150.000002806671
 10
-624.9999960141893
 20
2150.000002806671
 10
-624.9999960141893
 20
2144.127956106657
 10
-599.999994610853
 20
2144.127956106657
 97
        0
 75
     0
 76
     1
 98
        0
  0
HATCH
  5
25A
330
250
100
AcDbEntity
  8
2D - Ogólne
  6
Continuous
370
    13
100
AcDbHatch
 10
0.0
 20
0.0
 30
0.0
210
0.0
220
0.0
230
1.0
  2
SOLID
 70
     1
 71
     0
 91
        1
 92
        2
 72
     0
 73
     1
 93
        4
 10
-500.0000027471525
 20
2150.000002806671
 10
-525.0000041504886
 20
2150.000002806671
 10
-525.0000041504886
 20
2144.127956106657
 10
-500.0000027471525
 20
2144.127956106657
 97
        0
 75
     0
 76
     1
 98
        0
  0
HATCH
  5
25B
330
250
100
AcDbEntity
  8
2D - Ogólne
  6
Continuous
370
    13
100
AcDbHatch
 10
0.0
 20
0.0
 30
0.0
210
0.0
220
0.0
230
1.0
  2
SOLID
 70
     1
 71
     0
 91
        1
 92
        2
 72
     0
 73
     1
 93
        4
 10
-399.9999971338081
 20
2150.000002806671
 10
-424.9999985371441
 20
2150.000002806671
 10
-424.9999985371441
 20
2144.127956106657
 10
-399.9999971338081
 20
2144.127956106657
 97
        0
 75
     0
 76
     1
 98
        0
  0
HATCH
  5
25C
330
250
100
AcDbEntity
  8
2D - Ogólne
  6
Continuous
370
    13
100
AcDbHatch
 10
0.0
 20
0.0
 30
0.0
210
0.0
220
0.0
230
1.0
  2
SOLID
 70
     1
 71
     0
 91
        1
 92
        2
 72
     0
 73
     1
 93
        4
 10
-324.9999931910415
 20
2144.127961374361
 10
-300.0311577454498
 20
2144.127961374361
 10
-300.0311577454498
 20
2150.00000013219
 10
-324.9999931910415
 20
2150.00000013219
 97
        0
 75
     0
 76
     1
 98
        0
  0
HATCH
  5
25D
330
250
100
AcDbEntity
  8
2D - Ogólne
  6
Continuous
370
    13
100
AcDbHatch
 10
0.0
 20
0.0
 30
0.0
210
0.0
220
0.0
230
1.0
  2
SOLID
 70
     1
 71
     0
 91
        1
 92
        2
 72
     0
 73
     1
 93
        4
 10
-1200.000006287448
 20
2161.231422137841
 10
-1222.753268268648
 20
2161.231422137841
 10
-1222.753268268648
 20
2149.999996346987
 10
-1200.000006287448
 20
2149.999996346987
 97
        0
 75
     0
 76
     1
 98
        0
  0
HATCH
  5
25E
330
250
100
AcDbEntity
  8
2D - Ogólne
  6
Continuous
370
    13
100
AcDbHatch
 10
0.0
 20
0.0
 30
0.0
210
0.0
220
0.0
230
1.0
  2
SOLID
 70
     1
 71
     0
 91
        1
 92
        2
 72
     0
 73
     1
 93
        4
 10
-1124.999996581623
 20
2161.231429590031
 10
-1124.999996581623
 20
2150.000005415013
 10
-1099.999995178287
 20
2150.000005415013
 10
-1099.999995178287
 20
2161.231429590031
 97
        0
 75
     0
 76
     1
 98
        0
  0
HATCH
  5
25F
330
250
100
AcDbEntity
  8
2D - Ogólne
  6
Continuous
370
    13
100
AcDbHatch
 10
0.0
 20
0.0
 30
0.0
210
0.0
220
0.0
230
1.0
  2
SOLID
 70
     1
 71
     0
 91
        1
 92
        2
 72
     0
 73
     1
 93
        4
 10
-1025.000004717923
 20
2161.231429590031
 10
-1025.000004717923
 20
2150.000005415013
 10
-1000.000003314587
 20
2150.000005415013
 10
-1000.000003314587
 20
2161.231429590031
 97
        0
 75
     0
 76
     1
 98
        0
  0
HATCH
  5
260
330
250
100
AcDbEntity
  8
2D - Ogólne
  6
Continuous
370
    13
100
AcDbHatch
 10
0.0
 20
0.0
 30
0.0
210
0.0
220
0.0
230
1.0
  2
SOLID
 70
     1
 71
     0
 91
        1
 92
        2
 72
     0
 73
     1
 93
        4
 10
-924.9999991045786
 20
2161.231429590031
 10
-924.9999991045786
 20
2150.000005415013
 10
-899.9999977012425
 20
2150.000005415013
 10
-899.9999977012425
 20
2161.231429590031
 97
        0
 75
     0
 76
     1
 98
        0
  0
HATCH
  5
261
330
250
100
AcDbEntity
  8
2D - Ogólne
  6
Continuous
370
    13
100
AcDbHatch
 10
0.0
 20
0.0
 30
0.0
210
0.0
220
0.0
230
1.0
  2
SOLID
 70
     1
 71
     0
 91
        1
 92
        2
 72
     0
 73
     1
 93
        4
 10
-824.9999934912342
 20
2161.231429590031
 10
-824.9999934912342
 20
2150.000005415013
 10
-800.0000058375421
 20
2150.000005415013
 10
-800.0000058375421
 20
2161.231429590031
 97
        0
 75
     0
 76
     1
 98
        0
  0
HATCH
  5
262
330
250
100
AcDbEntity
  8
2D - Ogólne
  6
Continuous
370
    13
100
AcDbHatch
 10
0.0
 20
0.0
 30
0.0
210
0.0
220
0.0
230
1.0
  2
SOLID
 70
     1
 71
     0
 91
        1
 92
        2
 72
     0
 73
     1
 93
        4
 10
-725.0000016275336
 20
2161.231429590031
 10
-725.0000016275336
 20
2150.000005415013
 10
-700.0000002241975
 20
2150.000005415013
 10
-700.0000002241975
 20
2161.231429590031
 97
        0
 75
     0
 76
     1
 98
        0
  0
HATCH
  5
263
330
250
100
AcDbEntity
  8
2D - Ogólne
  6
Continuous
370
    13
100
AcDbHatch
 10
0.0
 20
0.0
 30
0.0
210
0.0
220
0.0
230
1.0
  2
SOLID
 70
     1
 71
     0
 91
        1
 92
        2
 72
     0
 73
     1
 93
        4
 10
-624.9999960141893
 20
2161.231429590031
 10
-624.9999960141893
 20
2150.000005415013
 10
-599.999994610853
 20
2150.000005415013
 10
-599.999994610853
 20
2161.231429590031
 97
        0
 75
     0
 76
     1
 98
        0
  0
HATCH
  5
264
330
250
100
AcDbEntity
  8
2D - Ogólne
  6
Continuous
370
    13
100
AcDbHatch
 10
0.0
 20
0.0
 30
0.0
210
0.0
220
0.0
230
1.0
  2
SOLID
 70
     1
 71
     0
 91
        1
 92
        2
 72
     0
 73
     1
 93
        4
 10
-525.0000041504886
 20
2161.231429590031
 10
-525.0000041504886
 20
2150.000005415013
 10
-500.0000027471525
 20
2150.000005415013
 10
-500.0000027471525
 20
2161.231429590031
 97
        0
 75
     0
 76
     1
 98
        0
  0
HATCH
  5
265
330
250
100
AcDbEntity
  8
2D - Ogólne
  6
Continuous
370
    13
100
AcDbHatch
 10
0.0
 20
0.0
 30
0.0
210
0.0
220
0.0
230
1.0
  2
SOLID
 70
     1
 71
     0
 91
        1
 92
        2
 72
     0
 73
     1
 93
        4
 10
-424.9999985371441
 20
2161.231429590031
 10
-424.9999985371441
 20
2150.000005415013
 10
-399.9999971338081
 20
2150.000005415013
 10
-399.9999971338081
 20
2161.231429590031
 97
        0
 75
     0
 76
     1
 98
        0
  0
HATCH
  5
266
330
250
100
AcDbEntity
  8
2D - Ogólne
  6
Continuous
370
    13
100
AcDbHatch
 10
0.0
 20
0.0
 30
0.0
210
0.0
220
0.0
230
1.0
  2
SOLID
 70
     1
 71
     0
 91
        1
 92
        2
 72
     0
 73
     1
 93
        4
 10
-324.9999931910415
 20
2161.231429700051
 10
-324.9999931910415
 20
2149.999997472828
 10
-300.0311577454498
 20
2149.999997472828
 10
-300.0311577454498
 20
2161.231429700051
 97
        0
 75
     0
 76
     1
 98
        0
  0
HATCH
  5
267
330
250
100
AcDbEntity
  8
2D - Ogólne
  6
Continuous
370
    13
100
AcDbHatch
 10
0.0
 20
0.0
 30
0.0
210
0.0
220
0.0
230
1.0
  2
SOLID
 70
     1
 71
     0
 91
        1
 92
        2
 72
     0
 73
     1
 93
        4
 10
-1174.999999388296
 20
2150.000002806671
 10
-1200.000000791632
 20
2150.000002806671
 10
-1200.000000791632
 20
2144.127956106657
 10
-1174.999999388296
 20
2144.127956106657
 97
        0
 75
     0
 76
     1
 98
        0
  0
HATCH
  5
268
330
250
100
AcDbEntity
  8
2D - Ogólne
  6
Continuous
370
    13
100
AcDbHatch
 10
0.0
 20
0.0
 30
0.0
210
0.0
220
0.0
230
1.0
  2
SOLID
 70
     1
 71
     0
 91
        1
 92
        2
 72
     0
 73
     1
 93
        4
 10
-1074.999993774951
 20
2150.000002806671
 10
-1099.999995178287
 20
2150.000002806671
 10
-1099.999995178287
 20
2144.127956106657
 10
-1074.999993774951
 20
2144.127956106657
 97
        0
 75
     0
 76
     1
 98
        0
  0
HATCH
  5
269
330
250
100
AcDbEntity
  8
2D - Ogólne
  6
Continuous
370
    13
100
AcDbHatch
 10
0.0
 20
0.0
 30
0.0
210
0.0
220
0.0
230
1.0
  2
SOLID
 70
     1
 71
     0
 91
        1
 92
        2
 72
     0
 73
     1
 93
        4
 10
-975.0000019112509
 20
2150.000002806671
 10
-1000.000003314587
 20
2150.000002806671
 10
-1000.000003314587
 20
2144.127956106657
 10
-975.0000019112509
 20
2144.127956106657
 97
        0
 75
     0
 76
     1
 98
        0
  0
HATCH
  5
26A
330
250
100
AcDbEntity
  8
2D - Ogólne
  6
Continuous
370
    13
100
AcDbHatch
 10
0.0
 20
0.0
 30
0.0
210
0.0
220
0.0
230
1.0
  2
SOLID
 70
     1
 71
     0
 91
        1
 92
        2
 72
     0
 73
     1
 93
        4
 10
-874.9999962979064
 20
2150.000002806671
 10
-899.9999977012425
 20
2150.000002806671
 10
-899.9999977012425
 20
2144.127956106657
 10
-874.9999962979064
 20
2144.127956106657
 97
        0
 75
     0
 76
     1
 98
        0
  0
HATCH
  5
26B
330
250
100
AcDbEntity
  8
2D - Ogólne
  6
Continuous
370
    13
100
AcDbHatch
 10
0.0
 20
0.0
 30
0.0
210
0.0
220
0.0
230
1.0
  2
SOLID
 70
     1
 71
     0
 91
        1
 92
        2
 72
     0
 73
     1
 93
        4
 10
-775.000004434206
 20
2150.000002806671
 10
-800.0000058375421
 20
2150.000002806671
 10
-800.0000058375421
 20
2144.127956106657
 10
-775.000004434206
 20
2144.127956106657
 97
        0
 75
     0
 76
     1
 98
        0
  0
HATCH
  5
26C
330
250
100
AcDbEntity
  8
2D - Ogólne
  6
Continuous
370
    13
100
AcDbHatch
 10
0.0
 20
0.0
 30
0.0
210
0.0
220
0.0
230
1.0
  2
SOLID
 70
     1
 71
     0
 91
        1
 92
        2
 72
     0
 73
     1
 93
        4
 10
-674.9999988208614
 20
2150.000002806671
 10
-700.0000002241975
 20
2150.000002806671
 10
-700.0000002241975
 20
2144.127956106657
 10
-674.9999988208614
 20
2144.127956106657
 97
        0
 75
     0
 76
     1
 98
        0
  0
HATCH
  5
26D
330
250
100
AcDbEntity
  8
2D - Ogólne
  6
Continuous
370
    13
100
AcDbHatch
 10
0.0
 20
0.0
 30
0.0
210
0.0
220
0.0
230
1.0
  2
SOLID
 70
     1
 71
     0
 91
        1
 92
        2
 72
     0
 73
     1
 93
        4
 10
-574.9999932075169
 20
2150.000002806671
 10
-599.999994610853
 20
2150.000002806671
 10
-599.999994610853
 20
2144.127956106657
 10
-574.9999932075169
 20
2144.127956106657
 97
        0
 75
     0
 76
     1
 98
        0
  0
HATCH
  5
26E
330
250
100
AcDbEntity
  8
2D - Ogólne
  6
Continuous
370
    13
100
AcDbHatch
 10
0.0
 20
0.0
 30
0.0
210
0.0
220
0.0
230
1.0
  2
SOLID
 70
     1
 71
     0
 91
        1
 92
        2
 72
     0
 73
     1
 93
        4
 10
-475.0000013438164
 20
2150.000002806671
 10
-500.0000027471525
 20
2150.000002806671
 10
-500.0000027471525
 20
2144.127956106657
 10
-475.0000013438164
 20
2144.127956106657
 97
        0
 75
     0
 76
     1
 98
        0
  0
HATCH
  5
26F
330
250
100
AcDbEntity
  8
2D - Ogólne
  6
Continuous
370
    13
100
AcDbHatch
 10
0.0
 20
0.0
 30
0.0
210
0.0
220
0.0
230
1.0
  2
SOLID
 70
     1
 71
     0
 91
        1
 92
        2
 72
     0
 73
     1
 93
        4
 10
-374.9999957304719
 20
2150.000002806671
 10
-399.9999971338081
 20
2150.000002806671
 10
-399.9999971338081
 20
2144.127956106657
 10
-374.9999957304719
 20
2144.127956106657
 97
        0
 75
     0
 76
     1
 98
        0
  0
HATCH
  5
270
330
250
100
AcDbEntity
  8
2D - Ogólne
  6
Continuous
370
    13
100
AcDbHatch
 10
0.0
 20
0.0
 30
0.0
210
0.0
220
0.0
230
1.0
  2
SOLID
 70
     1
 71
     0
 91
        1
 92
        2
 72
     0
 73
     1
 93
        4
 10
-1200.000000791632
 20
2161.231429590031
 10
-1200.000000791632
 20
2150.000005415013
 10
-1174.999999388296
 20
2150.000005415013
 10
-1174.999999388296
 20
2161.231429590031
 97
        0
 75
     0
 76
     1
 98
        0
  0
HATCH
  5
271
330
250
100
AcDbEntity
  8
2D - Ogólne
  6
Continuous
370
    13
100
AcDbHatch
 10
0.0
 20
0.0
 30
0.0
210
0.0
220
0.0
230
1.0
  2
SOLID
 70
     1
 71
     0
 91
        1
 92
        2
 72
     0
 73
     1
 93
        4
 10
-1099.999995178287
 20
2161.231429590031
 10
-1099.999995178287
 20
2150.000005415013
 10
-1074.999993774951
 20
2150.000005415013
 10
-1074.999993774951
 20
2161.231429590031
 97
        0
 75
     0
 76
     1
 98
        0
  0
HATCH
  5
272
330
250
100
AcDbEntity
  8
2D - Ogólne
  6
Continuous
370
    13
100
AcDbHatch
 10
0.0
 20
0.0
 30
0.0
210
0.0
220
0.0
230
1.0
  2
SOLID
 70
     1
 71
     0
 91
        1
 92
        2
 72
     0
 73
     1
 93
        4
 10
-1000.000003314587
 20
2161.231429590031
 10
-1000.000003314587
 20
2150.000005415013
 10
-975.0000019112509
 20
2150.000005415013
 10
-975.0000019112509
 20
2161.231429590031
 97
        0
 75
     0
 76
     1
 98
        0
  0
HATCH
  5
273
330
250
100
AcDbEntity
  8
2D - Ogólne
  6
Continuous
370
    13
100
AcDbHatch
 10
0.0
 20
0.0
 30
0.0
210
0.0
220
0.0
230
1.0
  2
SOLID
 70
     1
 71
     0
 91
        1
 92
        2
 72
     0
 73
     1
 93
        4
 10
-899.9999977012425
 20
2161.231429590031
 10
-899.9999977012425
 20
2150.000005415013
 10
-874.9999962979064
 20
2150.000005415013
 10
-874.9999962979064
 20
2161.231429590031
 97
        0
 75
     0
 76
     1
 98
        0
  0
HATCH
  5
274
330
250
100
AcDbEntity
  8
2D - Ogólne
  6
Continuous
370
    13
100
AcDbHatch
 10
0.0
 20
0.0
 30
0.0
210
0.0
220
0.0
230
1.0
  2
SOLID
 70
     1
 71
     0
 91
        1
 92
        2
 72
     0
 73
     1
 93
        4
 10
-800.0000058375421
 20
2161.231429590031
 10
-800.0000058375421
 20
2150.000005415013
 10
-775.000004434206
 20
2150.000005415013
 10
-775.000004434206
 20
2161.231429590031
 97
        0
 75
     0
 76
     1
 98
        0
  0
HATCH
  5
275
330
250
100
AcDbEntity
  8
2D - Ogólne
  6
Continuous
370
    13
100
AcDbHatch
 10
0.0
 20
0.0
 30
0.0
210
0.0
220
0.0
230
1.0
  2
SOLID
 70
     1
 71
     0
 91
        1
 92
        2
 72
     0
 73
     1
 93
        4
 10
-700.0000002241975
 20
2161.231429590031
 10
-700.0000002241975
 20
2150.000005415013
 10
-674.9999988208614
 20
2150.000005415013
 10
-674.9999988208614
 20
2161.231429590031
 97
        0
 75
     0
 76
     1
 98
        0
  0
HATCH
  5
276
330
250
100
AcDbEntity
  8
2D - Ogólne
  6
Continuous
370
    13
100
AcDbHatch
 10
0.0
 20
0.0
 30
0.0
210
0.0
220
0.0
230
1.0
  2
SOLID
 70
     1
 71
     0
 91
        1
 92
        2
 72
     0
 73
     1
 93
        4
 10
-599.999994610853
 20
2161.231429590031
 10
-599.999994610853
 20
2150.000005415013
 10
-574.9999932075169
 20
2150.000005415013
 10
-574.9999932075169
 20
2161.231429590031
 97
        0
 75
     0
 76
     1
 98
        0
  0
HATCH
  5
277
330
250
100
AcDbEntity
  8
2D - Ogólne
  6
Continuous
370
    13
100
AcDbHatch
 10
0.0
 20
0.0
 30
0.0
210
0.0
220
0.0
230
1.0
  2
SOLID
 70
     1
 71
     0
 91
        1
 92
        2
 72
     0
 73
     1
 93
        4
 10
-500.0000027471525
 20
2161.231429590031
 10
-500.0000027471525
 20
2150.000005415013
 10
-475.0000013438164
 20
2150.000005415013
 10
-475.0000013438164
 20
2161.231429590031
 97
        0
 75
     0
 76
     1
 98
        0
  0
HATCH
  5
278
330
250
100
AcDbEntity
  8
2D - Ogólne
  6
Continuous
370
    13
100
AcDbHatch
 10
0.0
 20
0.0
 30
0.0
210
0.0
220
0.0
230
1.0
  2
SOLID
 70
     1
 71
     0
 91
        1
 92
        2
 72
     0
 73
     1
 93
        4
 10
-399.9999971338081
 20
2161.231429590031
 10
-399.9999971338081
 20
2150.000005415013
 10
-374.9999957304719
 20
2150.000005415013
 10
-374.9999957304719
 20
2161.231429590031
 97
        0
 75
     0
 76
     1
 98
        0
  0
ENDBLK
  5
252
330
250
100
AcDbEntity
  8
0
100
AcDbBlockEnd
  0
BLOCK
  5
2E1
330
2E0
100
AcDbEntity
  8
0
100
AcDbBlockBegin
  2
Bez nazwy_STORY_MARKER
 70
     0
 10
0.0
 20
0.0
 30
0.0
  3
Bez nazwy_STORY_MARKER
  1

  0
ENDBLK
  5
2E2
330
2E0
100
AcDbEntity
  8
0
100
AcDbBlockEnd
  0
ENDSEC
  0
SECTION
  2
ENTITIES
  0
WIPEOUT
  5
5D
330
1F
100
AcDbEntity
  8
@__WIDOCZNE
  6
Wipeout_Contour
 62
   254
 48
9220.865506784088
370
     0
 92
      140
310
8C000000010000008400000006000000050000004948B8B88DBF72C08459E3EDF971A140000000000000000035F510569BA38DC08459E3EDF971A140000000000000000035F510569BA38DC08459E3EDF9E1A04000000000000000004948B8B88DBF72C08459E3EDF9E1A04000000000000000004948B8B88DBF72C08459E3
310
EDF971A1400000000000000000
100
AcDbWipeout
 90
        0
 10
-948.4508477520782
 20
2160.988143067052
 30
0.0
 11
648.4787477613736
 21
0.0
 31
0.0
 12
0.0
 22
72.0
 32
0.0
 13
1.0
 23
1.0
340
0
 70
    15
280
     1
281
    50
282
    50
283
     0
360
0
 71
     2
 91
        5
 14
0.5000000000000001
 24
-0.5
 14
-0.5
 24
-0.5
 14
-0.5
 24
0.5
 14
0.5000000000000001
 24
0.5
 14
0.5000000000000001
 24
-0.5
  0
LWPOLYLINE
  5
60
330
1F
100
AcDbEntity
  8
@__WIDOCZNE
  6
Continuous
370
    13
100
AcDbPolyline
 90
        4
 70
   129
 43
0.0
 10
-299.9720999907045
 20
2232.988143067052
 10
-948.4508477520782
 20
2232.988143067052
 10
-948.4508477520782
 20
2160.988143067052
 10
-299.9720999907045
 20
2160.988143067052
  0
WIPEOUT
  5
61
330
1F
100
AcDbEntity
  8
@__WIDOCZNE
  6
Wipeout_Contour
 62
   254
 48
4830.499460529098
370
     0
 92
      140
310
8C000000010000008400000006000000050000004B48B8B88DBF72C0CF1A46825A1E9040000000000000000036F510569BA38DC0CF1A46825A1E9040000000000000000036F510569BA38DC09B358C04B5FC8D4000000000000000004B48B8B88DBF72C09B358C04B5FC8D4000000000000000004B48B8B88DBF72C0CF1A46
310
825A1E90400000000000000000
100
AcDbWipeout
 90
        0
 10
-948.4508477520783
 20
959.5883875802859
 30
0.0
 11
648.4787477613736
 21
0.0
 31
0.0
 12
0.0
 22
72.00000000000034
 32
0.0
 13
1.0
 23
1.0
340
0
 70
    15
280
     1
281
    50
282
    50
283
     0
360
0
 71
     2
 91
        5
 14
0.5000000000000001
 24
-0.5000000000000008
 14
-0.5
 24
-0.5000000000000008
 14
-0.5
 24
0.4999999999999992
 14
0.5000000000000001
 24
0.4999999999999992
 14
0.5000000000000001
 24
-0.5000000000000008
  0
LWPOLYLINE
  5
62
330
1F
100
AcDbEntity
  8
@__WIDOCZNE
  6
Continuous
370
    13
100
AcDbPolyline
 90
        4
 70
   129
 43
0.0
 10
-299.9720999907046
 20
1031.588387580286
 10
-948.4508477520783
 20
1031.588387580286
 10
-948.4508477520783
 20
959.5883875802859
 10
-299.9720999907046
 20
959.5883875802859
  0
HATCH
  5
64
330
1F
100
AcDbEntity
  8
@__WIDOCZNE
  6
Continuous
370
    13
100
AcDbHatch
 10
0.0
 20
0.0
 30
0.0
210
0.0
220
0.0
230
1.0
  2
A_kropki_rzadko
 70
     0
 71
     1
 91
        1
 92
        2
 72
     0
 73
     1
 93
        8
 10
-1358.450845811444
 20
1518.600244513236
 10
-1658.204661872664
 20
1518.600244513236
 10
-1658.204661872664
 20
418.6002445132355
 10
-300.0311619633404
 20
418.6002445132355
 10
-300.0311619633404
 20
492.728203228232
 10
-1478.450845811444
 20
492.728203228232
 10
-1478.450845811444
 20
1112.728203228232
 10
-1358.450539384676
 20
1112.728203228232
 97
        1
330
65
 75
     0
 76
     2
 52
0.0
 41
1.0
 77
     0
 78
     2
 53
44.99999999999999
 43
0.0
 44
100.0
 45
-31.81980515339463
 46
31.81980515339464
 79
     4
 49
0.0
 49
-30.0
 49
0.0
 49
-45.0
 53
110.0
 43
100.0
 44
100.0
 45
42.28616793536587
 46
15.39090644965511
 79
     4
 49
0.0
 49
-22.0
 49
0.0
 49
-38.0
 98
        0
  0
LWPOLYLINE
  5
65
102
{ACAD_REACTORS
330
64
102
}
330
1F
100
AcDbEntity
  8
@__WIDOCZNE
  6
@ --- gęsto_burzenie
370
    13
100
AcDbPolyline
 90
        8
 70
   129
 43
0.0
 10
-1358.450845811444
 20
1518.600244513236
 10
-1658.204661872664
 20
1518.600244513236
 10
-1658.204661872664
 20
418.6002445132355
 10
-300.0311619633404
 20
418.6002445132355
 10
-300.0311619633404
 20
492.728203228232
 10
-1478.450845811444
 20
492.728203228232
 10
-1478.450845811444
 20
1112.728203228232
 10
-1358.450539384676
 20
1112.728203228232
  0
HATCH
  5
66
330
1F
100
AcDbEntity
  8
@__WIDOCZNE
  6
Continuous
370
    13
100
AcDbHatch
 10
0.0
 20
0.0
 30
0.0
210
0.0
220
0.0
230
1.0
  2
Cegła_zwykła
 70
     0
 71
     1
 91
        1
 92
        2
 72
     0
 73
     1
 93
        4
 10
-943.4508473534154
 20
1111.588387580286
 10
-943.4508473534154
 20
1091.588387580286
 10
-300.0311619633404
 20
1091.588387580286
 10
-300.0311619633404
 20
1111.588387580286
 97
        1
330
67
 75
     0
 76
     2
 52
0.0
 41
1.0
 77
     0
 78
     1
 53
135.0
 43
-566.5882727349541
 44
1101.588387580286
 45
9.19238781825033
 46
9.192387818250328
 79
     0
 98
        0
  0
LWPOLYLINE
  5
67
102
{ACAD_REACTORS
330
66
102
}
330
1F
100
AcDbEntity
  8
@__WIDOCZNE
  6
Continuous
370
    25
100
AcDbPolyline
 90
        4
 70
   129
 43
0.0
 10
-943.4508473534154
 20
1111.588387580286
 10
-943.4508473534154
 20
1091.588387580286
 10
-300.0311619633404
 20
1091.588387580286
 10
-300.0311619633404
 20
1111.588387580286
  0
HATCH
  5
68
330
1F
100
AcDbEntity
  8
@__WIDOCZNE
  6
Continuous
370
    13
100
AcDbHatch
 10
0.0
 20
0.0
 30
0.0
210
0.0
220
0.0
230
1.0
  2
Beton
 70
     0
 71
     1
 91
        1
 92
        2
 72
     0
 73
     1
 93
        4
 10
-928.4508473534092
 20
1091.588387580286
 10
-300.0311619633338
 20
1091.588387580286
 10
-300.0311619633338
 20
1031.588387580286
 10
-928.4508473534092
 20
1031.588387580286
 97
        1
330
69
 75
     0
 76
     2
 52
0.0
 41
1.0
 77
     0
 78
     2
 53
44.99999999999999
 43
0.0
 44
0.0
 45
-18.38477563650066
 46
18.38477563650066
 79
     2
 49
19.49999928474426
 49
-6.49999976158142
 53
44.99999999999999
 43
0.0000000000000018
 44
18.38477563650066
 45
-18.38477563650066
 46
18.38477563650066
 79
     2
 49
19.49999928474426
 49
-6.49999976158142
 98
        0
  0
LWPOLYLINE
  5
69
102
{ACAD_REACTORS
330
68
102
}
330
1F
100
AcDbEntity
  8
@__WIDOCZNE
  6
Continuous
370
    25
100
AcDbPolyline
 90
        4
 70
   129
 43
0.0
 10
-928.4508473534092
 20
1091.588387580286
 10
-300.0311619633338
 20
1091.588387580286
 10
-300.0311619633338
 20
1031.588387580286
 10
-928.4508473534092
 20
1031.588387580286
  0
WIPEOUT
  5
6A
330
1F
100
AcDbEntity
  8
@__WIDOCZNE
  6
Wipeout_Contour
 62
   254
 48
6573.277995088451
370
     0
 92
      140
310
8C00000001000000840000000600000005000000A1B9EDAACD9192C0C8D0365CD3758D4000000000000000004273DB559BA38DC0C8D0365CD3758D4000000000000000004273DB559BA38DC0CD677FA666BA97400000000000000000A1B9EDAACD9192C0CD677FA666BA97400000000000000000A1B9EDAACD9192C0C8D036
310
5CD3758D400000000000000000
100
AcDbWipeout
 90
        0
 10
-1188.450847353415
 20
942.7282032282319
 30
0.0
 11
240.0
 21
0.0
 31
0.0
 12
0.0
 22
575.8720412850037
 32
0.0
 13
1.0
 23
1.0
340
0
 70
    15
280
     1
281
    50
282
    50
283
     0
360
0
 71
     2
 91
        5
 14
-0.5
 24
0.4999999999999998
 14
0.5
 24
0.4999999999999998
 14
0.5
 24
-0.5000000000000002
 14
-0.5
 24
-0.5000000000000002
 14
-0.5
 24
0.4999999999999998
  0
HATCH
  5
6B
330
1F
100
AcDbEntity
  8
@__WIDOCZNE
  6
Continuous
370
    13
100
AcDbHatch
 10
0.0
 20
0.0
 30
0.0
210
0.0
220
0.0
230
1.0
  2
__Beton_n_2_średnio
 70
     0
 71
     1
 91
        1
 92
        2
 72
     0
 73
     1
 93
        4
 10
-1188.450847353415
 20
942.7282032282319
 10
-948.4508473534154
 20
942.7282032282319
 10
-948.4508473534154
 20
1518.600244513236
 10
-1188.450847353415
 20
1518.600244513236
 97
        1
330
6C
 75
     0
 76
     2
 52
0.0
 41
1.0
 77
     0
 78
     2
 53
44.99999999999999
 43
0.0
 44
0.0
 45
-18.38477631085023
 46
18.38477631085023
 79
     2
 49
19.5
 49
-6.499999999999999
 53
44.99999999999999
 43
0.0000000000000018
 44
18.38477631085023
 45
-18.38477631085023
 46
18.38477631085023
 79
     2
 49
19.5
 49
-6.499999999999999
 98
        0
  0
LWPOLYLINE
  5
6C
102
{ACAD_REACTORS
330
6B
102
}
330
1F
100
AcDbEntity
  8
@__WIDOCZNE
  6
Continuous
370
    50
100
AcDbPolyline
 90
        4
 70
   129
 43
0.0
 10
-1188.450847353415
 20
942.7282032282319
 10
-948.4508473534154
 20
942.7282032282319
 10
-948.4508473534154
 20
1518.600244513236
 10
-1188.450847353415
 20
1518.600244513236
  0
WIPEOUT
  5
6D
330
1F
100
AcDbEntity
  8
@__WIDOCZNE
  6
Wipeout_Contour
 62
   254
 48
4769.629498082663
370
     0
 92
      140
310
8C00000001000000840000000600000005000000D2D6AFA37FC072C0C8D0365CD3758D400000000000000000A2B9EDAACD7194C0CBD0365CD3758D400000000000000000A2B9EDAACD7194C0C9D0365CD31584400000000000000000D2D6AFA37FC072C0C9D0365CD31584400000000000000000D2D6AFA37FC072C0C8D036
310
5CD3758D400000000000000000
100
AcDbWipeout
 90
        0
 10
-1308.450847353416
 20
642.728203228232
 30
0.0
 11
1008.419685390075
 21
0.0
 31
0.0
 12
0.0
 22
300.0000000000002
 32
0.0
 13
1.0
 23
1.0
340
0
 70
    15
280
     1
281
    50
282
    50
283
     0
360
0
 71
     2
 91
        5
 14
0.4999999999999999
 24
-0.4999999999999989
 14
-0.5000000000000001
 24
-0.5
 14
-0.5000000000000001
 24
0.5
 14
0.4999999999999999
 24
0.5
 14
0.4999999999999999
 24
-0.4999999999999989
  0
HATCH
  5
6E
330
1F
100
AcDbEntity
  8
@__WIDOCZNE
  6
Continuous
370
    13
100
AcDbHatch
 10
0.0
 20
0.0
 30
0.0
210
0.0
220
0.0
230
1.0
  2
Beton_zbrojony
 70
     0
 71
     1
 91
        1
 92
        2
 72
     0
 73
     1
 93
        4
 10
-300.0311619633404
 20
942.7282032282319
 10
-1308.450847353416
 20
942.7282032282322
 10
-1308.450847353416
 20
642.728203228232
 10
-300.0311619633404
 20
642.728203228232
 97
        1
330
6F
 75
     0
 76
     2
 52
0.0
 41
1.0
 77
     0
 78
     2
 53
44.99999999999999
 43
0.0
 44
0.0
 45
-18.38477563650066
 46
18.38477563650066
 79
     0
 53
44.99999999999999
 43
-9.192387818250328
 44
9.19238781825033
 45
-18.38477563650066
 46
18.38477563650066
 79
     2
 49
19.49999928474426
 49
-6.49999976158142
 98
        0
  0
LWPOLYLINE
  5
6F
102
{ACAD_REACTORS
330
6E
102
}
330
1F
100
AcDbEntity
  8
@__WIDOCZNE
  6
Continuous
370
    50
100
AcDbPolyline
 90
        4
 70
   129
 43
0.0
 10
-300.0311619633404
 20
942.7282032282319
 10
-1308.450847353416
 20
942.7282032282322
 10
-1308.450847353416
 20
642.728203228232
 10
-300.0311619633404
 20
642.728203228232
  0
WIPEOUT
  5
70
330
1F
100
AcDbEntity
  8
@__WIDOCZNE
  6
Wipeout_Contour
 62
   254
 48
4142.685493882562
370
     0
 92
      140
310
8C00000001000000840000000600000005000000D2D6AFA37FC072C091A16DB8A6CB7E400000000000000000D2D6AFA37FC072C0C9D0365CD31584400000000000000000A2B9EDAACD7194C0C9D0365CD31584400000000000000000A2B9EDAACD7194C091A16DB8A6CB7E400000000000000000D2D6AFA37FC072C091A16D
310
B8A6CB7E400000000000000000
100
AcDbWipeout
 90
        0
 10
-1308.450847353416
 20
492.728203228232
 30
0.0
 11
1008.419685390075
 21
0.0
 31
0.0
 12
0.0
 22
150.0000000000001
 32
0.0
 13
1.0
 23
1.0
340
0
 70
    15
280
     1
281
    50
282
    50
283
     0
360
0
 71
     2
 91
        5
 14
0.4999999999999999
 24
0.5000000000000002
 14
0.4999999999999999
 24
-0.4999999999999998
 14
-0.5000000000000001
 24
-0.4999999999999998
 14
-0.5000000000000001
 24
0.5000000000000002
 14
0.4999999999999999
 24
0.5000000000000002
  0
HATCH
  5
71
330
1F
100
AcDbEntity
  8
@__WIDOCZNE
  6
Continuous
370
    13
100
AcDbHatch
 10
0.0
 20
0.0
 30
0.0
210
0.0
220
0.0
230
1.0
  2
Izolacja_miękka
 70
     0
 71
     1
 91
        1
 92
        2
 72
     0
 73
     1
 93
        4
 10
-300.0311619633404
 20
492.728203228232
 10
-300.0311619633404
 20
642.728203228232
 10
-1308.450847353416
 20
642.728203228232
 10
-1308.450847353416
 20
492.728203228232
 97
        1
330
72
 75
     0
 76
     2
 52
0.0
 41
1.0
 77
     0
 78
     2
 53
60.00000000000001
 43
0.0
 44
0.0
 45
-12.99038105676658
 46
7.499999999999996
 79
     0
 53
120.0
 43
0.0
 44
0.0
 45
12.99038105676657
 46
7.500000000000008
 79
     0
 98
        0
  0
LWPOLYLINE
  5
72
102
{ACAD_REACTORS
330
71
102
}
330
1F
100
AcDbEntity
  8
@__WIDOCZNE
  6
Continuous
370
    25
100
AcDbPolyline
 90
        4
 70
   129
 43
0.0
 10
-300.0311619633404
 20
492.728203228232
 10
-300.0311619633404
 20
642.728203228232
 10
-1308.450847353416
 20
642.728203228232
 10
-1308.450847353416
 20
492.728203228232
  0
WIPEOUT
  5
73
330
1F
100
AcDbEntity
  8
@__WIDOCZNE
  6
Wipeout_Contour
 62
   254
 48
13570.45096981657
370
     0
 92
      236
310
EC00000001000000E40000000600000009000000A2B9EDAACD7194C094A16DB8A6CB7E400000000000000000A2B9EDAACD7194C0CAD0365CD3758D400000000000000000A1B9EDAACD9192C0C9D0365CD3758D400000000000000000A1B9EDAACD9192C0CE677FA666BA97400000000000000000A1B9EDAACDE994C0CE677F
310
A666BA97400000000000000000A1B9EDAACDE994C064681BAEE91291400000000000000000A1B9EDAACDC996C064681BAEE91291400000000000000000A1B9EDAACDC996C094A16DB8A6CB7E400000000000000000A2B9EDAACD7194C094A16DB8A6CB7E400000000000000000
100
AcDbWipeout
 90
        0
 10
-1458.450847353415
 20
492.728203228232
 30
0.0
 11
270.0
 21
0.0
 31
0.0
 12
0.0
 22
1025.872041285004
 32
0.0
 13
1.0
 23
1.0
340
0
 70
    15
280
     1
281
    50
282
    50
283
     0
360
0
 71
     2
 91
        9
 14
0.0555555555555547
 24
0.4999999999999999
 14
0.0555555555555547
 24
0.0613488019067839
 14
0.5
 24
0.061348801906784
 14
0.5
 24
-0.5
 14
-0.0555555555555556
 24
-0.5
 14
-0.0555555555555556
 24
-0.084868264124288
 14
-0.5
 24
-0.084868264124288
 14
-0.5
 24
0.4999999999999999
 14
0.0555555555555547
 24
0.4999999999999999
  0
HATCH
  5
74
330
1F
100
AcDbEntity
  8
@__WIDOCZNE
  6
Continuous
370
    13
100
AcDbHatch
 10
0.0
 20
0.0
 30
0.0
210
0.0
220
0.0
230
1.0
  2
Izolacja_miękka
 70
     0
 71
     1
 91
        1
 92
        2
 72
     0
 73
     1
 93
        8
 10
-1308.450847353416
 20
492.728203228232
 10
-1308.450847353416
 20
942.728203228232
 10
-1188.450847353415
 20
942.7282032282319
 10
-1188.450847353415
 20
1518.600244513236
 10
-1338.450847353415
 20
1518.600244513236
 10
-1338.450847353415
 20
1092.728203228232
 10
-1458.450847353415
 20
1092.728203228232
 10
-1458.450847353415
 20
492.728203228232
 97
        1
330
75
 75
     0
 76
     2
 52
0.0
 41
1.0
 77
     0
 78
     2
 53
60.00000000000001
 43
0.0
 44
0.0
 45
-12.99038105676658
 46
7.499999999999996
 79
     0
 53
120.0
 43
0.0
 44
0.0
 45
12.99038105676657
 46
7.500000000000008
 79
     0
 98
        0
  0
LWPOLYLINE
  5
75
102
{ACAD_REACTORS
330
74
102
}
330
1F
100
AcDbEntity
  8
@__WIDOCZNE
  6
Continuous
370
    25
100
AcDbPolyline
 90
        8
 70
   129
 43
0.0
 10
-1308.450847353416
 20
492.728203228232
 10
-1308.450847353416
 20
942.728203228232
 10
-1188.450847353415
 20
942.7282032282319
 10
-1188.450847353415
 20
1518.600244513236
 10
-1338.450847353415
 20
1518.600244513236
 10
-1338.450847353415
 20
1092.728203228232
 10
-1458.450847353415
 20
1092.728203228232
 10
-1458.450847353415
 20
492.728203228232
  0
WIPEOUT
  5
76
330
1F
100
AcDbEntity
  8
@__WIDOCZNE
  6
Wipeout_Contour
 62
   254
 48
16080.47430023019
370
     0
 92
      260
310
0401000001000000FC000000060000000A000000FB4A325ACD3995C064681BAEE96291400000000000000000C33E86AACD1997C064681BAEE96291400000000000000000C33E86AACD1997C094A16DB8A6CB7E400000000000000000A1B9EDAACDC996C094A16DB8A6CB7E400000000000000000A1B9EDAACDC996C064681B
310
AEE91291400000000000000000A1B9EDAACDE994C064681BAEE91291400000000000000000A1B9EDAACDE994C000A31A8CCBF091400000000000000000A1B9EDAACDE994C0CE677FA666BA97400000000000000000C33E86AACD3995C0CE677FA666BA97400000000000000000FB4A325ACD3995C064681BAEE96291400000
310
000000000000
100
AcDbWipeout
 90
        0
 10
-1478.450845811444
 20
492.728203228232
 30
0.0
 11
139.9999984580286
 21
0.0
 31
0.0
 12
0.0
 22
1025.872041285004
 32
0.0
 13
1.0
 23
1.0
340
0
 70
    15
280
     1
281
    50
282
    50
283
     0
360
0
 71
     2
 91
       10
 14
0.3571450553461482
 24
-0.1043638729284309
 14
-0.5
 24
-0.1043638729284309
 14
-0.5
 24
0.4999999999999999
 14
-0.3571428665834986
 24
0.4999999999999999
 14
-0.3571428665834986
 24
-0.084868264124288
 14
0.5
 24
-0.084868264124288
 14
0.5
 24
-0.1389398940951378
 14
0.5
 24
-0.5
 14
0.3571428665834986
 24
-0.5
 14
0.3571450553461482
 24
-0.1043638729284309
  0
HATCH
  5
77
330
1F
100
AcDbEntity
  8
@__WIDOCZNE
  6
Continuous
370
    13
100
AcDbHatch
 10
0.0
 20
0.0
 30
0.0
210
0.0
220
0.0
230
1.0
  2
Siatka_sześciokątna__1
 70
     0
 71
     1
 91
        1
 92
        2
 72
     0
 73
     1
 93
        9
 10
-1358.450539384676
 20
1112.728203228232
 10
-1478.450845811444
 20
1112.728203228232
 10
-1478.450845811444
 20
492.728203228232
 10
-1458.450847353415
 20
492.728203228232
 10
-1458.450847353415
 20
1092.728203228232
 10
-1338.450847353415
 20
1092.728203228232
 10
-1338.450847353415
 20
1148.198776642035
 10
-1338.450847353415
 20
1518.600244513236
 10
-1358.450845811444
 20
1518.600244513236
 97
        1
330
78
 75
     0
 76
     2
 52
0.0
 41
1.0
 77
     0
 78
     6
 53
90.00000000000001
 43
0.0
 44
0.0
 45
-13.85640646055102
 46
0.0
 79
     2
 49
8.0
 49
-16.0
 53
90.00000000000001
 43
-6.928203105926518
 44
12.0
 45
-13.85640646055102
 46
0.0
 79
     2
 49
8.0
 49
-16.0
 53
150.0000000000001
 43
-0.0000000000000031
 44
8.0
 45
6.928203230275499
 46
12.0
 79
     2
 49
8.0
 49
-16.0
 53
150.0000000000001
 43
-13.85640621185303
 44
7.999999999999995
 45
6.928203230275499
 46
12.0
 79
     2
 49
8.0
 49
-16.0
 53
-149.9999999999999
 43
0.0
 44
0.0
 45
-6.92820323027552
 46
11.99999999999999
 79
     2
 49
7.999999999999999
 49
-16.0
 53
-149.9999999999999
 43
-13.85640621185302
 44
-0.0000000000000053
 45
-6.92820323027552
 46
11.99999999999999
 79
     2
 49
7.999999999999999
 49
-16.0
 98
        0
  0
LWPOLYLINE
  5
78
102
{ACAD_REACTORS
330
77
102
}
330
1F
100
AcDbEntity
  8
@__WIDOCZNE
  6
Continuous
370
    25
100
AcDbPolyline
 90
        9
 70
   129
 43
0.0
 10
-1358.450539384676
 20
1112.728203228232
 10
-1478.450845811444
 20
1112.728203228232
 10
-1478.450845811444
 20
492.728203228232
 10
-1458.450847353415
 20
492.728203228232
 10
-1458.450847353415
 20
1092.728203228232
 10
-1338.450847353415
 20
1092.728203228232
 10
-1338.450847353415
 20
1148.198776642035
 10
-1338.450847353415
 20
1518.600244513236
 10
-1358.450845811444
 20
1518.600244513236
  0
WIPEOUT
  5
79
330
1F
100
AcDbEntity
  8
@__WIDOCZNE
  6
Wipeout_Contour
 62
   254
 48
6319.908050506826
370
     0
 92
      140
310
8C00000001000000840000000600000005000000A2B9EDAACD7194C0301C5E4A21A189400000000000000000A2B9EDAACD7194C038EBB58CB2048D40000000000000000001FC759BBDA794C038EBB58CB2048D40000000000000000001FC759BBDA794C0301C5E4A21A189400000000000000000A2B9EDAACD7194C0301C5E
310
4A21A189400000000000000000
100
AcDbWipeout
 90
        0
 10
-1321.935163348681
 20
820.1412551262238
 30
0.0
 11
13.48431599526498
 21
0.0
 31
0.0
 12
0.0
 22
108.4459273204857
 32
0.0
 13
1.0
 23
1.0
340
0
 70
    15
280
     1
281
    50
282
    50
283
     0
360
0
 71
     2
 91
        5
 14
0.5000000000000084
 24
0.5
 14
0.5000000000000084
 24
-0.5
 14
-0.4999999999999916
 24
-0.5
 14
-0.4999999999999916
 24
0.5
 14
0.5000000000000084
 24
0.5
  0
HATCH
  5
7A
330
1F
100
AcDbEntity
  8
@__WIDOCZNE
  6
Continuous
370
    13
100
AcDbHatch
 10
0.0
 20
0.0
 30
0.0
210
0.0
220
0.0
230
1.0
  2
A_kropki_rzadko
 70
     0
 71
     1
 91
        1
 92
        2
 72
     0
 73
     1
 93
        8
 10
-1358.450845811444
 20
2720.000000000001
 10
-1658.204661872664
 20
2720.000000000001
 10
-1658.204661872664
 20
1620.000000000001
 10
-300.0311619633401
 20
1620.000000000001
 10
-300.0311619633401
 20
1694.127958714998
 10
-1478.450845811444
 20
1694.127958714998
 10
-1478.450845811444
 20
2314.127958714997
 10
-1358.450539384676
 20
2314.127958714997
 97
        1
330
7B
 75
     0
 76
     2
 52
0.0
 41
1.0
 77
     0
 78
     2
 53
44.99999999999999
 43
0.0
 44
100.0
 45
-31.81980515339463
 46
31.81980515339464
 79
     4
 49
0.0
 49
-30.0
 49
0.0
 49
-45.0
 53
110.0
 43
100.0
 44
100.0
 45
42.28616793536587
 46
15.39090644965511
 79
     4
 49
0.0
 49
-22.0
 49
0.0
 49
-38.0
 98
        0
  0
LWPOLYLINE
  5
7B
102
{ACAD_REACTORS
330
7A
102
}
330
1F
100
AcDbEntity
  8
@__WIDOCZNE
  6
@ --- gęsto_burzenie
370
    13
100
AcDbPolyline
 90
        8
 70
   129
 43
0.0
 10
-1358.450845811444
 20
2720.000000000001
 10
-1658.204661872664
 20
2720.000000000001
 10
-1658.204661872664
 20
1620.000000000001
 10
-300.0311619633401
 20
1620.000000000001
 10
-300.0311619633401
 20
1694.127958714998
 10
-1478.450845811444
 20
1694.127958714998
 10
-1478.450845811444
 20
2314.127958714997
 10
-1358.450539384676
 20
2314.127958714997
  0
HATCH
  5
7C
330
1F
100
AcDbEntity
  8
@__WIDOCZNE
  6
Continuous
370
    13
100
AcDbHatch
 10
0.0
 20
0.0
 30
0.0
210
0.0
220
0.0
230
1.0
  2
Cegła_zwykła
 70
     0
 71
     1
 91
        1
 92
        2
 72
     0
 73
     1
 93
        4
 10
-943.4508473534154
 20
2312.988143067052
 10
-943.4508473534154
 20
2292.988143067052
 10
-300.0311619633401
 20
2292.988143067052
 10
-300.0311619633401
 20
2312.988143067052
 97
        1
330
7D
 75
     0
 76
     2
 52
0.0
 41
1.0
 77
     0
 78
     1
 53
135.0
 43
-566.5882727349541
 44
2302.988143067052
 45
9.19238781825033
 46
9.192387818250328
 79
     0
 98
        0
  0
LWPOLYLINE
  5
7D
102
{ACAD_REACTORS
330
7C
102
}
330
1F
100
AcDbEntity
  8
@__WIDOCZNE
  6
Continuous
370
    25
100
AcDbPolyline
 90
        4
 70
   129
 43
0.0
 10
-943.4508473534154
 20
2312.988143067052
 10
-943.4508473534154
 20
2292.988143067052
 10
-300.0311619633401
 20
2292.988143067052
 10
-300.0311619633401
 20
2312.988143067052
  0
HATCH
  5
7E
330
1F
100
AcDbEntity
  8
@__WIDOCZNE
  6
Continuous
370
    13
100
AcDbHatch
 10
0.0
 20
0.0
 30
0.0
210
0.0
220
0.0
230
1.0
  2
Beton
 70
     0
 71
     1
 91
        1
 92
        2
 72
     0
 73
     1
 93
        4
 10
-928.4508473534157
 20
2292.988143067052
 10
-300.0311619633401
 20
2292.988143067052
 10
-300.0311619633401
 20
2232.988143067052
 10
-928.4508473534157
 20
2232.988143067052
 97
        1
330
7F
 75
     0
 76
     2
 52
0.0
 41
1.0
 77
     0
 78
     2
 53
44.99999999999999
 43
0.0
 44
0.0
 45
-18.38477563650066
 46
18.38477563650066
 79
     2
 49
19.49999928474426
 49
-6.49999976158142
 53
44.99999999999999
 43
0.0000000000000018
 44
18.38477563650066
 45
-18.38477563650066
 46
18.38477563650066
 79
     2
 49
19.49999928474426
 49
-6.49999976158142
 98
        0
  0
LWPOLYLINE
  5
7F
102
{ACAD_REACTORS
330
7E
102
}
330
1F
100
AcDbEntity
  8
@__WIDOCZNE
  6
Continuous
370
    25
100
AcDbPolyline
 90
        4
 70
   129
 43
0.0
 10
-928.4508473534157
 20
2292.988143067052
 10
-300.0311619633401
 20
2292.988143067052
 10
-300.0311619633401
 20
2232.988143067052
 10
-928.4508473534157
 20
2232.988143067052
  0
WIPEOUT
  5
80
330
1F
100
AcDbEntity
  8
@__WIDOCZNE
  6
Wipeout_Contour
 62
   254
 48
10645.03735266754
370
     0
 92
      140
310
8C00000001000000840000000600000005000000A1B9EDAACD9192C05000CE8341C0A04000000000000000004273DB559BA38DC05000CE8341C0A04000000000000000004273DB559BA38DC0030000000040A5400000000000000000A1B9EDAACD9192C0030000000040A5400000000000000000A1B9EDAACD9192C05000CE
310
8341C0A0400000000000000000
100
AcDbWipeout
 90
        0
 10
-1188.450847353415
 20
2144.127958714998
 30
0.0
 11
240.0
 21
0.0
 31
0.0
 12
0.0
 22
575.872041285003
 32
0.0
 13
1.0
 23
1.0
340
0
 70
    15
280
     1
281
    50
282
    50
283
     0
360
0
 71
     2
 91
        5
 14
-0.5
 24
0.5000000000000004
 14
0.5
 24
0.5000000000000004
 14
0.5
 24
-0.4999999999999996
 14
-0.5
 24
-0.4999999999999996
 14
-0.5
 24
0.5000000000000004
  0
HATCH
  5
81
330
1F
100
AcDbEntity
  8
@__WIDOCZNE
  6
Continuous
370
    13
100
AcDbHatch
 10
0.0
 20
0.0
 30
0.0
210
0.0
220
0.0
230
1.0
  2
__Beton_n_2_średnio
 70
     0
 71
     1
 91
        1
 92
        2
 72
     0
 73
     1
 93
        4
 10
-1188.450847353415
 20
2144.127958714998
 10
-948.4508473534154
 20
2144.127958714998
 10
-948.4508473534154
 20
2720.000000000001
 10
-1188.450847353415
 20
2720.000000000001
 97
        1
330
82
 75
     0
 76
     2
 52
0.0
 41
1.0
 77
     0
 78
     2
 53
44.99999999999999
 43
0.0
 44
0.0
 45
-18.38477631085023
 46
18.38477631085023
 79
     2
 49
19.5
 49
-6.499999999999999
 53
44.99999999999999
 43
0.0000000000000018
 44
18.38477631085023
 45
-18.38477631085023
 46
18.38477631085023
 79
     2
 49
19.5
 49
-6.499999999999999
 98
        0
  0
LWPOLYLINE
  5
82
102
{ACAD_REACTORS
330
81
102
}
330
1F
100
AcDbEntity
  8
@__WIDOCZNE
  6
Continuous
370
    50
100
AcDbPolyline
 90
        4
 70
   129
 43
0.0
 10
-1188.450847353415
 20
2144.127958714998
 10
-948.4508473534154
 20
2144.127958714998
 10
-948.4508473534154
 20
2720.000000000001
 10
-1188.450847353415
 20
2720.000000000001
  0
WIPEOUT
  5
83
330
1F
100
AcDbEntity
  8
@__WIDOCZNE
  6
Wipeout_Contour
 62
   254
 48
8806.58689807395
370
     0
 92
      140
310
8C00000001000000840000000600000005000000CCD6AFA37FC072C04F00CE8341C0A0400000000000000000A2B9EDAACD7194C05000CE8341C0A0400000000000000000A2B9EDAACD7194C09D009C0783D09C400000000000000000CCD6AFA37FC072C09D009C0783D09C400000000000000000CCD6AFA37FC072C04F00CE
310
8341C0A0400000000000000000
100
AcDbWipeout
 90
        0
 10
-1308.450847353416
 20
1844.127958714998
 30
0.0
 11
1008.419685390076
 21
0.0
 31
0.0
 12
0.0
 22
300.0000000000007
 32
0.0
 13
1.0
 23
1.0
340
0
 70
    15
280
     1
281
    50
282
    50
283
     0
360
0
 71
     2
 91
        5
 14
0.5
 24
-0.4999999999999989
 14
-0.5
 24
-0.5000000000000003
 14
-0.5
 24
0.4999999999999996
 14
0.5
 24
0.4999999999999996
 14
0.5
 24
-0.4999999999999989
  0
HATCH
  5
84
330
1F
100
AcDbEntity
  8
@__WIDOCZNE
  6
Continuous
370
    13
100
AcDbHatch
 10
0.0
 20
0.0
 30
0.0
210
0.0
220
0.0
230
1.0
  2
Beton_zbrojony
 70
     0
 71
     1
 91
        1
 92
        2
 72
     0
 73
     1
 93
        4
 10
-300.0311619633401
 20
2144.127958714998
 10
-1308.450847353416
 20
2144.127958714998
 10
-1308.450847353416
 20
1844.127958714998
 10
-300.0311619633401
 20
1844.127958714998
 97
        1
330
85
 75
     0
 76
     2
 52
0.0
 41
1.0
 77
     0
 78
     2
 53
44.99999999999999
 43
0.0
 44
0.0
 45
-18.38477563650066
 46
18.38477563650066
 79
     0
 53
44.99999999999999
 43
-9.192387818250328
 44
9.19238781825033
 45
-18.38477563650066
 46
18.38477563650066
 79
     2
 49
19.49999928474426
 49
-6.49999976158142
 98
        0
  0
LWPOLYLINE
  5
85
102
{ACAD_REACTORS
330
84
102
}
330
1F
100
AcDbEntity
  8
@__WIDOCZNE
  6
Continuous
370
    50
100
AcDbPolyline
 90
        4
 70
   129
 43
0.0
 10
-300.0311619633401
 20
2144.127958714998
 10
-1308.450847353416
 20
2144.127958714998
 10
-1308.450847353416
 20
1844.127958714998
 10
-300.0311619633401
 20
1844.127958714998
  0
WIPEOUT
  5
86
330
1F
100
AcDbEntity
  8
@__WIDOCZNE
  6
Wipeout_Contour
 62
   254
 48
7990.820552838701
370
     0
 92
      140
310
8C00000001000000840000000600000005000000CCD6AFA37FC072C09D009C0783789A400000000000000000CCD6AFA37FC072C09D009C0783D09C400000000000000000A2B9EDAACD7194C09D009C0783D09C400000000000000000A2B9EDAACD7194C09D009C0783789A400000000000000000CCD6AFA37FC072C09D009C
310
0783789A400000000000000000
100
AcDbWipeout
 90
        0
 10
-1308.450847353416
 20
1694.127958714998
 30
0.0
 11
1008.419685390076
 21
0.0
 31
0.0
 12
0.0
 22
150.0
 32
0.0
 13
1.0
 23
1.0
340
0
 70
    15
280
     1
281
    50
282
    50
283
     0
360
0
 71
     2
 91
        5
 14
0.5
 24
0.5
 14
0.5
 24
-0.5
 14
-0.5
 24
-0.5
 14
-0.5
 24
0.5
 14
0.5
 24
0.5
  0
HATCH
  5
87
330
1F
100
AcDbEntity
  8
@__WIDOCZNE
  6
Continuous
370
    13
100
AcDbHatch
 10
0.0
 20
0.0
 30
0.0
210
0.0
220
0.0
230
1.0
  2
Izolacja_miękka
 70
     0
 71
     1
 91
        1
 92
        2
 72
     0
 73
     1
 93
        4
 10
-300.0311619633401
 20
1694.127958714998
 10
-300.0311619633401
 20
1844.127958714998
 10
-1308.450847353416
 20
1844.127958714998
 10
-1308.450847353416
 20
1694.127958714998
 97
        1
330
88
 75
     0
 76
     2
 52
0.0
 41
1.0
 77
     0
 78
     2
 53
60.00000000000001
 43
0.0
 44
0.0
 45
-12.99038105676658
 46
7.499999999999996
 79
     0
 53
120.0
 43
0.0
 44
0.0
 45
12.99038105676657
 46
7.500000000000008
 79
     0
 98
        0
  0
LWPOLYLINE
  5
88
102
{ACAD_REACTORS
330
87
102
}
330
1F
100
AcDbEntity
  8
@__WIDOCZNE
  6
Continuous
370
    25
100
AcDbPolyline
 90
        4
 70
   129
 43
0.0
 10
-300.0311619633401
 20
1694.127958714998
 10
-300.0311619633401
 20
1844.127958714998
 10
-1308.450847353416
 20
1844.127958714998
 10
-1308.450847353416
 20
1694.127958714998
  0
WIPEOUT
  5
89
330
1F
100
AcDbEntity
  8
@__WIDOCZNE
  6
Wipeout_Contour
 62
   254
 48
23233.71751938303
370
     0
 92
      260
310
0401000001000000FC000000060000000A000000A2B9EDAACD7194C09D009C0783789A400000000000000000A2B9EDAACD7194C05000CE8341C0A0400000000000000000EEDB51812A3793C05000CE8341C0A0400000000000000000A1B9EDAACD9192C0260781A8C32DA1400000000000000000A1B9EDAACD9192C0030000
310
000040A5400000000000000000A1B9EDAACDE994C0030000000040A5400000000000000000A1B9EDAACDE994C04F00CE8341ECA1400000000000000000A1B9EDAACDC996C04F00CE8341ECA1400000000000000000A1B9EDAACDC996C09D009C0783789A400000000000000000A2B9EDAACD7194C09D009C0783789A400000
310
000000000000
100
AcDbWipeout
 90
        0
 10
-1458.450847353415
 20
1694.127958714998
 30
0.0
 11
270.0
 21
0.0
 31
0.0
 12
0.0
 22
1025.872041285004
 32
0.0
 13
1.0
 23
1.0
340
0
 70
    15
280
     1
281
    50
282
    50
283
     0
360
0
 71
     2
 91
       10
 14
0.0555555555555547
 24
0.5000000000000001
 14
0.0555555555555547
 24
0.0613488019067834
 14
0.3468864385654536
 24
0.0613488019067834
 14
0.5
 24
0.0079754921370487
 14
0.5
 24
-0.4999999999999999
 14
-0.0555555555555556
 24
-0.4999999999999999
 14
-0.0555555555555556
 24
-0.0848682641242881
 14
-0.5
 24
-0.0848682641242881
 14
-0.5
 24
0.5000000000000001
 14
0.0555555555555547
 24
0.5000000000000001
  0
HATCH
  5
8A
330
1F
100
AcDbEntity
  8
@__WIDOCZNE
  6
Continuous
370
    13
100
AcDbHatch
 10
0.0
 20
0.0
 30
0.0
210
0.0
220
0.0
230
1.0
  2
Izolacja_miękka
 70
     0
 71
     1
 91
        1
 92
        2
 72
     0
 73
     1
 93
        9
 10
-1308.450847353416
 20
1694.127958714998
 10
-1308.450847353416
 20
2144.127958714998
 10
-1229.791508940743
 20
2144.127958714998
 10
-1188.450847353415
 20
2198.882144958613
 10
-1188.450847353415
 20
2720.000000000001
 10
-1338.450847353415
 20
2720.000000000001
 10
-1338.450847353415
 20
2294.127958714998
 10
-1458.450847353415
 20
2294.127958714998
 10
-1458.450847353415
 20
1694.127958714998
 97
        1
330
8B
 75
     0
 76
     2
 52
0.0
 41
1.0
 77
     0
 78
     2
 53
60.00000000000001
 43
0.0
 44
0.0
 45
-12.99038105676658
 46
7.499999999999996
 79
     0
 53
120.0
 43
0.0
 44
0.0
 45
12.99038105676657
 46
7.500000000000008
 79
     0
 98
        0
  0
LWPOLYLINE
  5
8B
102
{ACAD_REACTORS
330
8A
102
}
330
1F
100
AcDbEntity
  8
@__WIDOCZNE
  6
Continuous
370
    25
100
AcDbPolyline
 90
        9
 70
   129
 43
0.0
 10
-1308.450847353416
 20
1694.127958714998
 10
-1308.450847353416
 20
2144.127958714998
 10
-1229.791508940743
 20
2144.127958714998
 10
-1188.450847353415
 20
2198.882144958613
 10
-1188.450847353415
 20
2720.000000000001
 10
-1338.450847353415
 20
2720.000000000001
 10
-1338.450847353415
 20
2294.127958714998
 10
-1458.450847353415
 20
2294.127958714998
 10
-1458.450847353415
 20
1694.127958714998
  0
WIPEOUT
  5
8C
330
1F
100
AcDbEntity
  8
@__WIDOCZNE
  6
Wipeout_Contour
 62
   254
 48
24064.47691607879
370
     0
 92
      260
310
0401000001000000FC000000060000000A000000FB4A325ACD3995C04E00CE834114A2400000000000000000C33E86AACD1997C04E00CE834114A2400000000000000000C33E86AACD1997C09D009C0783789A400000000000000000A1B9EDAACDC996C09D009C0783789A400000000000000000A1B9EDAACDC996C04F00CE
310
8341ECA1400000000000000000A1B9EDAACDE994C04F00CE8341ECA1400000000000000000A1B9EDAACDE994C09C9DCD72325BA2400000000000000000A1B9EDAACDE994C0030000000040A5400000000000000000C33E86AACD3995C0030000000040A5400000000000000000FB4A325ACD3995C04E00CE834114A2400000
310
000000000000
100
AcDbWipeout
 90
        0
 10
-1478.450845811444
 20
1694.127958714998
 30
0.0
 11
139.9999984580286
 21
0.0
 31
0.0
 12
0.0
 22
1025.872041285004
 32
0.0
 13
1.0
 23
1.0
340
0
 70
    15
280
     1
281
    50
282
    50
283
     0
360
0
 71
     2
 91
       10
 14
0.3571450553461482
 24
-0.1043638729284306
 14
-0.5
 24
-0.1043638729284306
 14
-0.5
 24
0.5000000000000001
 14
-0.3571428665834986
 24
0.5000000000000001
 14
-0.3571428665834986
 24
-0.0848682641242881
 14
0.5
 24
-0.0848682641242881
 14
0.5
 24
-0.1389398940951377
 14
0.5
 24
-0.4999999999999999
 14
0.3571428665834986
 24
-0.4999999999999999
 14
0.3571450553461482
 24
-0.1043638729284306
  0
HATCH
  5
8D
330
1F
100
AcDbEntity
  8
@__WIDOCZNE
  6
Continuous
370
    13
100
AcDbHatch
 10
0.0
 20
0.0
 30
0.0
210
0.0
220
0.0
230
1.0
  2
Siatka_sześciokątna__1
 70
     0
 71
     1
 91
        1
 92
        2
 72
     0
 73
     1
 93
        9
 10
-1358.450539384676
 20
2314.127958714997
 10
-1478.450845811444
 20
2314.127958714997
 10
-1478.450845811444
 20
1694.127958714998
 10
-1458.450847353415
 20
1694.127958714998
 10
-1458.450847353415
 20
2294.127958714998
 10
-1338.450847353415
 20
2294.127958714998
 10
-1338.450847353415
 20
2349.598532128801
 10
-1338.450847353415
 20
2720.000000000001
 10
-1358.450845811444
 20
2720.000000000001
 97
        1
330
8E
 75
     0
 76
     2
 52
0.0
 41
1.0
 77
     0
 78
     6
 53
90.00000000000001
 43
0.0
 44
0.0
 45
-13.85640646055102
 46
0.0
 79
     2
 49
8.0
 49
-16.0
 53
90.00000000000001
 43
-6.928203105926518
 44
12.0
 45
-13.85640646055102
 46
0.0
 79
     2
 49
8.0
 49
-16.0
 53
150.0000000000001
 43
-0.0000000000000031
 44
8.0
 45
6.928203230275499
 46
12.0
 79
     2
 49
8.0
 49
-16.0
 53
150.0000000000001
 43
-13.85640621185303
 44
7.999999999999995
 45
6.928203230275499
 46
12.0
 79
     2
 49
8.0
 49
-16.0
 53
-149.9999999999999
 43
0.0
 44
0.0
 45
-6.92820323027552
 46
11.99999999999999
 79
     2
 49
7.999999999999999
 49
-16.0
 53
-149.9999999999999
 43
-13.85640621185302
 44
-0.0000000000000053
 45
-6.92820323027552
 46
11.99999999999999
 79
     2
 49
7.999999999999999
 49
-16.0
 98
        0
  0
LWPOLYLINE
  5
8E
102
{ACAD_REACTORS
330
8D
102
}
330
1F
100
AcDbEntity
  8
@__WIDOCZNE
  6
Continuous
370
    25
100
AcDbPolyline
 90
        9
 70
   129
 43
0.0
 10
-1358.450539384676
 20
2314.127958714997
 10
-1478.450845811444
 20
2314.127958714997
 10
-1478.450845811444
 20
1694.127958714998
 10
-1458.450847353415
 20
1694.127958714998
 10
-1458.450847353415
 20
2294.127958714998
 10
-1338.450847353415
 20
2294.127958714998
 10
-1338.450847353415
 20
2349.598532128801
 10
-1338.450847353415
 20
2720.000000000001
 10
-1358.450845811444
 20
2720.000000000001
  0
WIPEOUT
  5
8F
330
1F
100
AcDbEntity
  8
@__WIDOCZNE
  6
Wipeout_Contour
 62
   254
 48
9831.762876432917
370
     0
 92
      140
310
8C0000000100000084000000060000000500000066B9B117A27094C0014A25DC62969F40000000000000000066B9B117A27094C0C298A8BE15A4A0400000000000000000879DB7E061AE94C0C298A8BE15A4A0400000000000000000879DB7E061AE94C0014A25DC62969F40000000000000000066B9B117A27094C0014A25
310
DC62969F400000000000000000
100
AcDbWipeout
 90
        0
 10
-1323.595583790769
 20
2021.596542914049
 30
0.0
 11
15.43729027943505
 21
0.0
 31
0.0
 12
0.0
 22
108.4459273204855
 32
0.0
 13
1.0
 23
1.0
340
0
 70
    15
280
     1
281
    50
282
    50
283
     0
360
0
 71
     2
 91
        5
 14
0.4999999999999926
 24
0.4999999999999989
 14
0.4999999999999926
 24
-0.500000000000001
 14
-0.5000000000000073
 24
-0.500000000000001
 14
-0.5000000000000073
 24
0.4999999999999989
 14
0.4999999999999926
 24
0.4999999999999989
  0
WIPEOUT
  5
90
330
1F
100
AcDbEntity
  8
@__WIDOCZNE
  6
Wipeout_Contour
 62
   254
 48
10860.61115931029
370
     0
 92
      140
310
8C00000001000000840000000600000005000000102FCF9E949192C0696037219BC9A0400000000000000000102FCF9E949192C0030000000040A54000000000000000008BBFE40DA8CB92C0030000000040A54000000000000000008BBFE40DA8CB92C0696037219BC9A0400000000000000000102FCF9E949192C0696037
310
219BC9A0400000000000000000
100
AcDbWipeout
 90
        0
 10
-1202.914115499678
 20
2148.802987795371
 30
0.0
 11
14.51897844023074
 21
0.0
 31
0.0
 12
0.0
 22
571.1970122046305
 32
0.0
 13
1.0
 23
1.0
340
0
 70
    15
280
     1
281
    50
282
    50
283
     0
360
0
 71
     2
 91
        5
 14
0.5000000000000079
 24
0.5
 14
0.5000000000000079
 24
-0.5
 14
-0.4999999999999922
 24
-0.5
 14
-0.4999999999999922
 24
0.5
 14
0.5000000000000079
 24
0.5
  0
HATCH
  5
91
330
1F
100
AcDbEntity
  8
@__WIDOCZNE
  6
Continuous
370
    25
100
AcDbHatch
 10
0.0
 20
0.0
 30
0.0
210
0.0
220
0.0
230
1.0
  2
__Kropki_luz_n2_burzenie
 70
     0
 71
     1
 91
        1
 92
        2
 72
     0
 73
     1
 93
        4
 10
-948.4508473535244
 20
2312.988143067052
 10
-938.4508473535244
 20
2312.988143067052
 10
-938.4508473535244
 20
2720.000000000001
 10
-948.4508473535244
 20
2720.000000000001
 97
        1
330
92
 75
     0
 76
     2
 52
0.0
 41
1.0
 77
     0
 78
     2
 53
45.0
 43
0.0
 44
35.0
 45
-11.13693180368812
 46
11.13693180368812
 79
     4
 49
0.0
 49
-10.5
 49
0.0
 49
-15.75
 53
110.0
 43
35.0
 44
35.0
 45
14.80015877737805
 46
5.386817257379289
 79
     4
 49
0.0
 49
-7.699999999999999
 49
0.0
 49
-13.3
 98
        0
  0
LWPOLYLINE
  5
92
102
{ACAD_REACTORS
330
91
102
}
330
1F
100
AcDbEntity
  8
@__WIDOCZNE
  6
Continuous
370
    25
100
AcDbPolyline
 90
        4
 70
   129
 43
0.0
 10
-948.4508473535244
 20
2312.988143067052
 10
-938.4508473535244
 20
2312.988143067052
 10
-938.4508473535244
 20
2720.000000000001
 10
-948.4508473535244
 20
2720.000000000001
  0
HATCH
  5
93
330
1F
100
AcDbEntity
  8
@__WIDOCZNE
  6
Continuous
370
    25
100
AcDbHatch
 10
0.0
 20
0.0
 30
0.0
210
0.0
220
0.0
230
1.0
  2
__Kropki_luz_n2_burzenie
 70
     0
 71
     1
 91
        1
 92
        2
 72
     0
 73
     1
 93
        4
 10
-948.4508473535245
 20
1111.588387580286
 10
-938.4508473535244
 20
1111.588387580286
 10
-938.4508473535244
 20
1518.600244513236
 10
-948.4508473535245
 20
1518.600244513236
 97
        1
330
94
 75
     0
 76
     2
 52
0.0
 41
1.0
 77
     0
 78
     2
 53
45.0
 43
0.0
 44
35.0
 45
-11.13693180368812
 46
11.13693180368812
 79
     4
 49
0.0
 49
-10.5
 49
0.0
 49
-15.75
 53
110.0
 43
35.0
 44
35.0
 45
14.80015877737805
 46
5.386817257379289
 79
     4
 49
0.0
 49
-7.699999999999999
 49
0.0
 49
-13.3
 98
        0
  0
LWPOLYLINE
  5
94
102
{ACAD_REACTORS
330
93
102
}
330
1F
100
AcDbEntity
  8
@__WIDOCZNE
  6
Continuous
370
    25
100
AcDbPolyline
 90
        4
 70
   129
 43
0.0
 10
-948.4508473535245
 20
1111.588387580286
 10
-938.4508473535244
 20
1111.588387580286
 10
-938.4508473535244
 20
1518.600244513236
 10
-948.4508473535245
 20
1518.600244513236
  0
HATCH
  5
95
330
1F
100
AcDbEntity
  8
@__WIDOCZNE
  6
Continuous
 62
   142
370
    13
100
AcDbHatch
 10
0.0
 20
0.0
 30
0.0
210
0.0
220
0.0
230
1.0
  2
SOLID
 70
     1
 71
     1
 91
        1
 92
        2
 72
     1
 73
     1
 93
        6
 10
-1440.001988959915
 20
176.8504469129687
 42
0.0
 10
-1440.001988959915
 20
201.4286692887097
 42
0.0
 10
-1464.580211335656
 20
201.4286692887097
 42
0.414213562373095
 10
-1494.074078186545
 20
171.9348024378213
 42
0.0
 10
-1494.074078186545
 20
147.3565800620804
 42
0.0
 10
-1469.495855810804
 20
147.3565800620804
 42
0.414213562373095
 97
        1
330
96
 75
     0
 76
     1
 98
        0
  0
LWPOLYLINE
  5
96
102
{ACAD_REACTORS
330
95
102
}
330
1F
100
AcDbEntity
  8
@__WIDOCZNE
  6
Continuous
 62
   142
370
    13
100
AcDbPolyline
 90
        6
 70
   129
 43
0.0
 10
-1440.001988959915
 20
176.8504469129687
 10
-1440.001988959915
 20
201.4286692887097
 10
-1464.580211335656
 20
201.4286692887097
 42
0.414213562373095
 10
-1494.074078186545
 20
171.9348024378213
 10
-1494.074078186545
 20
147.3565800620804
 10
-1469.495855810804
 20
147.3565800620804
 42
0.414213562373095
  0
HATCH
  5
97
330
1F
100
AcDbEntity
  8
@__WIDOCZNE
  6
Continuous
370
    13
100
AcDbHatch
 10
0.0
 20
0.0
 30
0.0
210
0.0
220
0.0
230
1.0
  2
SOLID
 70
     1
 71
     1
 91
        3
 92
        2
 72
     1
 73
     1
 93
        8
 10
-1894.608978596418
 20
148.1716021823817
 42
0.0723831287448308
 10
-1930.280884078957
 20
147.8674536450235
 42
0.0
 10
-1930.280884078957
 20
79.23677016488456
 42
0.0475754375093521
 10
-1910.990466674141
 20
77.13299178150018
 42
0.0
 10
-1908.221006603722
 20
77.13299178150018
 42
0.0201526900432898
 10
-1899.99792015914
 20
77.57623055987744
 42
0.1117820670402823
 10
-1882.464957955005
 20
83.11478249307486
 42
0.5989391739264164
 10
-1888.283831342266
 20
115.9908535396532
 42
0.7144612958116017
 97
        1
330
98
 92
        2
 72
     1
 73
     1
 93
        4
 10
-1917.446624371063
 20
120.0601221925072
 42
0.018587651104709
 10
-1899.850094396254
 20
120.0770652554865
 42
0.8637728306683231
 10
-1900.363184084205
 20
138.3576140733566
 42
0.0363046036528515
 10
-1917.446624371063
 20
138.3576140733566
 42
0.0
 97
        1
330
99
 92
        2
 72
     1
 73
     1
 93
        4
 10
-1917.248213653417
 20
88.30746993140964
 42
0.0570602598095221
 10
-1899.107299369986
 20
88.4825430699791
 42
0.9504624262000833
 10
-1899.297593656556
 20
109.8135267392326
 42
0.0333151677067815
 10
-1917.248213653417
 20
109.8135267392326
 42
0.0
 97
        1
330
9A
 75
     0
 76
     1
 98
        0
  0
LWPOLYLINE
  5
98
102
{ACAD_REACTORS
330
97
102
}
330
1F
100
AcDbEntity
  8
@__WIDOCZNE
  6
Continuous
370
    13
100
AcDbPolyline
 90
        8
 70
   129
 43
0.0
 10
-1894.608978596418
 20
148.1716021823817
 42
0.0723831287448308
 10
-1930.280884078957
 20
147.8674536450235
 10
-1930.280884078957
 20
79.23677016488456
 42
0.0475754375093521
 10
-1910.990466674141
 20
77.13299178150018
 10
-1908.221006603722
 20
77.13299178150018
 42
0.0201526900432898
 10
-1899.99792015914
 20
77.57623055987744
 42
0.1117820670402823
 10
-1882.464957955005
 20
83.11478249307486
 42
0.5989391739264164
 10
-1888.283831342266
 20
115.9908535396532
 42
0.7144612958116017
  0
LWPOLYLINE
  5
99
102
{ACAD_REACTORS
330
97
102
}
330
1F
100
AcDbEntity
  8
@__WIDOCZNE
  6
Continuous
370
    13
100
AcDbPolyline
 90
        4
 70
   129
 43
0.0
 10
-1917.446624371063
 20
120.0601221925072
 42
0.018587651104709
 10
-1899.850094396254
 20
120.0770652554865
 42
0.8637728306683231
 10
-1900.363184084205
 20
138.3576140733566
 42
0.0363046036528515
 10
-1917.446624371063
 20
138.3576140733566
  0
LWPOLYLINE
  5
9A
102
{ACAD_REACTORS
330
97
102
}
330
1F
100
AcDbEntity
  8
@__WIDOCZNE
  6
Continuous
370
    13
100
AcDbPolyline
 90
        4
 70
   129
 43
0.0
 10
-1917.248213653417
 20
88.30746993140964
 42
0.0570602598095221
 10
-1899.107299369986
 20
88.4825430699791
 42
0.9504624262000833
 10
-1899.297593656556
 20
109.8135267392326
 42
0.0333151677067815
 10
-1917.248213653417
 20
109.8135267392326
  0
HATCH
  5
9B
330
1F
100
AcDbEntity
  8
@__WIDOCZNE
  6
Continuous
370
    13
100
AcDbHatch
 10
0.0
 20
0.0
 30
0.0
210
0.0
220
0.0
230
1.0
  2
SOLID
 70
     1
 71
     1
 91
        1
 92
        2
 72
     1
 73
     1
 93
       12
 10
-1779.402714440489
 20
132.4614255428731
 42
0.0
 10
-1795.324133915959
 20
132.4614255428731
 42
0.0
 10
-1795.324133915959
 20
147.9472341783427
 42
0.0
 10
-1807.603398609457
 20
145.4497566135621
 42
0.0
 10
-1807.603398609457
 20
94.39724550142608
 42
0.3686923280690939
 10
-1790.339247767994
 20
77.19259236232107
 42
0.0
 10
-1777.892755622336
 20
77.23556106479984
 42
0.0
 10
-1775.240251832524
 20
88.84026514522952
 42
0.0
 10
-1787.950667203237
 20
88.84026514522952
 42
-0.3159610186060354
 10
-1795.324133915959
 20
96.21373185795251
 42
0.0
 10
-1795.324133915959
 20
120.9952887917644
 42
0.0
 10
-1779.402714440489
 20
120.9952887917644
 42
0.0
 97
        1
330
9C
 75
     0
 76
     1
 98
        0
  0
LWPOLYLINE
  5
9C
102
{ACAD_REACTORS
330
9B
102
}
330
1F
100
AcDbEntity
  8
@__WIDOCZNE
  6
Continuous
370
    13
100
AcDbPolyline
 90
       12
 70
   129
 43
0.0
 10
-1779.402714440489
 20
132.4614255428731
 10
-1795.324133915959
 20
132.4614255428731
 10
-1795.324133915959
 20
147.9472341783427
 10
-1807.603398609457
 20
145.4497566135621
 10
-1807.603398609457
 20
94.39724550142608
 42
0.3686923280690939
 10
-1790.339247767994
 20
77.19259236232107
 10
-1777.892755622336
 20
77.23556106479984
 10
-1775.240251832524
 20
88.84026514522952
 10
-1787.950667203237
 20
88.84026514522952
 42
-0.3159610186060354
 10
-1795.324133915959
 20
96.21373185795251
 10
-1795.324133915959
 20
120.9952887917644
 10
-1779.402714440489
 20
120.9952887917644
  0
HATCH
  5
9D
330
1F
100
AcDbEntity
  8
@__WIDOCZNE
  6
Continuous
370
    13
100
AcDbHatch
 10
0.0
 20
0.0
 30
0.0
210
0.0
220
0.0
230
1.0
  2
SOLID
 70
     1
 71
     1
 91
        2
 92
        2
 72
     1
 73
     1
 93
       14
 10
-1745.378945529237
 20
120.660860919175
 42
-0.387209016979461
 10
-1737.643449429657
 20
112.5444368899994
 42
0.0
 10
-1737.574328139302
 20
109.4742426602674
 42
0.1185067504646354
 10
-1755.348438172751
 20
109.6343642799109
 42
0.2642193030162518
 10
-1768.065550204987
 20
99.53992440691367
 42
0.1757337626801403
 10
-1768.080926769487
 20
88.36255346101035
 42
0.2604621029539542
 10
-1755.804478884416
 20
77.44278968910295
 42
0.0083652857947627
 10
-1752.260288367527
 20
77.13299178150018
 42
0.0
 10
-1737.288899371438
 20
77.13299178150018
 42
0.028992295246684
 10
-1725.069614284467
 20
78.71095824818214
 42
0.0
 10
-1725.696508768956
 20
113.3765513552358
 42
0.4278697545607686
 10
-1743.114318429231
 20
131.7759065504073
 42
0.0
 10
-1760.567750622603
 20
131.8491757142386
 42
0.0
 10
-1763.329565526089
 20
120.660860919175
 42
0.0
 97
        1
330
9E
 92
        2
 72
     1
 73
     1
 93
        6
 10
-1737.464524662475
 20
100.9694597079722
 42
0.1273826308893613
 10
-1751.046762368616
 20
101.3190620453254
 42
0.2091253650713026
 10
-1756.414701844609
 20
96.22346481606841
 42
0.067218802794298
 10
-1756.351643396617
 20
92.31592620878176
 42
0.2977682718343915
 10
-1750.831290205579
 20
86.64088600744252
 42
0.0710664823309622
 10
-1737.464524662475
 20
86.66701657441139
 42
0.0
 97
        1
330
9F
 75
     0
 76
     1
 98
        0
  0
LWPOLYLINE
  5
9E
102
{ACAD_REACTORS
330
9D
102
}
330
1F
100
AcDbEntity
  8
@__WIDOCZNE
  6
Continuous
370
    13
100
AcDbPolyline
 90
       14
 70
   129
 43
0.0
 10
-1745.378945529237
 20
120.660860919175
 42
-0.387209016979461
 10
-1737.643449429657
 20
112.5444368899994
 10
-1737.574328139302
 20
109.4742426602674
 42
0.1185067504646354
 10
-1755.348438172751
 20
109.6343642799109
 42
0.2642193030162518
 10
-1768.065550204987
 20
99.53992440691367
 42
0.1757337626801403
 10
-1768.080926769487
 20
88.36255346101035
 42
0.2604621029539542
 10
-1755.804478884416
 20
77.44278968910295
 42
0.0083652857947627
 10
-1752.260288367527
 20
77.13299178150018
 10
-1737.288899371438
 20
77.13299178150018
 42
0.028992295246684
 10
-1725.069614284467
 20
78.71095824818214
 10
-1725.696508768956
 20
113.3765513552358
 42
0.4278697545607686
 10
-1743.114318429231
 20
131.7759065504073
 10
-1760.567750622603
 20
131.8491757142386
 10
-1763.329565526089
 20
120.660860919175
  0
LWPOLYLINE
  5
9F
102
{ACAD_REACTORS
330
9D
102
}
330
1F
100
AcDbEntity
  8
@__WIDOCZNE
  6
Continuous
370
    13
100
AcDbPolyline
 90
        6
 70
   129
 43
0.0
 10
-1737.464524662475
 20
100.9694597079722
 42
0.1273826308893613
 10
-1751.046762368616
 20
101.3190620453254
 42
0.2091253650713026
 10
-1756.414701844609
 20
96.22346481606841
 42
0.067218802794298
 10
-1756.351643396617
 20
92.31592620878176
 42
0.2977682718343915
 10
-1750.831290205579
 20
86.64088600744252
 42
0.0710664823309622
 10
-1737.464524662475
 20
86.66701657441139
  0
HATCH
  5
A0
330
1F
100
AcDbEntity
  8
@__WIDOCZNE
  6
Continuous
370
    13
100
AcDbHatch
 10
0.0
 20
0.0
 30
0.0
210
0.0
220
0.0
230
1.0
  2
SOLID
 70
     1
 71
     1
 91
        1
 92
        2
 72
     1
 73
     1
 93
       26
 10
-1704.198388356195
 20
132.0276615001532
 42
0.0863077155126181
 10
-1715.782746252502
 20
129.1891773723179
 42
0.0
 10
-1715.782746252502
 20
77.13299178150018
 42
0.0
 10
-1702.78504445301
 20
77.13299178150018
 42
0.0
 10
-1702.78504445301
 20
120.7194570941574
 42
-0.12168371550613
 10
-1693.122265044221
 20
121.671887792587
 42
-0.3861329478031837
 10
-1685.237625678684
 20
112.4892130724681
 42
0.0
 10
-1685.237625678684
 20
77.13299178150018
 42
0.0
 10
-1672.750237854787
 20
77.13299178150018
 42
0.0
 10
-1672.932143332499
 20
111.3351256737882
 42
0.0
 10
-1672.750237854788
 20
111.3388769910432
 42
0.0799288732000265
 10
-1674.003794302232
 20
118.4435360548245
 42
0.0
 10
-1672.739100694379
 20
119.2256500031501
 42
-0.1916235362829357
 10
-1661.562754209956
 20
121.4010368399431
 42
-0.3589776600930252
 10
-1654.78340979552
 20
113.2931338457225
 42
0.0
 10
-1654.777166722256
 20
77.13299178150018
 42
0.0
 10
-1642.868830936786
 20
77.13299178150018
 42
0.0
 10
-1642.874123468251
 20
115.8010197971979
 42
0.3475935087177212
 10
-1657.366660587629
 20
132.4614255428731
 42
0.0
 10
-1667.170892658721
 20
132.4614255428731
 42
0.0002381544695914
 10
-1667.238346976976
 20
132.4566784111009
 42
0.1173548723086789
 10
-1673.239100483088
 20
130.7219842169598
 42
0.1053500657717058
 10
-1679.449964778136
 20
126.8192592530663
 42
0.1560368886834541
 10
-1688.651553086187
 20
132.1394817433087
 42
0.0158994515272265
 10
-1693.078612422362
 20
132.4614255428731
 42
0.0
 10
-1698.77336181702
 20
132.4614255428731
 42
0.0194967579096993
 97
        1
330
A1
 75
     0
 76
     1
 98
        0
  0
LWPOLYLINE
  5
A1
102
{ACAD_REACTORS
330
A0
102
}
330
1F
100
AcDbEntity
  8
@__WIDOCZNE
  6
Continuous
370
    13
100
AcDbPolyline
 90
       26
 70
   129
 43
0.0
 10
-1704.198388356195
 20
132.0276615001532
 42
0.0863077155126181
 10
-1715.782746252502
 20
129.1891773723179
 10
-1715.782746252502
 20
77.13299178150018
 10
-1702.78504445301
 20
77.13299178150018
 10
-1702.78504445301
 20
120.7194570941574
 42
-0.12168371550613
 10
-1693.122265044221
 20
121.671887792587
 42
-0.3861329478031837
 10
-1685.237625678684
 20
112.4892130724681
 10
-1685.237625678684
 20
77.13299178150018
 10
-1672.750237854787
 20
77.13299178150018
 10
-1672.932143332499
 20
111.3351256737882
 10
-1672.750237854788
 20
111.3388769910432
 42
0.0799288732000265
 10
-1674.003794302232
 20
118.4435360548245
 10
-1672.739100694379
 20
119.2256500031501
 42
-0.1916235362829357
 10
-1661.562754209956
 20
121.4010368399431
 42
-0.3589776600930252
 10
-1654.78340979552
 20
113.2931338457225
 10
-1654.777166722256
 20
77.13299178150018
 10
-1642.868830936786
 20
77.13299178150018
 10
-1642.874123468251
 20
115.8010197971979
 42
0.3475935087177212
 10
-1657.366660587629
 20
132.4614255428731
 10
-1667.170892658721
 20
132.4614255428731
 42
0.0002381544695914
 10
-1667.238346976976
 20
132.4566784111009
 42
0.1173548723086789
 10
-1673.239100483088
 20
130.7219842169598
 42
0.1053500657717058
 10
-1679.449964778136
 20
126.8192592530663
 42
0.1560368886834541
 10
-1688.651553086187
 20
132.1394817433087
 42
0.0158994515272265
 10
-1693.078612422362
 20
132.4614255428731
 10
-1698.77336181702
 20
132.4614255428731
 42
0.0194967579096993
  0
HATCH
  5
A2
330
1F
100
AcDbEntity
  8
@__WIDOCZNE
  6
Continuous
370
    13
100
AcDbHatch
 10
0.0
 20
0.0
 30
0.0
210
0.0
220
0.0
230
1.0
  2
SOLID
 70
     1
 71
     1
 91
        2
 92
        2
 72
     1
 73
     1
 93
       14
 10
-1614.164290040023
 20
131.2162750498799
 42
0.2809658966461606
 10
-1632.559778033305
 20
112.1858372086972
 42
0.1091159824470767
 10
-1632.545983001144
 20
95.21703033515821
 42
0.2766399819923606
 10
-1614.066078512206
 20
77.87418971138565
 42
0.0392105095801167
 10
-1608.998548032178
 20
77.15518527711745
 42
0.0
 10
-1591.383049920814
 20
77.13299178150018
 42
0.0
 10
-1589.184423721429
 20
88.00747491085475
 42
0.0
 10
-1607.586468273167
 20
88.00747491085475
 42
-0.1667294674755062
 10
-1615.564314677699
 20
90.7438261245303
 42
-0.081638462027361
 10
-1619.662035927926
 20
96.01357122043014
 42
-0.0661503038161424
 10
-1620.215334957533
 20
99.55237964894786
 42
0.0
 10
-1585.042525920222
 20
99.55237964894786
 42
0.0
 10
-1585.042525920222
 20
110.7910286904551
 42
0.3105787245802772
 10
-1601.826375949016
 20
131.2437507951287
 42
0.1083142208160692
 97
        1
330
A3
 92
        2
 72
     1
 73
     1
 93
        5
 10
-1605.160813196457
 20
121.8499139829844
 42
0.1431069476368757
 10
-1611.105556534525
 20
122.0608693477291
 42
0.3279495498710064
 10
-1620.210690757235
 20
109.651053651909
 42
0.0
 10
-1596.837795763235
 20
109.651053651909
 42
0.0
 10
-1596.837795763235
 20
110.6066279412232
 42
0.3298596086471468
 97
        1
330
A4
 75
     0
 76
     1
 98
        0
  0
LWPOLYLINE
  5
A3
102
{ACAD_REACTORS
330
A2
102
}
330
1F
100
AcDbEntity
  8
@__WIDOCZNE
  6
Continuous
370
    13
100
AcDbPolyline
 90
       14
 70
   129
 43
0.0
 10
-1614.164290040023
 20
131.2162750498799
 42
0.2809658966461606
 10
-1632.559778033305
 20
112.1858372086972
 42
0.1091159824470767
 10
-1632.545983001144
 20
95.21703033515821
 42
0.2766399819923606
 10
-1614.066078512206
 20
77.87418971138565
 42
0.0392105095801167
 10
-1608.998548032178
 20
77.15518527711745
 10
-1591.383049920814
 20
77.13299178150018
 10
-1589.184423721429
 20
88.00747491085475
 10
-1607.586468273167
 20
88.00747491085475
 42
-0.1667294674755062
 10
-1615.564314677699
 20
90.7438261245303
 42
-0.081638462027361
 10
-1619.662035927926
 20
96.01357122043014
 42
-0.0661503038161424
 10
-1620.215334957533
 20
99.55237964894786
 10
-1585.042525920222
 20
99.55237964894786
 10
-1585.042525920222
 20
110.7910286904551
 42
0.3105787245802772
 10
-1601.826375949016
 20
131.2437507951287
 42
0.1083142208160692
  0
LWPOLYLINE
  5
A4
102
{ACAD_REACTORS
330
A2
102
}
330
1F
100
AcDbEntity
  8
@__WIDOCZNE
  6
Continuous
370
    13
100
AcDbPolyline
 90
        5
 70
   129
 43
0.0
 10
-1605.160813196457
 20
121.8499139829844
 42
0.1431069476368757
 10
-1611.105556534525
 20
122.0608693477291
 42
0.3279495498710064
 10
-1620.210690757235
 20
109.651053651909
 10
-1596.837795763235
 20
109.651053651909
 10
-1596.837795763235
 20
110.6066279412232
 42
0.3298596086471468
  0
HATCH
  5
A5
330
1F
100
AcDbEntity
  8
@__WIDOCZNE
  6
Continuous
370
    13
100
AcDbHatch
 10
0.0
 20
0.0
 30
0.0
210
0.0
220
0.0
230
1.0
  2
SOLID
 70
     1
 71
     1
 91
        1
 92
        2
 72
     1
 73
     1
 93
       13
 10
-1547.553218627897
 20
132.1047084902993
 42
0.0175531184166386
 10
-1553.169542088315
 20
132.4614255428731
 42
0.0
 10
-1557.711161373943
 20
132.4614255428731
 42
0.0177750747803509
 10
-1563.398296898193
 20
132.0976768519699
 42
0.0683229953867364
 10
-1576.039182683599
 20
129.6040901203134
 42
0.0
 10
-1576.039182683599
 20
77.13299178150018
 42
0.0
 10
-1563.542212098793
 20
77.13299178150018
 42
0.0
 10
-1563.542212098793
 20
120.7639309864383
 42
-0.0958663550348273
 10
-1551.360549851644
 20
121.3194417970502
 42
-0.3633763851128492
 10
-1544.00503724245
 20
112.5347857864049
 42
0.0
 10
-1544.00503724245
 20
77.13299178150018
 42
0.0
 10
-1531.834896717402
 20
77.13299178150018
 42
0.0
 10
-1531.834896717402
 20
114.4279683846178
 42
0.3803017440747632
 97
        1
330
A6
 75
     0
 76
     1
 98
        0
  0
LWPOLYLINE
  5
A6
102
{ACAD_REACTORS
330
A5
102
}
330
1F
100
AcDbEntity
  8
@__WIDOCZNE
  6
Continuous
370
    13
100
AcDbPolyline
 90
       13
 70
   129
 43
0.0
 10
-1547.553218627897
 20
132.1047084902993
 42
0.0175531184166386
 10
-1553.169542088315
 20
132.4614255428731
 10
-1557.711161373943
 20
132.4614255428731
 42
0.0177750747803509
 10
-1563.398296898193
 20
132.0976768519699
 42
0.0683229953867364
 10
-1576.039182683599
 20
129.6040901203134
 10
-1576.039182683599
 20
77.13299178150018
 10
-1563.542212098793
 20
77.13299178150018
 10
-1563.542212098793
 20
120.7639309864383
 42
-0.0958663550348273
 10
-1551.360549851644
 20
121.3194417970502
 42
-0.3633763851128492
 10
-1544.00503724245
 20
112.5347857864049
 10
-1544.00503724245
 20
77.13299178150018
 10
-1531.834896717402
 20
77.13299178150018
 10
-1531.834896717402
 20
114.4279683846178
 42
0.3803017440747632
  0
HATCH
  5
A7
330
1F
100
AcDbEntity
  8
@__WIDOCZNE
  6
Continuous
370
    13
100
AcDbHatch
 10
0.0
 20
0.0
 30
0.0
210
0.0
220
0.0
230
1.0
  2
SOLID
 70
     1
 71
     1
 91
        1
 92
        2
 72
     1
 73
     1
 93
       12
 10
-1522.352887578064
 20
94.39724550142608
 42
0.3564817226562251
 10
-1505.088736736602
 20
77.19259236232107
 42
0.0
 10
-1492.642244590944
 20
77.23556106479984
 42
0.0
 10
-1489.989740801132
 20
88.84026514522952
 42
0.0
 10
-1502.700156171843
 20
88.84026514522952
 42
-0.3014632934563285
 10
-1510.073622884566
 20
96.21373185795251
 42
0.0
 10
-1510.073622884566
 20
120.9952887917644
 42
0.0
 10
-1494.152203409097
 20
120.9952887917644
 42
0.0
 10
-1494.152203409097
 20
132.4614255428731
 42
0.0
 10
-1510.073622884566
 20
132.4614255428731
 42
0.0
 10
-1510.073622884566
 20
147.9472341783427
 42
0.0
 10
-1522.352887578064
 20
145.4497566135621
 42
0.0
 97
        1
330
A8
 75
     0
 76
     1
 98
        0
  0
LWPOLYLINE
  5
A8
102
{ACAD_REACTORS
330
A7
102
}
330
1F
100
AcDbEntity
  8
@__WIDOCZNE
  6
Continuous
370
    13
100
AcDbPolyline
 90
       12
 70
   129
 43
0.0
 10
-1522.352887578064
 20
94.39724550142608
 42
0.3564817226562251
 10
-1505.088736736602
 20
77.19259236232107
 10
-1492.642244590944
 20
77.23556106479984
 10
-1489.989740801132
 20
88.84026514522952
 10
-1502.700156171843
 20
88.84026514522952
 42
-0.3014632934563285
 10
-1510.073622884566
 20
96.21373185795251
 10
-1510.073622884566
 20
120.9952887917644
 10
-1494.152203409097
 20
120.9952887917644
 10
-1494.152203409097
 20
132.4614255428731
 10
-1510.073622884566
 20
132.4614255428731
 10
-1510.073622884566
 20
147.9472341783427
 10
-1522.352887578064
 20
145.4497566135621
  0
HATCH
  5
A9
330
1F
100
AcDbEntity
  8
@__WIDOCZNE
  6
Continuous
370
    13
100
AcDbHatch
 10
0.0
 20
0.0
 30
0.0
210
0.0
220
0.0
230
1.0
  2
SOLID
 70
     1
 71
     1
 91
        2
 92
        2
 72
     1
 73
     1
 93
        9
 10
-1848.353175529131
 20
131.9865777042572
 42
0.2820479307333718
 10
-1867.197331750688
 20
112.9341680243012
 42
0.0886832537999132
 10
-1867.163046105806
 20
95.63402678992355
 42
0.2508564250541997
 10
-1849.731031447699
 20
77.13299178150018
 42
0.0
 10
-1834.716311145267
 20
77.13299178150018
 42
0.2670900430231695
 10
-1817.07116219828
 20
97.3149922225573
 42
0.1207336614180937
 10
-1817.027114476575
 20
112.003650557801
 42
0.3094451166888095
 10
-1835.7117200332
 20
131.9520427760956
 42
0.0268897328129527
 10
-1839.05683206555
 20
132.4614255428731
 42
0.074328415179198
 97
        1
330
AA
 92
        2
 72
     1
 73
     1
 93
        8
 10
-1854.789955882416
 20
110.3227931830517
 42
0.0948073731652809
 10
-1854.886012577467
 20
99.10403397769402
 42
0.0590800675341869
 10
-1853.794519113519
 20
95.37256301273261
 42
0.6394418664691048
 10
-1830.873453923094
 20
94.67628882877926
 42
0.0835238969854629
 10
-1829.438696118692
 20
99.36979420911379
 42
0.0916297819744675
 10
-1829.6662344727
 20
110.8893034427733
 42
0.2559732989582162
 10
-1838.078277064552
 20
121.31871972141
 42
0.1954327814670101
 10
-1846.631108014911
 20
120.9701862959011
 42
0.2505066079508973
 97
        1
330
AB
 75
     0
 76
     1
 98
        0
  0
LWPOLYLINE
  5
AA
102
{ACAD_REACTORS
330
A9
102
}
330
1F
100
AcDbEntity
  8
@__WIDOCZNE
  6
Continuous
370
    13
100
AcDbPolyline
 90
        9
 70
   129
 43
0.0
 10
-1848.353175529131
 20
131.9865777042572
 42
0.2820479307333718
 10
-1867.197331750688
 20
112.9341680243012
 42
0.0886832537999132
 10
-1867.163046105806
 20
95.63402678992355
 42
0.2508564250541997
 10
-1849.731031447699
 20
77.13299178150018
 10
-1834.716311145267
 20
77.13299178150018
 42
0.2670900430231695
 10
-1817.07116219828
 20
97.3149922225573
 42
0.1207336614180937
 10
-1817.027114476575
 20
112.003650557801
 42
0.3094451166888095
 10
-1835.7117200332
 20
131.9520427760956
 42
0.0268897328129527
 10
-1839.05683206555
 20
132.4614255428731
 42
0.074328415179198
  0
LWPOLYLINE
  5
AB
102
{ACAD_REACTORS
330
A9
102
}
330
1F
100
AcDbEntity
  8
@__WIDOCZNE
  6
Continuous
370
    13
100
AcDbPolyline
 90
        8
 70
   129
 43
0.0
 10
-1854.789955882416
 20
110.3227931830517
 42
0.0948073731652809
 10
-1854.886012577467
 20
99.10403397769402
 42
0.0590800675341869
 10
-1853.794519113519
 20
95.37256301273261
 42
0.6394418664691048
 10
-1830.873453923094
 20
94.67628882877926
 42
0.0835238969854629
 10
-1829.438696118692
 20
99.36979420911379
 42
0.0916297819744675
 10
-1829.6662344727
 20
110.8893034427733
 42
0.2559732989582162
 10
-1838.078277064552
 20
121.31871972141
 42
0.1954327814670101
 10
-1846.631108014911
 20
120.9701862959011
 42
0.2505066079508973
  0
LWPOLYLINE
  5
AC
330
1F
100
AcDbEntity
  8
@__WIDOCZNE
  6
Continuous
370
    13
100
AcDbPolyline
 90
        4
 70
   129
 43
0.0
 10
-1210.343200628475
 20
2180.665660334356
 42
0.1205534700422322
 10
-1203.642478002892
 20
2200.321526207865
 10
-1186.82944472997
 20
2200.315814462064
 42
-0.1231937148196226
 10
-1196.254295023916
 20
2171.594936456585
  0
WIPEOUT
  5
C9
330
1F
100
AcDbEntity
  8
2D - Ogólne
  6
Wipeout_Contour
 62
   254
 48
6928.362523643121
370
     0
 92
      140
310
8C000000010000008400000006000000050000003C045E58628792C09B358C04B5FC8D4000000000000000003C045E58628792C0CF677FA666BA974000000000000000003B045E5862CB92C0CF677FA666BA974000000000000000003B045E5862CB92C09B358C04B5FC8D4000000000000000003C045E58628792C09B358C
310
04B5FC8D400000000000000000
100
AcDbWipeout
 90
        0
 10
-1202.846040219315
 20
959.5883875802859
 30
0.0
 11
16.99999999999977
 21
0.0
 31
0.0
 12
0.0
 22
559.0118569329501
 32
0.0
 13
1.0
 23
1.0
340
0
 70
    15
280
     1
281
    50
282
    50
283
     0
360
0
 71
     2
 91
        5
 14
0.5000000000000067
 24
0.4999999999999999
 14
0.5000000000000067
 24
-0.5000000000000001
 14
-0.4999999999999933
 24
-0.5000000000000001
 14
-0.4999999999999933
 24
0.4999999999999999
 14
0.5000000000000067
 24
0.4999999999999999
  0
INSERT
  5
CA
330
1F
100
AcDbEntity
  8
2D - Ogólne
  6
Continuous
370
    13
100
AcDbBlockReference
  2
*X1
 10
0.0
 20
0.0
 30
0.0
  0
LINE
  5
CB
330
1F
100
AcDbEntity
  8
2D - Ogólne
  6
Continuous
370
    13
100
AcDbLine
 10
-1185.846040219315
 20
959.5883875802859
 30
0.0
 11
-1185.846040219315
 21
1518.600244513236
 31
0.0
  0
LINE
  5
CC
330
1F
100
AcDbEntity
  8
2D - Ogólne
  6
Continuous
370
    13
100
AcDbLine
 10
-1185.846040219315
 20
1518.600244513236
 30
0.0
 11
-1202.846040219315
 21
1518.600244513236
 31
0.0
  0
LINE
  5
CD
330
1F
100
AcDbEntity
  8
2D - Ogólne
  6
Continuous
370
    13
100
AcDbLine
 10
-1202.846040219315
 20
1518.600244513236
 30
0.0
 11
-1202.846040219315
 21
959.5883875802859
 31
0.0
  0
LINE
  5
CE
330
1F
100
AcDbEntity
  8
2D - Ogólne
  6
Continuous
370
    13
100
AcDbLine
 10
-1202.846040219315
 20
959.5883875802859
 30
0.0
 11
-1185.846040219315
 21
959.5883875802859
 31
0.0
  0
WIPEOUT
  5
E8
330
1F
100
AcDbEntity
  8
2D - Ogólne
  6
Wipeout_Contour
 62
   254
 48
10950.30218857509
370
     0
 92
      140
310
8C00000001000000840000000600000005000000BC42A3FAAF8B92C0F0CEBF356D30A1400000000000000000BC42A3FAAF8B92C0050000000040A5400000000000000000BB42A3FAAFCF92C0050000000040A5400000000000000000BB42A3FAAFCF92C0F0CEBF356D30A1400000000000000000BC42A3FAAF8B92C0F0CEBF
310
356D30A1400000000000000000
100
AcDbWipeout
 90
        0
 10
-1203.92185454459
 20
2200.213300699244
 30
0.0
 11
16.99999999999977
 21
0.0
 31
0.0
 12
0.0
 22
519.7866993007578
 32
0.0
 13
1.0
 23
1.0
340
0
 70
    15
280
     1
281
    50
282
    50
283
     0
360
0
 71
     2
 91
        5
 14
0.5000000000000067
 24
0.4999999999999996
 14
0.5000000000000067
 24
-0.5000000000000004
 14
-0.4999999999999933
 24
-0.5000000000000004
 14
-0.4999999999999933
 24
0.4999999999999996
 14
0.5000000000000067
 24
0.4999999999999996
  0
INSERT
  5
E9
330
1F
100
AcDbEntity
  8
2D - Ogólne
  6
Continuous
370
    13
100
AcDbBlockReference
  2
*X2
 10
0.0
 20
0.0
 30
0.0
  0
LINE
  5
EA
330
1F
100
AcDbEntity
  8
2D - Ogólne
  6
Continuous
370
    13
100
AcDbLine
 10
-1186.92185454459
 20
2200.213300699244
 30
0.0
 11
-1186.92185454459
 21
2720.000000000002
 31
0.0
  0
LINE
  5
EB
330
1F
100
AcDbEntity
  8
2D - Ogólne
  6
Continuous
370
    13
100
AcDbLine
 10
-1186.92185454459
 20
2720.000000000002
 30
0.0
 11
-1203.92185454459
 21
2720.000000000002
 31
0.0
  0
LINE
  5
EC
330
1F
100
AcDbEntity
  8
2D - Ogólne
  6
Continuous
370
    13
100
AcDbLine
 10
-1203.92185454459
 20
2720.000000000002
 30
0.0
 11
-1203.92185454459
 21
2200.213300699244
 31
0.0
  0
LINE
  5
ED
330
1F
100
AcDbEntity
  8
2D - Ogólne
  6
Continuous
370
    13
100
AcDbLine
 10
-1203.92185454459
 20
2200.213300699244
 30
0.0
 11
-1186.92185454459
 21
2200.213300699244
 31
0.0
  0
WIPEOUT
  5
EE
330
1F
100
AcDbEntity
  8
@__WIDOCZNE
  6
Wipeout_Contour
 62
   254
 48
9988.390797361408
370
     0
 92
      140
310
8C000000010000008400000006000000050000002B97C00E4E1994C009985F7CB7E1A04000000000000000001E316CD46B7693C0559F1E2FBEE1A0400000000000000000FABD2CD88B7293C05000CE8341C0A04000000000000000002B97C00E4E1994C033B3C6960CC0A04000000000000000002B97C00E4E1994C009985F
310
7CB7E1A0400000000000000000
100
AcDbWipeout
 90
        0
 10
-1286.326228150584
 20
2144.024587830901
 30
0.0
 11
41.68966132176524
 21
0.0
 31
0.0
 12
0.0
 22
16.84686541326028
 32
0.0
 13
1.0
 23
1.0
340
0
 70
    15
280
     1
281
    50
282
    50
283
     0
360
0
 71
     2
 91
        5
 14
-0.5000000000000028
 24
-0.4992234475079673
 14
0.4767631672704302
 24
-0.5
 14
0.4999999999999973
 24
0.4938640879735428
 14
-0.5000000000000028
 24
0.5
 14
-0.5000000000000028
 24
-0.4992234475079673
  0
LWPOLYLINE
  5
EF
330
1F
100
AcDbEntity
  8
@__WIDOCZNE
  6
Continuous
370
    13
100
AcDbPolyline
 90
        4
 70
   129
 43
0.0
 10
-1286.326228150584
 20
2160.858370768842
 10
-1245.605302515505
 20
2160.871453244161
 10
-1244.636566828819
 20
2144.127958714998
 10
-1286.326228150584
 20
2144.024587830901
  0
INSERT
  5
110
330
1F
100
AcDbEntity
  8
@__WIDOCZNE
  6
Continuous
370
    13
100
AcDbBlockReference
  2
Izolacja cieplna 12_73
 10
-928.4508477520782
 20
1031.588387580286
 30
0.0
  0
INSERT
  5
169
330
1F
100
AcDbEntity
  8
@__WIDOCZNE
  6
Continuous
370
    13
100
AcDbBlockReference
  2
Izolacja cieplna 12_72
 10
-948.4508473534154
 20
959.5877220539375
 30
0.0
  0
INSERT
  5
18A
330
1F
100
AcDbEntity
  8
@__WIDOCZNE
  6
Continuous
370
    13
100
AcDbBlockReference
  2
Izolacja cieplna 12_70
 10
-928.4508477520782
 20
2232.988143067052
 30
0.0
  0
INSERT
  5
1E3
330
1F
100
AcDbEntity
  8
@__WIDOCZNE
  6
Continuous
370
    13
100
AcDbBlockReference
  2
Izolacja cieplna 12_71
 10
-948.4508473534154
 20
2160.987477540703
 30
0.0
  0
LINE
  5
1E4
330
1F
100
AcDbEntity
  8
@__WIDOCZNE
  6
Continuous
370
    25
100
AcDbLine
 10
-948.4508473534154
 20
1518.600244513236
 30
0.0
 11
-948.4508473534154
 21
942.7282032282319
 31
0.0
  0
LINE
  5
1E5
330
1F
100
AcDbEntity
  8
@__WIDOCZNE
  6
Continuous
370
    25
100
AcDbLine
 10
-948.4508473534154
 20
942.7282032282319
 30
0.0
 11
-300.0311619633404
 21
942.7282032282317
 31
0.0
  0
LINE
  5
1E6
330
1F
100
AcDbEntity
  8
@__WIDOCZNE
  6
Continuous
370
    25
100
AcDbLine
 10
-1208.450847353417
 20
642.728203228232
 30
0.0
 11
-300.0311619633404
 21
642.7282032282319
 31
0.0
  0
LINE
  5
1E7
330
1F
100
AcDbEntity
  8
@__WIDOCZNE
  6
Continuous
370
    25
100
AcDbLine
 10
-948.4508473534154
 20
942.7282032282319
 30
0.0
 11
-1208.450847353417
 21
942.7282032282319
 31
0.0
  0
LINE
  5
1E8
330
1F
100
AcDbEntity
  8
@__WIDOCZNE
  6
Continuous
370
    25
100
AcDbLine
 10
-948.4508473534154
 20
2720.000000000001
 30
0.0
 11
-948.4508473534154
 21
2144.127958714998
 31
0.0
  0
LINE
  5
1E9
330
1F
100
AcDbEntity
  8
@__WIDOCZNE
  6
Continuous
370
    25
100
AcDbLine
 10
-948.4508473534154
 20
2144.127958714998
 30
0.0
 11
-300.0311619633401
 21
2144.127958714998
 31
0.0
  0
LINE
  5
1EA
330
1F
100
AcDbEntity
  8
@__WIDOCZNE
  6
Continuous
370
    25
100
AcDbLine
 10
-1208.450847353417
 20
1844.127958714998
 30
0.0
 11
-300.0311619633401
 21
1844.127958714998
 31
0.0
  0
LINE
  5
1EB
330
1F
100
AcDbEntity
  8
@__WIDOCZNE
  6
Continuous
370
    25
100
AcDbLine
 10
-948.4508473534154
 20
2144.127958714998
 30
0.0
 11
-1208.450847353417
 21
2144.127958714998
 31
0.0
  0
LINE
  5
1ED
330
1F
100
AcDbEntity
  8
@__WIDOCZNE
  6
Przerywana gęsta
370
    25
100
AcDbLine
 10
-1313.68117187919
 20
2020.206076909938
 30
0.0
 11
-1212.884379655587
 21
2020.206076909938
 31
0.0
  0
LINE
  5
1EE
330
1F
100
AcDbEntity
  8
@__WIDOCZNE
  6
Przerywana gęsta
370
    25
100
AcDbLine
 10
-1313.68117187919
 20
818.8063214231719
 30
0.0
 11
-1212.884379655587
 21
818.8063214231719
 31
0.0
  0
LINE
  5
1EF
330
1F
100
AcDbEntity
  8
@__WIDOCZNE
  6
Przerywana gęsta
 62
   255
370
     0
100
AcDbLine
 10
-1930.000000000318
 20
269.9999999999989
 30
0.0
 11
-1930.000000000318
 21
2920.0
 31
0.0
  0
LINE
  5
1F0
330
1F
100
AcDbEntity
  8
@__WIDOCZNE
  6
Continuous
370
    13
100
AcDbLine
 10
-1188.450847353415
 20
2160.988143067052
 30
0.0
 11
-1188.450847353415
 21
2189.998732408659
 31
0.0
  0
LWPOLYLINE
  5
1F1
330
1F
100
AcDbEntity
  8
@__WIDOCZNE
  6
Continuous
370
    13
100
AcDbPolyline
 90
        4
 70
   129
 43
0.0
 10
-1950.000000000318
 20
220.0000000000006
 10
-1950.000000000318
 20
0.0000000000008604
 10
-150.0000000001365
 20
0.0000000000017486
 10
-150.0000000001365
 20
220.000000000001
  0
LWPOLYLINE
  5
1F2
330
1F
100
AcDbEntity
  8
@__WIDOCZNE
  6
Continuous
370
    13
100
AcDbPolyline
 90
        2
 70
   128
 43
0.0
 10
-290.0000000000092
 20
170.0000000000016
 10
-290.0000000000092
 20
220.000000000001
  0
LWPOLYLINE
  5
1F3
330
1F
100
AcDbEntity
  8
@__WIDOCZNE
  6
Continuous
370
    13
100
AcDbPolyline
 90
        2
 70
   128
 43
0.0
 10
-150.0000000001365
 20
170.0000000000016
 10
-460.0000000000819
 20
170.0000000000016
  0
LWPOLYLINE
  5
1F4
330
1F
100
AcDbEntity
  8
@__WIDOCZNE
  6
Continuous
370
    13
100
AcDbPolyline
 90
        2
 70
   128
 43
0.0
 10
-460.0000000000819
 20
60.00000000000136
 10
-460.0000000000819
 20
220.000000000001
  0
LWPOLYLINE
  5
1F5
330
1F
100
AcDbEntity
  8
@__WIDOCZNE
  6
Continuous
370
    13
100
AcDbPolyline
 90
        4
 70
   129
 43
0.0
 10
-100.0
 20
-49.99999999999825
 10
-2200.000000000363
 20
-49.99999999999825
 10
-2200.000000000363
 20
2920.000000000002
 10
-100.0
 20
2920.000000000002
  0
LWPOLYLINE
  5
1F6
330
1F
100
AcDbEntity
  8
@__WIDOCZNE
  6
Continuous
370
    13
100
AcDbPolyline
 90
        2
 70
   128
 43
0.0
 10
-1414.269721801408
 20
60.00000000000092
 10
-150.0000000001365
 20
60.00000000000092
  0
LWPOLYLINE
  5
1F7
330
1F
100
AcDbEntity
  8
@__WIDOCZNE
  6
Continuous
370
    13
100
AcDbPolyline
 90
        4
 70
   129
 43
0.0
 10
-1950.000000000318
 20
2870.000000000001
 10
-149.9999999999091
 20
2870.000000000001
 10
-149.9999999999091
 20
220.000000000001
 10
-1950.000000000318
 20
220.000000000001
  0
LWPOLYLINE
  5
1F8
330
1F
100
AcDbEntity
  8
@__WIDOCZNE
  6
Continuous
370
    13
100
AcDbPolyline
 90
        2
 70
   128
 43
0.0
 10
-1414.269721801408
 20
220.0000000000006
 10
-1414.269721801408
 20
-0.0000000000000555
  0
MTEXT
  5
1FA
330
1F
100
AcDbEntity
  8
@__WIDOCZNE
  6
Continuous
 62
    20
370
     0
100
AcDbMText
 10
-160.0001550570796
 20
75.79208712603942
 30
0.0
 40
30.00000000000001
 41
0.0
 71
     9
 72
     1
  1
{\P\C256;\H1.333333x; 02.04.2-41.}
  7
GENERATED_STYLE_1
 73
     1
 44
1.068159463616948
  0
MTEXT
  5
1FC
330
1F
100
AcDbEntity
  8
@__WIDOCZNE
  6
Continuous
370
    13
100
AcDbMText
 10
-459.8744154123032
 20
166.0000130984733
 30
0.0
 40
15.0
 41
0.0
 71
     1
 72
     1
  1
{ nr rys:}
  7
GENERATED_STYLE_2
 73
     1
 44
1.0
  0
MTEXT
  5
1FD
330
1F
100
AcDbEntity
  8
@__WIDOCZNE
  6
Continuous
370
    13
100
AcDbMText
 10
-434.2857142860794
 20
206.5714285714294
 30
0.0
 40
15.0
 41
0.0
 71
     2
 72
     1
  1
{ data:}
  7
GENERATED_STYLE_2
 73
     1
 44
1.0
  0
MTEXT
  5
1FE
330
1F
100
AcDbEntity
  8
@__WIDOCZNE
  6
Continuous
370
    13
100
AcDbMText
 10
-260.4285714287926
 20
206.5714285714298
 30
0.0
 40
15.0
 41
0.0
 71
     2
 72
     1
  1
{ skala:}
  7
GENERATED_STYLE_2
 73
     1
 44
1.0
  0
MTEXT
  5
1FF
330
1F
100
AcDbEntity
  8
@__WIDOCZNE
  6
Continuous
370
    13
100
AcDbMText
 10
-228.5716592712769
 20
176.43715867616
 30
0.0
 40
20.0
 41
0.0
 71
     7
 72
     1
  1
{1:10  }
  7
GENERATED_STYLE_2
 73
     1
 44
1.0
  0
MTEXT
  5
200
330
1F
100
AcDbEntity
  8
@__WIDOCZNE
  6
Continuous
370
    13
100
AcDbMText
 10
-1354.382995646079
 20
136.2607708345974
 30
0.0
 40
29.99999999999999
 41
0.0
 71
     4
 72
     1
  1
{IZOLACJA LEKKA I ŚREDNIA, PIWNICA NA\PPŁYCIE FUND. POŁĄCZENIE IZOLACJI;\PZ UŻYCIEM BOTAMENT RD1 / RD2}
  7
GENERATED_STYLE_1
 73
     1
 44
0.8622671878592781
  0
WIPEOUT
  5
202
330
1F
100
AcDbEntity
  8
@__WIDOCZNE
  6
Wipeout_Contour
 48
9700.851899514195
370
    13
 92
      140
310
8C00000001000000840000000600000005000000E079E9F32EBB93C0F00BA403BCBC9F400000000000000000E079E9F32EBB93C00EFE1560EDA0A0400000000000000000F9C9E510783D93C00EFE1560EDA0A0400000000000000000F9C9E510783D93C0F00BA403BCBC9F400000000000000000E079E9F32EBB93C0F00BA4
310
03BCBC9F400000000000000000
100
AcDbWipeout
 90
        0
 10
-1262.7958523255
 20
2031.183607638577
 30
0.0
 11
31.42860036622164
 21
0.0
 31
0.0
 12
0.0
 22
97.28001606372254
 32
0.0
 13
1.0
 23
1.0
340
0
 70
    15
280
     1
281
    50
282
    50
283
     0
360
0
 71
     2
 91
        5
 14
-0.5000000000000037
 24
0.5
 14
-0.5000000000000037
 24
-0.5
 14
0.4999999999999964
 24
-0.5
 14
0.4999999999999964
 24
0.5
 14
-0.5000000000000037
 24
0.5
  0
MTEXT
  5
203
330
1F
100
AcDbEntity
  8
@__WIDOCZNE
  6
Continuous
370
    13
100
AcDbMText
 10
-1237.804423754071
 20
2079.823615670438
 30
0.0
 40
19.99999999999999
 41
0.0
 71
     8
 72
     1
  1
{ \U+226510cm }
  7
GENERATED_STYLE_3
 11
6.123233995736766E-17
 21
1.0
 31
0.0
 73
     1
 44
1.0
  0
WIPEOUT
  5
204
330
1F
100
AcDbEntity
  8
@__WIDOCZNE
  6
Wipeout_Contour
 48
6103.736042831328
370
    13
 92
      140
310
8C00000001000000840000000600000005000000AE35171A2FBB93C0B615C95645EE89400000000000000000AE35171A2FBB93C07B99D4CA82F88C400000000000000000F9C9E510783D93C07B99D4CA82F88C400000000000000000F9C9E510783D93C0B615C95645EE89400000000000000000AE35171A2FBB93C0B615C9
310
5645EE89400000000000000000
100
AcDbWipeout
 90
        0
 10
-1262.79599796548
 20
829.783856936431
 30
0.0
 11
31.42874600620166
 21
0.0
 31
0.0
 12
0.0
 22
97.28000649448279
 32
0.0
 13
1.0
 23
1.0
340
0
 70
    15
280
     1
281
    50
282
    50
283
     0
360
0
 71
     2
 91
        5
 14
-0.4999999999999964
 24
0.4999999999999994
 14
-0.4999999999999964
 24
-0.5000000000000006
 14
0.5000000000000037
 24
-0.5000000000000006
 14
0.5000000000000037
 24
0.4999999999999994
 14
-0.4999999999999964
 24
0.4999999999999994
  0
MTEXT
  5
205
330
1F
100
AcDbEntity
  8
@__WIDOCZNE
  6
Continuous
370
    13
100
AcDbMText
 10
-1237.804569394052
 20
878.4238601836723
 30
0.0
 40
20.0
 41
0.0
 71
     8
 72
     1
  1
{ \U+226510cm }
  7
GENERATED_STYLE_3
 11
6.123233995736766E-17
 21
1.0
 31
0.0
 73
     1
 44
1.0
  0
WIPEOUT
  5
206
330
1F
100
AcDbEntity
  8
@__WIDOCZNE
  6
Wipeout_Contour
 62
   104
 48
11250.15872965421
370
    13
 92
      140
310
8C000000010000008400000006000000050000007605000000289EC0E38D5FD06644A14000000000000000009915554E1B4B99C0E38D5FD06644A14000000000000000009915554E1B4B99C06F09BAE4AFC6A04000000000000000007605000000289EC06F09BAE4AFC6A04000000000000000007605000000289EC0E38D5F
310
D06644A1400000000000000000
100
AcDbWipeout
 90
        0
 10
-1930.000000000318
 20
2147.343541921283
 30
0.0
 11
311.2233339985753
 21
0.0
 31
0.0
 12
0.0
 22
62.85726659051761
 32
0.0
 13
1.0
 23
1.0
340
0
 70
    15
280
     1
281
    50
282
    50
283
     0
360
0
 71
     2
 91
        5
 14
-0.4999999999999996
 24
-0.5
 14
0.5000000000000003
 24
-0.5
 14
0.5000000000000003
 24
0.5
 14
-0.4999999999999996
 24
0.5
 14
-0.4999999999999996
 24
-0.5
  0
MTEXT
  5
207
330
1F
100
AcDbEntity
  8
@__WIDOCZNE
  6
Continuous
 62
   104
370
    13
100
AcDbMText
 10
-1930.000000000318
 20
2179.737235106682
 30
0.0
 40
19.99999999999999
 41
0.0
 71
     4
 72
     1
  1
\A1;{\fArial|b1|i0|c238|p38;BOTAMENT M36 Speed,\P\fArial|b0|i0|c238|p38;FASETA MINERALNA}
  7
GENERATED_STYLE_1
 73
     1
 44
0.9242558340148552
  0
WIPEOUT
  5
208
330
1F
100
AcDbEntity
  8
@__WIDOCZNE
  6
Wipeout_Contour
 48
7816.113282078129
370
    13
 92
      140
310
8C000000010000008400000006000000050000007805000000289EC01A106CF5B39E894000000000000000000AF53A18427699C01A106CF5B39E894000000000000000000AF53A18427699C062A774F845A3884000000000000000007805000000289EC062A774F845A3884000000000000000007805000000289EC01A106C
310
F5B39E89400000000000000000
100
AcDbWipeout
 90
        0
 10
-1930.000000000318
 20
788.4091652978498
 30
0.0
 11
300.4354544440534
 21
0.0
 31
0.0
 12
0.0
 22
31.42870515144659
 32
0.0
 13
1.0
 23
1.0
340
0
 70
    15
280
     1
281
    50
282
    50
283
     0
360
0
 71
     2
 91
        5
 14
-0.5
 24
-0.5
 14
0.5
 24
-0.5
 14
0.5
 24
0.5
 14
-0.5
 24
0.5
 14
-0.5
 24
-0.5
  0
MTEXT
  5
209
330
1F
100
AcDbEntity
  8
@__WIDOCZNE
  6
Continuous
370
    13
100
AcDbMText
 10
-1930.000000000318
 20
794.5864418778679
 30
0.0
 40
19.99999999999999
 41
0.0
 71
     7
 72
     1
  1
{TERMOIZOLACJA -XPS}
  7
GENERATED_STYLE_2
 73
     1
 44
1.0
  0
WIPEOUT
  5
20A
330
1F
100
AcDbEntity
  8
@__WIDOCZNE
  6
Wipeout_Contour
 62
   104
 48
7962.776180753841
370
    13
 92
      140
310
8C00000001000000840000000600000005000000DCE8CD889F269EC04BB0BFCFB3DE8F40000000000000000066E647BD7CBF97C04BB0BFCFB3DE8F40000000000000000066E647BD7CBF97C0799E2921D8E78D400000000000000000DCE8CD889F269EC0799E2921D8E78D400000000000000000DCE8CD889F269EC04BB0BF
310
CFB3DE8F400000000000000000
100
AcDbWipeout
 90
        0
 10
-1929.65579530462
 20
956.9805320025908
 30
0.0
 11
409.7839795054438
 21
0.0
 31
0.0
 12
0.0
 22
62.85726659051784
 32
0.0
 13
1.0
 23
1.0
340
0
 70
    15
280
     1
281
    50
282
    50
283
     0
360
0
 71
     2
 91
        5
 14
-0.5
 24
-0.5
 14
0.5
 24
-0.5
 14
0.5
 24
0.5
 14
-0.5
 24
0.5
 14
-0.5
 24
-0.5
  0
MTEXT
  5
20B
330
1F
100
AcDbEntity
  8
@__WIDOCZNE
  6
Continuous
 62
   104
370
    13
100
AcDbMText
 10
-1929.65579530462
 20
986.184179905558
 30
0.0
 40
19.99999999999999
 41
0.0
 71
     4
 72
     1
  1
\A1;{\fArial|b1|i0|c238|p38;BOTAMENT SB78\P\fArial|b0|i0|c238|p38;SYS. TAŚMA USZCZELNIAJĄCA}
  7
GENERATED_STYLE_1
 73
     1
 44
0.8101539292465568
  0
WIPEOUT
  5
20C
330
1F
100
AcDbEntity
  8
@__WIDOCZNE
  6
Wipeout_Contour
 62
   104
 48
7864.232667378659
370
    13
 92
      140
310
8C00000001000000840000000600000005000000DCE8CD889F269EC0E14A8CBBB3BE8C400000000000000000499C7F25E55698C0E14A8CBBB3BE8C400000000000000000499C7F25E55698C062A774F845C38B400000000000000000DCE8CD889F269EC062A774F845C38B400000000000000000DCE8CD889F269EC0E14A8C
310
BBB3BE8C400000000000000000
100
AcDbWipeout
 90
        0
 10
-1929.65579530462
 20
888.4091652978498
 30
0.0
 11
371.9320194467771
 21
0.0
 31
0.0
 12
0.0
 22
31.42859476535511
 32
0.0
 13
1.0
 23
1.0
340
0
 70
    15
280
     1
281
    50
282
    50
283
     0
360
0
 71
     2
 91
        5
 14
-0.5000000000000003
 24
-0.4999999999999982
 14
0.4999999999999997
 24
-0.4999999999999982
 14
0.4999999999999997
 24
0.5000000000000018
 14
-0.5000000000000003
 24
0.5000000000000018
 14
-0.5000000000000003
 24
-0.4999999999999982
  0
MTEXT
  5
20D
330
1F
100
AcDbEntity
  8
@__WIDOCZNE
  6
Continuous
 62
   104
370
    13
100
AcDbMText
 10
-1929.65579530462
 20
890.4863314917764
 30
0.0
 40
20.0
 41
0.0
 71
     7
 72
     1
  1
{BOTAMENT RD1 / RD2, \C102;2mm}
  7
GENERATED_STYLE_1
 73
     1
 44
1.0
  0
WIPEOUT
  5
20E
330
1F
100
AcDbEntity
  8
@__WIDOCZNE
  6
Wipeout_Contour
 48
10734.92691733598
370
    13
 92
      140
310
8C000000010000008400000006000000050000007805000000289EC093644957F3949F400000000000000000FB9FF636427699C093644957F3949F400000000000000000FB9FF636427699C0ECEBBA553C179F4000000000000000007805000000289EC0ECEBBA553C179F4000000000000000007805000000289EC0936449
310
57F3949F400000000000000000
100
AcDbWipeout
 90
        0
 10
-1930.000000000318
 20
1989.808920784616
 30
0.0
 11
300.4353372066682
 21
0.0
 31
0.0
 12
0.0
 22
31.42871687518505
 32
0.0
 13
1.0
 23
1.0
340
0
 70
    15
280
     1
281
    50
282
    50
283
     0
360
0
 71
     2
 91
        5
 14
-0.4999999999999996
 24
-0.4999999999999964
 14
0.5000000000000003
 24
-0.4999999999999964
 14
0.5000000000000003
 24
0.5000000000000037
 14
-0.4999999999999996
 24
0.5000000000000037
 14
-0.4999999999999996
 24
-0.4999999999999964
  0
MTEXT
  5
20F
330
1F
100
AcDbEntity
  8
@__WIDOCZNE
  6
Continuous
370
    13
100
AcDbMText
 10
-1930.000000000318
 20
1995.986209088372
 30
0.0
 40
20.0
 41
0.0
 71
     7
 72
     1
  1
{TERMOIZOLACJA -XPS}
  7
GENERATED_STYLE_2
 73
     1
 44
1.0
  0
WIPEOUT
  5
210
330
1F
100
AcDbEntity
  8
@__WIDOCZNE
  6
Wipeout_Contour
 62
   104
 48
10950.24073294347
370
    13
 92
      140
310
8C00000001000000840000000600000005000000DCE8CD889F269EC0D65EA39B7992A0400000000000000000499C7F25E55698C0D65EA39B7992A0400000000000000000499C7F25E55698C0F675DD2A9E53A0400000000000000000DCE8CD889F269EC0F675DD2A9E53A0400000000000000000DCE8CD889F269EC0D65EA3
310
9B7992A0400000000000000000
100
AcDbWipeout
 90
        0
 10
-1929.65579530462
 20
2089.808920784616
 30
0.0
 11
371.9320194467771
 21
0.0
 31
0.0
 12
0.0
 22
31.42859476535523
 32
0.0
 13
1.0
 23
1.0
340
0
 70
    15
280
     1
281
    50
282
    50
283
     0
360
0
 71
     2
 91
        5
 14
-0.5000000000000003
 24
-0.5
 14
0.4999999999999997
 24
-0.5
 14
0.4999999999999997
 24
0.5
 14
-0.5000000000000003
 24
0.5
 14
-0.5000000000000003
 24
-0.5
  0
MTEXT
  5
211
330
1F
100
AcDbEntity
  8
@__WIDOCZNE
  6
Continuous
 62
   104
370
    13
100
AcDbMText
 10
-1929.65579530462
 20
2091.886086978543
 30
0.0
 40
20.0
 41
0.0
 71
     7
 72
     1
  1
{BOTAMENT RD1 / RD2, \C102;2mm}
  7
GENERATED_STYLE_1
 73
     1
 44
1.0
  0
WIPEOUT
  5
212
330
1F
100
AcDbEntity
  8
@__WIDOCZNE
  6
Wipeout_Contour
 48
7631.285210558835
370
    13
 92
      140
310
8C000000010000008400000006000000050000007805000000289EC081392E5941F186400000000000000000410C8ACD010A99C081392E5941F186400000000000000000410C8ACD010A99C0C9D0365CD3F5854000000000000000007805000000289EC0C9D0365CD3F5854000000000000000007805000000289EC081392E
310
5941F186400000000000000000
100
AcDbWipeout
 90
        0
 10
-1930.000000000318
 20
702.728203228232
 30
0.0
 11
327.4982393678054
 21
0.0
 31
0.0
 12
0.0
 22
31.42870515144659
 32
0.0
 13
1.0
 23
1.0
340
0
 70
    15
280
     1
281
    50
282
    50
283
     0
360
0
 71
     2
 91
        5
 14
-0.5000000000000003
 24
-0.5
 14
0.4999999999999997
 24
-0.5
 14
0.4999999999999997
 24
0.5
 14
-0.5000000000000003
 24
0.5
 14
-0.5000000000000003
 24
-0.5
  0
MTEXT
  5
213
330
1F
100
AcDbEntity
  8
@__WIDOCZNE
  6
Continuous
370
    13
100
AcDbMText
 10
-1930.000000000318
 20
719.24547980825
 30
0.0
 40
20.0
 41
0.0
 71
     4
 72
     1
  1
{PŁYTA FUNDAMENTOWA}
  7
GENERATED_STYLE_2
 73
     1
 44
1.0
  0
WIPEOUT
  5
214
330
1F
100
AcDbEntity
  8
@__WIDOCZNE
  6
Wipeout_Contour
 48
10446.05838143225
370
    13
 92
      140
310
8C000000010000008400000006000000050000007805000000289EC0F9B417063A3E9E400000000000000000410C8ACD010A99C0F9B417063A3E9E400000000000000000410C8ACD010A99C09D009C0783C09D4000000000000000007805000000289EC09D009C0783C09D4000000000000000007805000000289EC0F9B417
310
063A3E9E400000000000000000
100
AcDbWipeout
 90
        0
 10
-1930.000000000318
 20
1904.127958714998
 30
0.0
 11
327.4982393678054
 21
0.0
 31
0.0
 12
0.0
 22
31.42870515144659
 32
0.0
 13
1.0
 23
1.0
340
0
 70
    15
280
     1
281
    50
282
    50
283
     0
360
0
 71
     2
 91
        5
 14
-0.5000000000000003
 24
-0.5
 14
0.4999999999999997
 24
-0.5
 14
0.4999999999999997
 24
0.5
 14
-0.5000000000000003
 24
0.5
 14
-0.5000000000000003
 24
-0.5
  0
MTEXT
  5
215
330
1F
100
AcDbEntity
  8
@__WIDOCZNE
  6
Continuous
370
    13
100
AcDbMText
 10
-1930.000000000318
 20
1920.645235295016
 30
0.0
 40
20.0
 41
0.0
 71
     4
 72
     1
  1
{PŁYTA FUNDAMENTOWA}
  7
GENERATED_STYLE_2
 73
     1
 44
1.0
  0
MTEXT
  5
216
330
1F
100
AcDbEntity
  8
@__WIDOCZNE
  6
Continuous
370
    13
100
AcDbMText
 10
-404.1029845902109
 20
176.437178595888
 30
0.0
 40
20.0
 41
0.0
 71
     7
 72
     1
  1
{2020.05. }
  7
GENERATED_STYLE_2
 73
     1
 44
1.0
  0
MTEXT
  5
217
330
1F
100
AcDbEntity
  8
@__WIDOCZNE
  6
Continuous
370
    13
100
AcDbMText
 10
-1404.000000000042
 20
28.41451671597683
 30
0.0
 40
15.0
 41
0.0
 71
     4
 72
     1
  1
{Rysunek nie wyczerpuje wszystkich aspektów technicznych zagadnienia, a jego integralną częścią są karty techniczne \Pposzczególnych produktów. Szczegółowych informacji udzielają technicy zastosowań i doradcy handlowo-techniczni Botament. }
  7
GENERATED_STYLE_2
 73
     1
 44
0.9278263558916978
  0
MTEXT
  5
218
330
1F
100
AcDbEntity
  8
@__WIDOCZNE
  6
Continuous
370
    13
100
AcDbMText
 10
-1682.384354501804
 20
30.2695700465123
 30
0.0
 40
15.0
 41
0.0
 71
     5
 72
     1
  1
{ ul. Prądzyńskiego 20, 63-000 Środa Wlkp., botament.pl\P +48 606-318-643, 61-286-45-17, technik@botament.pl  }
  7
GENERATED_STYLE_2
 73
     1
 44
0.9181612291118316
  0
WIPEOUT
  5
219
330
1F
100
AcDbEntity
  8
@__WIDOCZNE
  6
Wipeout_Contour
 48
10107.1590332201
370
    13
 92
      140
310
8C000000010000008400000006000000050000007705000000289EC062A3025A7ED19C40000000000000000035FB2CEE742998C062A3025A7ED19C40000000000000000035FB2CEE742998C0C4FB1459C7539C4000000000000000007705000000289EC0C4FB1459C7539C4000000000000000007705000000289EC062A302
310
5A7ED19C400000000000000000
100
AcDbWipeout
 90
        0
 10
-1930.000000000318
 20
1812.944675758235
 30
0.0
 11
383.6358101820956
 21
0.0
 31
0.0
 12
0.0
 22
31.42871447883181
 32
0.0
 13
1.0
 23
1.0
340
0
 70
    15
280
     1
281
    50
282
    50
283
     0
360
0
 71
     2
 91
        5
 14
-0.5
 24
-0.5
 14
0.5
 24
-0.5
 14
0.5
 24
0.5
 14
-0.5
 24
0.5
 14
-0.5
 24
-0.5
  0
MTEXT
  5
21A
330
1F
100
AcDbEntity
  8
@__WIDOCZNE
  6
Continuous
370
    13
100
AcDbMText
 10
-1930.000000000318
 20
1819.031104522781
 30
0.0
 40
20.0
 41
0.0
 71
     7
 72
     1
  1
{PŁYTA OCHRONNO-DRENAŻ.}
  7
GENERATED_STYLE_2
 73
     1
 44
1.0
  0
WIPEOUT
  5
21B
330
1F
100
AcDbEntity
  8
@__WIDOCZNE
  6
Wipeout_Contour
 48
7396.392714652549
370
    13
 92
      140
310
8C000000010000008400000006000000050000007705000000289EC050160401CA178440000000000000000035FB2CEE742998C050160401CA178440000000000000000035FB2CEE742998C015C728FF5B1C834000000000000000007705000000289EC015C728FF5B1C834000000000000000007705000000289EC0501604
310
01CA1784400000000000000000
100
AcDbWipeout
 90
        0
 10
-1930.000000000318
 20
611.5449202714686
 30
0.0
 11
383.6358101820956
 21
0.0
 31
0.0
 12
0.0
 22
31.42871447883169
 32
0.0
 13
1.0
 23
1.0
340
0
 70
    15
280
     1
281
    50
282
    50
283
     0
360
0
 71
     2
 91
        5
 14
-0.5
 24
-0.5000000000000018
 14
0.5
 24
-0.5000000000000018
 14
0.5
 24
0.4999999999999982
 14
-0.5
 24
0.4999999999999982
 14
-0.5
 24
-0.5000000000000018
  0
MTEXT
  5
21C
330
1F
100
AcDbEntity
  8
@__WIDOCZNE
  6
Continuous
370
    13
100
AcDbMText
 10
-1930.000000000318
 20
617.6313490360146
 30
0.0
 40
20.0
 41
0.0
 71
     7
 72
     1
  1
{PŁYTA OCHRONNO-DRENAŻ.}
  7
GENERATED_STYLE_2
 73
     1
 44
1.0
  0
MTEXT
  5
21D
330
1F
100
AcDbEntity
  8
@__WIDOCZNE
  6
Continuous
370
    13
100
AcDbMText
 10
311.191577841235
 20
221.2371520844711
 30
0.0
 40
20.0
 41
0.0
 71
     9
 72
     1
  1
{s.13_druk:2020-05-26 }
  7
GENERATED_STYLE_2
 73
     1
 44
1.0
  0
MTEXT
  5
21E
330
1F
100
AcDbEntity
  8
@__WIDOCZNE
  6
Continuous
370
    13
100
AcDbMText
 10
-1950.917152084788
 20
450.4759531694547
 30
0.0
 40
20.0
 41
0.0
 71
     9
 72
     1
  1
{druk:2020-05-26, rys. od 181200 DE }
  7
GENERATED_STYLE_2
 11
6.123233995736766E-17
 21
1.0
 31
0.0
 73
     1
 44
1.0
  0
WIPEOUT
  5
21F
330
1F
100
AcDbEntity
  8
@__WIDOCZNE
  6
Wipeout_Contour
 62
   254
 48
5036.853229225603
370
     0
 92
      140
310
8C00000001000000840000000600000005000000904D7E47068B92C0C8D0365CD3758D400000000000000000D2D6AFA37FC072C0C8D0365CD3758D400000000000000000D2D6AFA37FC072C09B358C04B5FC8D400000000000000000904D7E47068B92C09B358C04B5FC8D400000000000000000904D7E47068B92C0C8D036
310
5CD3758D400000000000000000
100
AcDbWipeout
 90
        0
 10
-1186.756132100567
 20
942.7282032282319
 30
0.0
 11
886.7249701372265
 21
0.0
 31
0.0
 12
0.0
 22
16.86018435205403
 32
0.0
 13
1.0
 23
1.0
340
0
 70
    15
280
     1
281
    50
282
    50
283
     0
360
0
 71
     2
 91
        5
 14
-0.5000000000000001
 24
0.5000000000000033
 14
0.4999999999999999
 24
0.5000000000000033
 14
0.4999999999999999
 24
-0.4999999999999966
 14
-0.5000000000000001
 24
-0.4999999999999966
 14
-0.5000000000000001
 24
0.5000000000000033
  0
WIPEOUT
  5
220
330
1F
100
AcDbEntity
  8
@__WIDOCZNE
  6
Wipeout_Contour
 62
   254
 48
6331.703061293383
370
     0
 92
      140
310
8C0000000100000084000000060000000500000014E778635D3694C09B358C04B5FC8D40000000000000000014E778635D3694C0C8D0365CD3758D4000000000000000006D6C5A01495293C0C8D0365CD3758D400000000000000000CD11D90C5B5393C09B358C04B5FC8D40000000000000000014E778635D3694C09B358C
310
04B5FC8D400000000000000000
100
AcDbWipeout
 90
        0
 10
-1293.591199769119
 20
942.7282032282319
 30
0.0
 11
57.01990554450617
 21
0.0
 31
0.0
 12
0.0
 22
16.86018435205403
 32
0.0
 13
1.0
 23
1.0
340
0
 70
    15
280
     1
281
    50
282
    50
283
     0
360
0
 71
     2
 91
        5
 14
-0.500000000000002
 24
-0.4999999999999966
 14
-0.500000000000002
 24
0.5000000000000033
 14
0.499999999999998
 24
0.5000000000000033
 14
0.4953065167104925
 24
-0.4999999999999966
 14
-0.500000000000002
 24
-0.4999999999999966
  0
WIPEOUT
  5
24A
330
1F
100
AcDbEntity
  8
2D - Ogólne
  6
Wipeout_Contour
 62
   254
 48
5062.525314560962
370
     0
 92
      140
310
8C000000010000008400000006000000050000008BBFE40DA8CB92C0C8D0365CD3758D400000000000000000D1D6AFA37FC072C0C8D0365CD3758D400000000000000000D1D6AFA37FC072C0AE74F243A7FE8D4000000000000000008BBFE40DA8CB92C0AE74F243A7FE8D4000000000000000008BBFE40DA8CB92C0C8D036
310
5CD3758D400000000000000000
100
AcDbWipeout
 90
        0
 10
-1202.914115499678
 20
942.7282032282319
 30
0.0
 11
902.8829535363382
 21
0.0
 31
0.0
 12
0.0
 22
17.10346933931282
 32
0.0
 13
1.0
 23
1.0
340
0
 70
    15
280
     1
281
    50
282
    50
283
     0
360
0
 71
     2
 91
        5
 14
-0.5
 24
0.5
 14
0.4999999999999999
 24
0.5
 14
0.4999999999999999
 24
-0.5
 14
-0.5
 24
-0.5
 14
-0.5
 24
0.5
  0
INSERT
  5
24B
330
1F
100
AcDbEntity
  8
2D - Ogólne
  6
Continuous
370
    13
100
AcDbBlockReference
  2
*X7
 10
0.0
 20
0.0
 30
0.0
  0
LINE
  5
24C
330
1F
100
AcDbEntity
  8
2D - Ogólne
  6
Continuous
370
    13
100
AcDbLine
 10
-1202.914115499678
 20
942.7282032282319
 30
0.0
 11
-300.0311619633404
 21
942.7282032282319
 31
0.0
  0
LINE
  5
24D
330
1F
100
AcDbEntity
  8
2D - Ogólne
  6
Continuous
370
    13
100
AcDbLine
 10
-300.0311619633404
 20
942.7282032282319
 30
0.0
 11
-300.0311619633404
 21
959.8316725675447
 31
0.0
  0
LINE
  5
24E
330
1F
100
AcDbEntity
  8
2D - Ogólne
  6
Continuous
370
    13
100
AcDbLine
 10
-300.0311619633404
 20
959.8316725675447
 30
0.0
 11
-1202.914115499678
 21
959.8316725675447
 31
0.0
  0
LINE
  5
24F
330
1F
100
AcDbEntity
  8
2D - Ogólne
  6
Continuous
370
    13
100
AcDbLine
 10
-1202.914115499678
 20
959.8316725675447
 30
0.0
 11
-1202.914115499678
 21
942.7282032282319
 31
0.0
  0
WIPEOUT
  5
279
330
1F
100
AcDbEntity
  8
2D - Ogólne
  6
Wipeout_Contour
 62
   254
 48
9298.53252012949
370
     0
 92
      140
310
8C00000001000000840000000600000005000000F108FB58031B93C05000CE8341C0A0400000000000000000D1D6AFA37FC072C05000CE8341C0A0400000000000000000D1D6AFA37FC072C049E9BC7D76E2A0400000000000000000F108FB58031B93C049E9BC7D76E2A0400000000000000000F108FB58031B93C05000CE
310
8341C0A0400000000000000000
100
AcDbWipeout
 90
        0
 10
-1222.753269121571
 20
2144.127958714998
 30
0.0
 11
922.722107158231
 21
0.0
 31
0.0
 12
0.0
 22
17.1034693393126
 32
0.0
 13
1.0
 23
1.0
340
0
 70
    15
280
     1
281
    50
282
    50
283
     0
360
0
 71
     2
 91
        5
 14
-0.5
 24
0.4999999999999867
 14
0.4999999999999999
 24
0.4999999999999867
 14
0.4999999999999999
 24
-0.5000000000000133
 14
-0.5
 24
-0.5000000000000133
 14
-0.5
 24
0.4999999999999867
  0
INSERT
  5
27A
330
1F
100
AcDbEntity
  8
2D - Ogólne
  6
Continuous
370
    13
100
AcDbBlockReference
  2
*X8
 10
0.0
 20
0.0
 30
0.0
  0
LINE
  5
27B
330
1F
100
AcDbEntity
  8
2D - Ogólne
  6
Continuous
370
    13
100
AcDbLine
 10
-1222.753269121571
 20
2144.127958714998
 30
0.0
 11
-300.0311619633404
 21
2144.127958714998
 31
0.0
  0
LINE
  5
27C
330
1F
100
AcDbEntity
  8
2D - Ogólne
  6
Continuous
370
    13
100
AcDbLine
 10
-300.0311619633404
 20
2144.127958714998
 30
0.0
 11
-300.0311619633404
 21
2161.231428054311
 31
0.0
  0
LINE
  5
27D
330
1F
100
AcDbEntity
  8
2D - Ogólne
  6
Continuous
370
    13
100
AcDbLine
 10
-300.0311619633404
 20
2161.231428054311
 30
0.0
 11
-1222.753269121571
 21
2161.231428054311
 31
0.0
  0
LINE
  5
27E
330
1F
100
AcDbEntity
  8
2D - Ogólne
  6
Continuous
370
    13
100
AcDbLine
 10
-1222.753269121571
 20
2161.231428054311
 30
0.0
 11
-1222.753269121571
 21
2144.127958714998
 31
0.0
  0
WIPEOUT
  5
27F
330
1F
100
AcDbEntity
  8
@__WIDOCZNE
  6
Wipeout_Contour
 62
   254
 48
3456.382096620945
370
     0
 92
      140
310
8C00000001000000840000000600000005000000A4084D3F6DE972C06B29A6B760177E40000000000000000017F27E7DB19772C06B29A6B760177E40000000000000000016F27E7DB19772C0FC3FA675368591400000000000000000A3084D3F6DE972C0FC3FA675368591400000000000000000A4084D3F6DE972C06B29A6
310
B760177E400000000000000000
100
AcDbWipeout
 90
        0
 10
-302.58917169658
 20
481.4611126414007
 30
0.0
 11
5.108339123756082
 21
0.0
 31
0.0
 12
0.0
 22
639.8420705304964
 32
0.0
 13
1.0
 23
1.0
340
0
 70
    15
280
     1
281
    50
282
    50
283
     0
360
0
 71
     2
 91
        5
 14
-0.5
 24
0.4999999999999999
 14
0.4999999999999889
 24
0.4999999999999999
 14
0.5
 24
-0.5
 14
-0.4999999999999889
 24
-0.5
 14
-0.5
 24
0.4999999999999999
  0
WIPEOUT
  5
280
330
1F
100
AcDbEntity
  8
@__WIDOCZNE
  6
Wipeout_Contour
 62
   254
 48
8092.229715638825
370
     0
 92
      140
310
8C00000001000000840000000600000005000000E0402F1A6D9772C080FB26F3C0349A400000000000000000DF402F1A6D9772C08459E3EDF925A24000000000000000008F81A9A690E872C08459E3EDF925A24000000000000000009081A9A690E872C080FB26F3C0349A400000000000000000E0402F1A6D9772C080FB26
310
F3C0349A400000000000000000
100
AcDbWipeout
 90
        0
 10
-302.535315191396
 20
1677.188427552319
 30
0.0
 11
5.071178891706097
 21
0.0
 31
0.0
 12
0.0
 22
645.7997155147332
 32
0.0
 13
1.0
 23
1.0
340
0
 70
    15
280
     1
281
    50
282
    50
283
     0
360
0
 71
     2
 91
        5
 14
0.4999999999999944
 24
0.5
 14
0.5000000000000056
 24
-0.5
 14
-0.4999999999999832
 24
-0.5
 14
-0.4999999999999944
 24
0.5
 14
0.4999999999999944
 24
0.5
  0
WIPEOUT
  5
281
330
1F
100
AcDbEntity
  8
@__WIDOCZNE
  6
Wipeout_Contour
 62
   254
 48
11837.92682717972
370
     0
 92
      140
310
8C00000001000000840000000600000005000000C33E86AACD6195C0050000000046A5400000000000000000C33E86AACD6195C004000000003AA54000000000000000000177DB559B038DC004000000003AA54000000000000000000177DB559B038DC0050000000046A5400000000000000000C33E86AACD6195C0050000
310
000046A5400000000000000000
100
AcDbWipeout
 90
        0
 10
-1368.450845811444
 20
2717.000000000002
 30
0.0
 11
439.9999984579196
 21
0.0
 31
0.0
 12
0.0
 22
6.000000000000455
 32
0.0
 13
1.0
 23
1.0
340
0
 70
    15
280
     1
281
    50
282
    50
283
     0
360
0
 71
     2
 91
        5
 14
-0.4999999999999999
 24
-0.5000000000000379
 14
-0.4999999999999999
 24
0.4999999999999621
 14
0.5000000000000001
 24
0.4999999999999621
 14
0.5000000000000001
 24
-0.5000000000000379
 14
-0.4999999999999999
 24
-0.5000000000000379
  0
WIPEOUT
  5
282
330
1F
100
AcDbEntity
  8
@__WIDOCZNE
  6
Wipeout_Contour
 62
   254
 48
7648.409711853441
370
     0
 92
      140
310
8C00000001000000840000000600000005000000C43E86AACD6195C0D0677FA666C697400000000000000000C43E86AACD6195C0CF677FA666AE974000000000000000000277DB559B038DC0CF677FA666AE974000000000000000000277DB559B038DC0D0677FA666C697400000000000000000C43E86AACD6195C0D0677F
310
A666C697400000000000000000
100
AcDbWipeout
 90
        0
 10
-1368.450845811444
 20
1515.600244513236
 30
0.0
 11
439.9999984579197
 21
0.0
 31
0.0
 12
0.0
 22
6.000000000000227
 32
0.0
 13
1.0
 23
1.0
340
0
 70
    15
280
     1
281
    50
282
    50
283
     0
360
0
 71
     2
 91
        5
 14
-0.5000000000000002
 24
-0.4999999999999811
 14
-0.5000000000000002
 24
0.500000000000019
 14
0.4999999999999997
 24
0.500000000000019
 14
0.4999999999999997
 24
-0.4999999999999811
 14
-0.5000000000000002
 24
-0.4999999999999811
  0
HATCH
  5
283
330
1F
100
AcDbEntity
  8
@__WIDOCZNE
  6
Continuous
370
    13
100
AcDbHatch
 10
0.0
 20
0.0
 30
0.0
210
0.0
220
0.0
230
1.0
  2
SOLID
 70
     1
 71
     0
 91
        1
 92
        2
 72
     0
 73
     1
 93
        4
 10
-1306.828142665505
 20
870.0735756125023
 10
-1323.776825825685
 20
870.0735756125023
 10
-1323.776825825685
 20
820.2391229279117
 10
-1306.828142665505
 20
820.2391229279117
 97
        0
 75
     0
 76
     1
 98
        0
  0
HATCH
  5
284
330
1F
100
AcDbEntity
  8
@__WIDOCZNE
  6
Continuous
370
    13
100
AcDbHatch
 10
0.0
 20
0.0
 30
0.0
210
0.0
220
0.0
230
1.0
  2
SOLID
 70
     1
 71
     0
 91
        1
 92
        2
 72
     0
 73
     1
 93
        4
 10
-1236.621252140656
 20
959.5009507827043
 10
-1186.756132100567
 20
959.5009507827043
 10
-1186.756132100567
 20
942.6407664306502
 10
-1236.621252140656
 20
942.6407664306502
 97
        0
 75
     0
 76
     1
 98
        0
  0
HATCH
  5
285
330
1F
100
AcDbEntity
  8
@__WIDOCZNE
  6
Continuous
370
    13
100
AcDbHatch
 10
0.0
 20
0.0
 30
0.0
210
0.0
220
0.0
230
1.0
  2
SOLID
 70
     1
 71
     0
 91
        1
 92
        2
 72
     1
 73
     1
 93
        8
 10
-1306.828142665505
 20
919.9506082164603
 42
0.0
 10
-1306.828142665505
 20
927.3504350367014
 42
-0.414213562373095
 10
-1291.511409857443
 20
942.6671678447638
 42
0.0
 10
-1286.507470185499
 20
942.6671678447638
 42
0.0
 10
-1286.507470185499
 20
959.5009507827043
 42
0.0
 10
-1293.776825825685
 20
959.5009507827043
 42
0.4142135623730955
 10
-1323.776825825685
 20
929.2609047607511
 42
0.0
 10
-1323.776825825685
 20
919.9506082164603
 42
0.0
 97
        0
 75
     0
 76
     1
 98
        0
  0
HATCH
  5
286
330
1F
100
AcDbEntity
  8
@__WIDOCZNE
  6
Continuous
370
    13
100
AcDbHatch
 10
0.0
 20
0.0
 30
0.0
210
0.0
220
0.0
230
1.0
  2
SOLID
 70
     1
 71
     0
 91
        1
 92
        2
 72
     0
 73
     1
 93
        4
 10
-1306.64690063059
 20
2071.43099559864
 10
-1323.595583790769
 20
2071.43099559864
 10
-1323.595583790769
 20
2021.596542914049
 10
-1306.64690063059
 20
2021.596542914049
 97
        0
 75
     0
 76
     1
 98
        0
  0
HATCH
  5
287
330
1F
100
AcDbEntity
  8
@__WIDOCZNE
  6
Continuous
370
    13
100
AcDbHatch
 10
0.0
 20
0.0
 30
0.0
210
0.0
220
0.0
230
1.0
  2
SOLID
 70
     1
 71
     0
 91
        1
 92
        2
 72
     1
 73
     1
 93
        8
 10
-1306.64690063059
 20
2121.308028202598
 42
0.0
 10
-1306.64690063059
 20
2128.707855022839
 42
-0.414213562373095
 10
-1291.330167822527
 20
2144.024587830901
 42
0.0
 10
-1286.326228150584
 20
2144.024587830901
 42
0.0
 10
-1286.326228150584
 20
2160.858370768842
 42
0.0
 10
-1293.595583790769
 20
2160.858370768842
 42
0.4142135623730955
 10
-1323.595583790769
 20
2130.618324746888
 42
0.0
 10
-1323.595583790769
 20
2121.308028202598
 42
0.0
 97
        0
 75
     0
 76
     1
 98
        0
  0
HATCH
  5
288
330
1F
100
AcDbEntity
  8
@__WIDOCZNE
  6
Continuous
370
    13
100
AcDbHatch
 10
0.0
 20
0.0
 30
0.0
210
0.0
220
0.0
230
1.0
  2
SOLID
 70
     1
 71
     0
 91
        1
 92
        2
 72
     1
 73
     1
 93
        4
 10
-1246.432255041029
 20
2160.858370768842
 42
0.2530492221815604
 10
-1210.343200628475
 20
2180.665660334356
 42
0.0
 10
-1196.248611473107
 20
2171.591355448408
 42
-0.2317838985923374
 10
-1244.636566828819
 20
2144.127958714998
 42
0.0
 97
        0
 75
     0
 76
     1
 98
        0
  0
LINE
  5
28A
330
1F
100
AcDbEntity
  8
@__WIDOCZNE
  6
Kropki i Kreski
370
    25
100
AcDbLine
 10
-1068.450847353415
 20
418.6002445132355
 30
0.0
 11
-1068.450847353415
 21
1567.247365662897
 31
0.0
  0
LINE
  5
28B
330
1F
100
AcDbEntity
  8
@__WIDOCZNE
  6
Continuous
370
    13
100
AcDbLine
 10
-1231.367251959279
 20
2038.866326909938
 30
0.0
 11
-1231.367251959279
 21
2125.467708714998
 31
0.0
  0
LINE
  5
28C
330
1F
100
AcDbEntity
  8
@__WIDOCZNE
  6
Continuous
370
    13
100
AcDbLine
 10
-1231.367251959279
 20
2020.206076909938
 30
0.0
 11
-1236.367251959278
 21
2038.866326909938
 31
0.0
  0
LINE
  5
28D
330
1F
100
AcDbEntity
  8
@__WIDOCZNE
  6
Continuous
370
    13
100
AcDbLine
 10
-1231.367251959279
 20
2020.206076909938
 30
0.0
 11
-1226.367251959279
 21
2038.866326909938
 31
0.0
  0
LINE
  5
28E
330
1F
100
AcDbEntity
  8
@__WIDOCZNE
  6
Continuous
370
    13
100
AcDbLine
 10
-1236.367251959278
 20
2038.866326909938
 30
0.0
 11
-1226.367251959279
 21
2038.866326909938
 31
0.0
  0
HATCH
  5
28F
330
1F
100
AcDbEntity
  8
@__WIDOCZNE
  6
Continuous
370
    13
100
AcDbHatch
 10
0.0
 20
0.0
 30
0.0
210
0.0
220
0.0
230
1.0
  2
SOLID
 70
     1
 71
     0
 91
        1
 92
        2
 72
     0
 73
     1
 93
        3
 10
-1231.367251959279
 20
2020.206076909938
 10
-1236.367251959278
 20
2038.866326909938
 10
-1226.367251959279
 20
2038.866326909938
 97
        0
 75
     0
 76
     1
 98
        0
  0
LINE
  5
290
330
1F
100
AcDbEntity
  8
@__WIDOCZNE
  6
Continuous
370
    13
100
AcDbLine
 10
-1231.367251959279
 20
2144.127958714998
 30
0.0
 11
-1226.367251959279
 21
2125.467708714998
 31
0.0
  0
LINE
  5
291
330
1F
100
AcDbEntity
  8
@__WIDOCZNE
  6
Continuous
370
    13
100
AcDbLine
 10
-1231.367251959279
 20
2144.127958714998
 30
0.0
 11
-1236.367251959278
 21
2125.467708714998
 31
0.0
  0
LINE
  5
292
330
1F
100
AcDbEntity
  8
@__WIDOCZNE
  6
Continuous
370
    13
100
AcDbLine
 10
-1226.367251959279
 20
2125.467708714998
 30
0.0
 11
-1236.367251959278
 21
2125.467708714998
 31
0.0
  0
HATCH
  5
293
330
1F
100
AcDbEntity
  8
@__WIDOCZNE
  6
Continuous
370
    13
100
AcDbHatch
 10
0.0
 20
0.0
 30
0.0
210
0.0
220
0.0
230
1.0
  2
SOLID
 70
     1
 71
     0
 91
        1
 92
        2
 72
     0
 73
     1
 93
        3
 10
-1231.367251959279
 20
2144.127958714998
 10
-1226.367251959279
 20
2125.467708714998
 10
-1236.367251959278
 20
2125.467708714998
 97
        0
 75
     0
 76
     1
 98
        0
  0
LINE
  5
294
330
1F
100
AcDbEntity
  8
@__WIDOCZNE
  6
Continuous
370
    13
100
AcDbLine
 10
-1231.367251959279
 20
837.4665714231719
 30
0.0
 11
-1231.367251959279
 21
924.0679532282321
 31
0.0
  0
LINE
  5
295
330
1F
100
AcDbEntity
  8
@__WIDOCZNE
  6
Continuous
370
    13
100
AcDbLine
 10
-1231.367251959279
 20
818.8063214231719
 30
0.0
 11
-1236.367251959278
 21
837.4665714231719
 31
0.0
  0
LINE
  5
296
330
1F
100
AcDbEntity
  8
@__WIDOCZNE
  6
Continuous
370
    13
100
AcDbLine
 10
-1231.367251959279
 20
818.8063214231719
 30
0.0
 11
-1226.367251959279
 21
837.4665714231719
 31
0.0
  0
LINE
  5
297
330
1F
100
AcDbEntity
  8
@__WIDOCZNE
  6
Continuous
370
    13
100
AcDbLine
 10
-1236.367251959278
 20
837.4665714231719
 30
0.0
 11
-1226.367251959279
 21
837.4665714231719
 31
0.0
  0
HATCH
  5
298
330
1F
100
AcDbEntity
  8
@__WIDOCZNE
  6
Continuous
370
    13
100
AcDbHatch
 10
0.0
 20
0.0
 30
0.0
210
0.0
220
0.0
230
1.0
  2
SOLID
 70
     1
 71
     0
 91
        1
 92
        2
 72
     0
 73
     1
 93
        3
 10
-1231.367251959279
 20
818.8063214231719
 10
-1236.367251959278
 20
837.4665714231719
 10
-1226.367251959279
 20
837.4665714231719
 97
        0
 75
     0
 76
     1
 98
        0
  0
LINE
  5
299
330
1F
100
AcDbEntity
  8
@__WIDOCZNE
  6
Continuous
370
    13
100
AcDbLine
 10
-1231.367251959279
 20
942.7282032282321
 30
0.0
 11
-1226.367251959279
 21
924.0679532282321
 31
0.0
  0
LINE
  5
29A
330
1F
100
AcDbEntity
  8
@__WIDOCZNE
  6
Continuous
370
    13
100
AcDbLine
 10
-1231.367251959279
 20
942.7282032282321
 30
0.0
 11
-1236.367251959278
 21
924.0679532282321
 31
0.0
  0
LINE
  5
29B
330
1F
100
AcDbEntity
  8
@__WIDOCZNE
  6
Continuous
370
    13
100
AcDbLine
 10
-1226.367251959279
 20
924.0679532282321
 30
0.0
 11
-1236.367251959278
 21
924.0679532282321
 31
0.0
  0
HATCH
  5
29C
330
1F
100
AcDbEntity
  8
@__WIDOCZNE
  6
Continuous
370
    13
100
AcDbHatch
 10
0.0
 20
0.0
 30
0.0
210
0.0
220
0.0
230
1.0
  2
SOLID
 70
     1
 71
     0
 91
        1
 92
        2
 72
     0
 73
     1
 93
        3
 10
-1231.367251959279
 20
942.7282032282321
 10
-1226.367251959279
 20
924.0679532282321
 10
-1236.367251959278
 20
924.0679532282321
 97
        0
 75
     0
 76
     1
 98
        0
  0
LINE
  5
29D
330
1F
100
AcDbEntity
  8
@__WIDOCZNE
  6
Continuous
 62
   104
370
    25
100
AcDbLine
 10
-1929.65579530462
 20
888.4091652978498
 30
0.0
 11
-1349.925538348681
 21
888.4091652978498
 31
0.0
  0
LINE
  5
29E
330
1F
100
AcDbEntity
  8
@__WIDOCZNE
  6
Continuous
 62
   104
370
    13
100
AcDbLine
 10
-1321.935163348681
 20
888.4091652978498
 30
0.0
 11
-1349.925538348681
 21
880.9091652978498
 31
0.0
  0
LINE
  5
29F
330
1F
100
AcDbEntity
  8
@__WIDOCZNE
  6
Continuous
 62
   104
370
    13
100
AcDbLine
 10
-1321.935163348681
 20
888.4091652978498
 30
0.0
 11
-1349.925538348681
 21
895.9091652978497
 31
0.0
  0
LINE
  5
2A0
330
1F
100
AcDbEntity
  8
@__WIDOCZNE
  6
Continuous
 62
   104
370
    13
100
AcDbLine
 10
-1349.925538348681
 20
880.9091652978498
 30
0.0
 11
-1349.925538348681
 21
895.9091652978497
 31
0.0
  0
HATCH
  5
2A1
330
1F
100
AcDbEntity
  8
@__WIDOCZNE
  6
Continuous
 62
   104
370
    13
100
AcDbHatch
 10
0.0
 20
0.0
 30
0.0
210
0.0
220
0.0
230
1.0
  2
SOLID
 70
     1
 71
     0
 91
        1
 92
        2
 72
     0
 73
     1
 93
        3
 10
-1321.935163348681
 20
888.4091652978498
 10
-1349.925538348681
 20
880.9091652978498
 10
-1349.925538348681
 20
895.9091652978497
 97
        0
 75
     0
 76
     1
 98
        0
  0
LINE
  5
2A2
330
1F
100
AcDbEntity
  8
@__WIDOCZNE
  6
Continuous
 62
   104
370
    25
100
AcDbLine
 10
-1930.000000000318
 20
2178.772175216542
 30
0.0
 11
-1239.165559255492
 21
2178.772175216542
 31
0.0
  0
LINE
  5
2A3
330
1F
100
AcDbEntity
  8
@__WIDOCZNE
  6
Continuous
 62
   104
370
    13
100
AcDbLine
 10
-1211.175184255492
 20
2178.772175216542
 30
0.0
 11
-1239.165559255492
 21
2171.272175216542
 31
0.0
  0
LINE
  5
2A4
330
1F
100
AcDbEntity
  8
@__WIDOCZNE
  6
Continuous
 62
   104
370
    13
100
AcDbLine
 10
-1211.175184255492
 20
2178.772175216542
 30
0.0
 11
-1239.165559255492
 21
2186.272175216542
 31
0.0
  0
LINE
  5
2A5
330
1F
100
AcDbEntity
  8
@__WIDOCZNE
  6
Continuous
 62
   104
370
    13
100
AcDbLine
 10
-1239.165559255492
 20
2171.272175216542
 30
0.0
 11
-1239.165559255492
 21
2186.272175216542
 31
0.0
  0
HATCH
  5
2A6
330
1F
100
AcDbEntity
  8
@__WIDOCZNE
  6
Continuous
 62
   104
370
    13
100
AcDbHatch
 10
0.0
 20
0.0
 30
0.0
210
0.0
220
0.0
230
1.0
  2
SOLID
 70
     1
 71
     0
 91
        1
 92
        2
 72
     0
 73
     1
 93
        3
 10
-1211.175184255492
 20
2178.772175216542
 10
-1239.165559255492
 20
2171.272175216542
 10
-1239.165559255492
 20
2186.272175216542
 97
        0
 75
     0
 76
     1
 98
        0
  0
LINE
  5
2A7
330
1F
100
AcDbEntity
  8
@__WIDOCZNE
  6
Continuous
 62
   104
370
    25
100
AcDbLine
 10
-1929.65579530462
 20
988.4091981012631
 30
0.0
 11
-1222.174031533591
 21
988.4091981012631
 31
0.0
  0
LINE
  5
2A8
330
1F
100
AcDbEntity
  8
@__WIDOCZNE
  6
Continuous
 62
   104
370
    13
100
AcDbLine
 10
-1194.183656533591
 20
988.4091981012631
 30
0.0
 11
-1222.174031533591
 21
980.9091981012631
 31
0.0
  0
LINE
  5
2A9
330
1F
100
AcDbEntity
  8
@__WIDOCZNE
  6
Continuous
 62
   104
370
    13
100
AcDbLine
 10
-1194.183656533591
 20
988.4091981012631
 30
0.0
 11
-1222.174031533591
 21
995.909198101263
 31
0.0
  0
LINE
  5
2AA
330
1F
100
AcDbEntity
  8
@__WIDOCZNE
  6
Continuous
 62
   104
370
    13
100
AcDbLine
 10
-1222.174031533591
 20
980.9091981012631
 30
0.0
 11
-1222.174031533591
 21
995.909198101263
 31
0.0
  0
HATCH
  5
2AB
330
1F
100
AcDbEntity
  8
@__WIDOCZNE
  6
Continuous
 62
   104
370
    13
100
AcDbHatch
 10
0.0
 20
0.0
 30
0.0
210
0.0
220
0.0
230
1.0
  2
SOLID
 70
     1
 71
     0
 91
        1
 92
        2
 72
     0
 73
     1
 93
        3
 10
-1194.183656533591
 20
988.4091981012631
 10
-1222.174031533591
 20
980.9091981012631
 10
-1222.174031533591
 20
995.909198101263
 97
        0
 75
     0
 76
     1
 98
        0
  0
LINE
  5
2AC
330
1F
100
AcDbEntity
  8
@__WIDOCZNE
  6
Continuous
 62
   104
370
    25
100
AcDbLine
 10
-1929.65579530462
 20
2089.808920784616
 30
0.0
 11
-1349.925538348681
 21
2089.808920784616
 31
0.0
  0
LINE
  5
2AD
330
1F
100
AcDbEntity
  8
@__WIDOCZNE
  6
Continuous
 62
   104
370
    13
100
AcDbLine
 10
-1321.935163348681
 20
2089.808920784616
 30
0.0
 11
-1349.925538348681
 21
2082.308920784616
 31
0.0
  0
LINE
  5
2AE
330
1F
100
AcDbEntity
  8
@__WIDOCZNE
  6
Continuous
 62
   104
370
    13
100
AcDbLine
 10
-1321.935163348681
 20
2089.808920784616
 30
0.0
 11
-1349.925538348681
 21
2097.308920784616
 31
0.0
  0
LINE
  5
2AF
330
1F
100
AcDbEntity
  8
@__WIDOCZNE
  6
Continuous
 62
   104
370
    13
100
AcDbLine
 10
-1349.925538348681
 20
2082.308920784616
 30
0.0
 11
-1349.925538348681
 21
2097.308920784616
 31
0.0
  0
HATCH
  5
2B0
330
1F
100
AcDbEntity
  8
@__WIDOCZNE
  6
Continuous
 62
   104
370
    13
100
AcDbHatch
 10
0.0
 20
0.0
 30
0.0
210
0.0
220
0.0
230
1.0
  2
SOLID
 70
     1
 71
     0
 91
        1
 92
        2
 72
     0
 73
     1
 93
        3
 10
-1321.935163348681
 20
2089.808920784616
 10
-1349.925538348681
 20
2082.308920784616
 10
-1349.925538348681
 20
2097.308920784616
 97
        0
 75
     0
 76
     1
 98
        0
  0
LINE
  5
2B1
330
1F
100
AcDbEntity
  8
@__WIDOCZNE
  6
Kropki i Kreski
370
    25
100
AcDbLine
 10
-1068.450847353415
 20
1620.000000000001
 30
0.0
 11
-1068.450847353415
 21
2770.000000000001
 31
0.0
  0
LINE
  5
2B2
330
1F
100
AcDbEntity
  8
@__WIDOCZNE
  6
Przerywana gęsta
370
    50
100
AcDbLine
 10
-300.0311619633401
 20
2322.988143067052
 30
0.0
 11
-300.0311619633403
 21
1677.188427552319
 31
0.0
  0
LINE
  5
2B3
330
1F
100
AcDbEntity
  8
@__WIDOCZNE
  6
Continuous
370
    25
100
AcDbLine
 10
-1930.000000000318
 20
702.728203228232
 30
0.0
 11
-1336.441222353415
 21
702.728203228232
 31
0.0
  0
LINE
  5
2B4
330
1F
100
AcDbEntity
  8
@__WIDOCZNE
  6
Continuous
370
    25
100
AcDbLine
 10
-1308.450847353416
 20
702.728203228232
 30
0.0
 11
-1336.441222353415
 21
695.2282032282321
 31
0.0
  0
LINE
  5
2B5
330
1F
100
AcDbEntity
  8
@__WIDOCZNE
  6
Continuous
370
    25
100
AcDbLine
 10
-1308.450847353416
 20
702.728203228232
 30
0.0
 11
-1336.441222353415
 21
710.228203228232
 31
0.0
  0
LINE
  5
2B6
330
1F
100
AcDbEntity
  8
@__WIDOCZNE
  6
Continuous
370
    25
100
AcDbLine
 10
-1336.441222353415
 20
695.2282032282321
 30
0.0
 11
-1336.441222353415
 21
710.228203228232
 31
0.0
  0
HATCH
  5
2B7
330
1F
100
AcDbEntity
  8
@__WIDOCZNE
  6
Continuous
370
    25
100
AcDbHatch
 10
0.0
 20
0.0
 30
0.0
210
0.0
220
0.0
230
1.0
  2
SOLID
 70
     1
 71
     0
 91
        1
 92
        2
 72
     0
 73
     1
 93
        3
 10
-1308.450847353416
 20
702.728203228232
 10
-1336.441222353415
 20
695.2282032282321
 10
-1336.441222353415
 20
710.228203228232
 97
        0
 75
     0
 76
     1
 98
        0
  0
LINE
  5
2B8
330
1F
100
AcDbEntity
  8
@__WIDOCZNE
  6
Continuous
370
    25
100
AcDbLine
 10
-1930.000000000318
 20
1904.127958714998
 30
0.0
 11
-1336.441222353415
 21
1904.127958714998
 31
0.0
  0
LINE
  5
2B9
330
1F
100
AcDbEntity
  8
@__WIDOCZNE
  6
Continuous
370
    25
100
AcDbLine
 10
-1308.450847353416
 20
1904.127958714998
 30
0.0
 11
-1336.441222353415
 21
1896.627958714998
 31
0.0
  0
LINE
  5
2BA
330
1F
100
AcDbEntity
  8
@__WIDOCZNE
  6
Continuous
370
    25
100
AcDbLine
 10
-1308.450847353416
 20
1904.127958714998
 30
0.0
 11
-1336.441222353415
 21
1911.627958714998
 31
0.0
  0
LINE
  5
2BB
330
1F
100
AcDbEntity
  8
@__WIDOCZNE
  6
Continuous
370
    25
100
AcDbLine
 10
-1336.441222353415
 20
1896.627958714998
 30
0.0
 11
-1336.441222353415
 21
1911.627958714998
 31
0.0
  0
HATCH
  5
2BC
330
1F
100
AcDbEntity
  8
@__WIDOCZNE
  6
Continuous
370
    25
100
AcDbHatch
 10
0.0
 20
0.0
 30
0.0
210
0.0
220
0.0
230
1.0
  2
SOLID
 70
     1
 71
     0
 91
        1
 92
        2
 72
     0
 73
     1
 93
        3
 10
-1308.450847353416
 20
1904.127958714998
 10
-1336.441222353415
 20
1896.627958714998
 10
-1336.441222353415
 20
1911.627958714998
 97
        0
 75
     0
 76
     1
 98
        0
  0
LINE
  5
2BD
330
1F
100
AcDbEntity
  8
@__WIDOCZNE
  6
Przerywana gęsta
370
    50
100
AcDbLine
 10
-300.0311619633401
 20
1121.588387580286
 30
0.0
 11
-300.0311619633404
 21
478.2061358228886
 31
0.0
  0
LINE
  5
2BE
330
1F
100
AcDbEntity
  8
@__WIDOCZNE
  6
Przerywana gęsta
370
    50
100
AcDbLine
 10
-928.4508473535244
 20
2720.000000000001
 30
0.0
 11
-1368.450845811444
 21
2720.000000000002
 31
0.0
  0
LINE
  5
2BF
330
1F
100
AcDbEntity
  8
@__WIDOCZNE
  6
Przerywana gęsta
370
    50
100
AcDbLine
 10
-928.4508473535245
 20
1518.600244513236
 30
0.0
 11
-1368.450845811444
 21
1518.600244513236
 31
0.0
  0
LINE
  5
2C0
330
1F
100
AcDbEntity
  8
@__WIDOCZNE
  6
Continuous
370
    13
100
AcDbLine
 10
-1323.776825825685
 20
870.0735756125023
 30
0.0
 11
-1323.776825825685
 21
919.9506082164603
 31
0.0
  0
LINE
  5
2C1
330
1F
100
AcDbEntity
  8
@__WIDOCZNE
  6
Continuous
370
    13
100
AcDbLine
 10
-1306.828142665505
 20
870.0735756125023
 30
0.0
 11
-1306.828142665505
 21
919.9506082164603
 31
0.0
  0
LINE
  5
2C2
330
1F
100
AcDbEntity
  8
@__WIDOCZNE
  6
Continuous
370
    13
100
AcDbLine
 10
-1236.621252140656
 20
959.5009507827043
 30
0.0
 11
-1286.526975396284
 21
959.5009507827043
 31
0.0
  0
LINE
  5
2C3
330
1F
100
AcDbEntity
  8
@__WIDOCZNE
  6
Continuous
370
    13
100
AcDbLine
 10
-1286.507470185499
 20
942.6671678447638
 30
0.0
 11
-1236.621252140656
 21
942.6671678447638
 31
0.0
  0
LINE
  5
2C4
330
1F
100
AcDbEntity
  8
@__WIDOCZNE
  6
Continuous
370
    13
100
AcDbLine
 10
-1323.595583790769
 20
2071.43099559864
 30
0.0
 11
-1323.595583790769
 21
2121.308028202598
 31
0.0
  0
LINE
  5
2C5
330
1F
100
AcDbEntity
  8
@__WIDOCZNE
  6
Continuous
370
    13
100
AcDbLine
 10
-1306.64690063059
 20
2071.43099559864
 30
0.0
 11
-1306.64690063059
 21
2121.308028202598
 31
0.0
  0
LINE
  5
2C6
330
1F
100
AcDbEntity
  8
@__WIDOCZNE
  6
Continuous
370
    13
100
AcDbLine
 10
-1236.44001010574
 20
2160.858370768842
 30
0.0
 11
-1286.345733361369
 21
2160.858370768842
 31
0.0
  0
LINE
  5
2C7
330
1F
100
AcDbEntity
  8
@__WIDOCZNE
  6
Continuous
370
    13
100
AcDbLine
 10
-1286.326228150584
 20
2144.024587830901
 30
0.0
 11
-1236.44001010574
 21
2144.024587830901
 31
0.0
  0
LINE
  5
2C8
330
1F
100
AcDbEntity
  8
@__WIDOCZNE
  6
Continuous
370
    50
100
AcDbLine
 10
-873.2093131955685
 20
1481.028359674643
 30
0.0
 11
-873.2093131955685
 21
418.6002445132355
 31
0.0
  0
LWPOLYLINE
  5
2C9
330
1F
100
AcDbEntity
  8
@__WIDOCZNE
  6
Continuous
 62
   102
370
    50
100
AcDbPolyline
 90
        3
 70
   128
 43
0.0
 10
-1255.215407546133
 20
952.7902598744039
 10
-1195.215407546133
 20
952.7902598744039
 10
-1195.215407546133
 20
1012.790259874404
  0
LINE
  5
2CA
330
1F
100
AcDbEntity
  8
@__WIDOCZNE
  6
Continuous
370
    13
100
AcDbLine
 10
-1458.450847353415
 20
788.4091652978497
 30
0.0
 11
-1486.441222353415
 21
780.9091652978497
 31
0.0
  0
LINE
  5
2CB
330
1F
100
AcDbEntity
  8
@__WIDOCZNE
  6
Continuous
370
    13
100
AcDbLine
 10
-1458.450847353415
 20
788.4091652978497
 30
0.0
 11
-1486.441222353415
 21
795.9091652978497
 31
0.0
  0
LINE
  5
2CC
330
1F
100
AcDbEntity
  8
@__WIDOCZNE
  6
Continuous
370
    13
100
AcDbLine
 10
-1486.441222353415
 20
780.9091652978497
 30
0.0
 11
-1486.441222353415
 21
795.9091652978497
 31
0.0
  0
HATCH
  5
2CD
330
1F
100
AcDbEntity
  8
@__WIDOCZNE
  6
Continuous
370
    13
100
AcDbHatch
 10
0.0
 20
0.0
 30
0.0
210
0.0
220
0.0
230
1.0
  2
SOLID
 70
     1
 71
     0
 91
        1
 92
        2
 72
     0
 73
     1
 93
        3
 10
-1458.450847353415
 20
788.4091652978497
 10
-1486.441222353415
 20
780.9091652978497
 10
-1486.441222353415
 20
795.9091652978497
 97
        0
 75
     0
 76
     1
 98
        0
  0
LINE
  5
2CE
330
1F
100
AcDbEntity
  8
@__WIDOCZNE
  6
Continuous
370
    25
100
AcDbLine
 10
-1930.000000000318
 20
788.4091652978498
 30
0.0
 11
-1486.441222353415
 21
788.4091652978497
 31
0.0
  0
LINE
  5
2CF
330
1F
100
AcDbEntity
  8
@__WIDOCZNE
  6
Continuous
370
    13
100
AcDbLine
 10
-1458.450847353415
 20
1989.808920784616
 30
0.0
 11
-1486.441222353415
 21
1982.308920784616
 31
0.0
  0
LINE
  5
2D0
330
1F
100
AcDbEntity
  8
@__WIDOCZNE
  6
Continuous
370
    13
100
AcDbLine
 10
-1458.450847353415
 20
1989.808920784616
 30
0.0
 11
-1486.441222353415
 21
1997.308920784616
 31
0.0
  0
LINE
  5
2D1
330
1F
100
AcDbEntity
  8
@__WIDOCZNE
  6
Continuous
370
    13
100
AcDbLine
 10
-1486.441222353415
 20
1982.308920784616
 30
0.0
 11
-1486.441222353415
 21
1997.308920784616
 31
0.0
  0
HATCH
  5
2D2
330
1F
100
AcDbEntity
  8
@__WIDOCZNE
  6
Continuous
370
    13
100
AcDbHatch
 10
0.0
 20
0.0
 30
0.0
210
0.0
220
0.0
230
1.0
  2
SOLID
 70
     1
 71
     0
 91
        1
 92
        2
 72
     0
 73
     1
 93
        3
 10
-1458.450847353415
 20
1989.808920784616
 10
-1486.441222353415
 20
1982.308920784616
 10
-1486.441222353415
 20
1997.308920784616
 97
        0
 75
     0
 76
     1
 98
        0
  0
LINE
  5
2D3
330
1F
100
AcDbEntity
  8
@__WIDOCZNE
  6
Continuous
370
    25
100
AcDbLine
 10
-1930.000000000318
 20
1989.808920784616
 30
0.0
 11
-1486.441222353415
 21
1989.808920784616
 31
0.0
  0
LINE
  5
2D4
330
1F
100
AcDbEntity
  8
@__WIDOCZNE
  6
Continuous
370
    13
100
AcDbLine
 10
-1478.450845811444
 20
1812.944662006985
 30
0.0
 11
-1506.441220811444
 21
1805.444662006985
 31
0.0
  0
LINE
  5
2D5
330
1F
100
AcDbEntity
  8
@__WIDOCZNE
  6
Continuous
370
    13
100
AcDbLine
 10
-1478.450845811444
 20
1812.944662006985
 30
0.0
 11
-1506.441220811444
 21
1820.444662006986
 31
0.0
  0
LINE
  5
2D6
330
1F
100
AcDbEntity
  8
@__WIDOCZNE
  6
Continuous
370
    13
100
AcDbLine
 10
-1506.441220811444
 20
1805.444662006985
 30
0.0
 11
-1506.441220811444
 21
1820.444662006986
 31
0.0
  0
HATCH
  5
2D7
330
1F
100
AcDbEntity
  8
@__WIDOCZNE
  6
Continuous
370
    13
100
AcDbHatch
 10
0.0
 20
0.0
 30
0.0
210
0.0
220
0.0
230
1.0
  2
SOLID
 70
     1
 71
     0
 91
        1
 92
        2
 72
     0
 73
     1
 93
        3
 10
-1478.450845811444
 20
1812.944662006985
 10
-1506.441220811444
 20
1805.444662006985
 10
-1506.441220811444
 20
1820.444662006986
 97
        0
 75
     0
 76
     1
 98
        0
  0
LINE
  5
2D8
330
1F
100
AcDbEntity
  8
@__WIDOCZNE
  6
Continuous
370
    25
100
AcDbLine
 10
-1930.000000000318
 20
1812.944662006985
 30
0.0
 11
-1506.441220811444
 21
1812.944662006985
 31
0.0
  0
LINE
  5
2D9
330
1F
100
AcDbEntity
  8
@__WIDOCZNE
  6
Continuous
370
    13
100
AcDbLine
 10
-1478.450845811444
 20
611.5449065202197
 30
0.0
 11
-1506.441220811444
 21
604.0449065202197
 31
0.0
  0
LINE
  5
2DA
330
1F
100
AcDbEntity
  8
@__WIDOCZNE
  6
Continuous
370
    13
100
AcDbLine
 10
-1478.450845811444
 20
611.5449065202197
 30
0.0
 11
-1506.441220811444
 21
619.0449065202196
 31
0.0
  0
LINE
  5
2DB
330
1F
100
AcDbEntity
  8
@__WIDOCZNE
  6
Continuous
370
    13
100
AcDbLine
 10
-1506.441220811444
 20
604.0449065202197
 30
0.0
 11
-1506.441220811444
 21
619.0449065202196
 31
0.0
  0
HATCH
  5
2DC
330
1F
100
AcDbEntity
  8
@__WIDOCZNE
  6
Continuous
370
    13
100
AcDbHatch
 10
0.0
 20
0.0
 30
0.0
210
0.0
220
0.0
230
1.0
  2
SOLID
 70
     1
 71
     0
 91
        1
 92
        2
 72
     0
 73
     1
 93
        3
 10
-1478.450845811444
 20
611.5449065202197
 10
-1506.441220811444
 20
604.0449065202197
 10
-1506.441220811444
 20
619.0449065202196
 97
        0
 75
     0
 76
     1
 98
        0
  0
LINE
  5
2DD
330
1F
100
AcDbEntity
  8
@__WIDOCZNE
  6
Continuous
370
    25
100
AcDbLine
 10
-1930.000000000318
 20
611.5449065202197
 30
0.0
 11
-1506.441220811444
 21
611.5449065202197
 31
0.0
  0
MTEXT
  5
2DF
330
1F
100
AcDbEntity
  8
@__WIDOCZNE
  6
Continuous
370
    13
100
AcDbMText
 10
-863.2093131955685
 20
1167.803631757359
 30
0.0
 40
19.99999999999999
 41
0.0
 71
     7
 72
     1
  3
\A1;{\fArial|b1|i0|c238|p38;PODŁOGA NA GRUNCIE \P\fArial|b0|i0|c238|p38;• POSADZKA\P• JASTRYCH CEMENTOWY\P• WARSTWA ROZDZIELAJĄCA -FOLIA PE\P• TERMOIZOLACJA \P\fTimes New Roman|b0|i0|c238|p22;\H0.914286x;• \fArial|b0|i0|c238|p38;\H1.093750x;HYDROIZO
  3
LACJA \fArial|b1|i0|c238|p38;\C102;BOTAMENT RD1 / RD2, 2mm \P\fArial|b0|i0|c238|p38;\C256;• WARSTWA NOŚNA - PŁYTA FUNDAMENTOWA \P• TERMOIZOLACJA TWARDA np. XPS\P\fTimes New Roman|b0|i0|c238|p22;\H0.914286x;• \fArial|b0|i0|c238|p38;\H1.093750x;PODSYP
  1
KA PIASKOWA ZAGĘSZCZONA\P\fTimes New Roman|b0|i0|c238|p22;\H0.914286x;• \fArial|b0|i0|c238|p38;\H1.093750x;GRUNT RODZIMY PO ZDJĘCIU HUMUSU}
  7
GENERATED_STYLE_1
 73
     1
 44
0.9178307490242921
  0
ENDSEC
  0
SECTION
  2
OBJECTS
  0
DICTIONARY
  5
C
330
0
100
AcDbDictionary
281
     1
  3
ACAD_GROUP
350
D
  3
ACAD_LAYOUT
350
1A
  3
ACAD_MLEADERSTYLE
350
2E8
  3
ACAD_MLINESTYLE
350
17
  3
ACAD_PLOTSETTINGS
350
19
  3
ACAD_PLOTSTYLENAME
350
E
  3
ACAD_SCALELIST
350
3B
  3
ACAD_TABLESTYLE
350
2E7
  3
ACAD_VISUALSTYLE
350
2A
  3
AcDbVariableDictionary
350
2E5
  3
WATERMARKS
350
2E3
  0
DICTIONARY
  5
D
102
{ACAD_REACTORS
330
C
102
}
330
C
100
AcDbDictionary
281
     1
  0
DICTIONARY
  5
1A
102
{ACAD_REACTORS
330
C
102
}
330
C
100
AcDbDictionary
281
     1
  3
Layout1
350
1E
  3
Layout2
350
26
  3
Model
350
22
  0
DICTIONARY
  5
2E8
102
{ACAD_REACTORS
330
C
102
}
330
C
100
AcDbDictionary
281
     1
  0
DICTIONARY
  5
17
102
{ACAD_REACTORS
330
C
102
}
330
C
100
AcDbDictionary
281
     1
  3
Standard
350
18
  0
DICTIONARY
  5
19
102
{ACAD_REACTORS
330
C
102
}
330
C
100
AcDbDictionary
281
     1
  0
ACDBDICTIONARYWDFLT
  5
E
102
{ACAD_REACTORS
330
C
102
}
330
C
100
AcDbDictionary
281
     1
  3
Normal
350
F
100
AcDbDictionaryWithDefault
340
F
  0
DICTIONARY
  5
3B
102
{ACAD_REACTORS
330
C
102
}
330
C
100
AcDbDictionary
281
     1
  3
A0
350
3C
  3
A1
350
3D
  3
A2
350
3E
  3
A3
350
3F
  3
A4
350
40
  3
A5
350
41
  3
A6
350
42
  3
A7
350
43
  3
A8
350
44
  3
A9
350
45
  3
B0
350
46
  3
B1
350
47
  3
B2
350
48
  3
B3
350
49
  3
B4
350
4A
  3
B5
350
4B
  3
B6
350
4C
  3
B7
350
4D
  3
B8
350
4E
  3
B9
350
4F
  3
C0
350
50
  3
C1
350
51
  3
C2
350
52
  3
C3
350
53
  3
C4
350
54
  3
C5
350
55
  3
C6
350
56
  3
C7
350
57
  3
C8
350
58
  3
C9
350
59
  3
D0
350
5A
  3
D1
350
5B
  3
D2
350
5C
  0
DICTIONARY
  5
2E7
102
{ACAD_REACTORS
330
C
102
}
330
C
100
AcDbDictionary
281
     1
  0
DICTIONARY
  5
2A
102
{ACAD_REACTORS
330
C
102
}
330
C
100
AcDbDictionary
281
     1
  3
2dWireframe
350
2F
  3
3D Hidden
350
31
  3
3dWireframe
350
30
  3
Basic
350
32
  3
Brighten
350
36
  3
ColorChange
350
3A
  3
Conceptual
350
34
  3
Dim
350
35
  3
Facepattern
350
39
  3
Flat
350
2B
  3
FlatWithEdges
350
2C
  3
Gouraud
350
2D
  3
GouraudWithEdges
350
2E
  3
Linepattern
350
38
  3
Realistic
350
33
  3
Thicken
350
37
  0
DICTIONARY
  5
2E5
102
{ACAD_REACTORS
330
C
102
}
330
C
100
AcDbDictionary
281
     1
  3
CANNOSCALE
350
2E6
  0
DICTIONARY
  5
2E3
102
{ACAD_REACTORS
330
C
102
}
330
C
100
AcDbDictionary
281
     1
  3
AC_WATERMARK
350
2E4
  0
LAYOUT
  5
1E
102
{ACAD_REACTORS
330
1A
102
}
330
1A
100
AcDbPlotSettings
  1

  2
none_device
  4

  6

 40
0.0
 41
0.0
 42
0.0
 43
0.0
 44
0.0
 45
0.0
 46
0.0
 47
0.0
 48
0.0
 49
0.0
140
0.0
141
0.0
142
1.0
143
1.0
 70
   688
 72
     0
 73
     0
 74
     5
  7

 75
    16
147
1.0
148
0.0
149
0.0
100
AcDbLayout
  1
Layout1
 70
     1
 71
     1
 10
0.0
 20
0.0
 11
12.0
 21
9.0
 12
0.0
 22
0.0
 32
0.0
 14
1.000000000000000E+20
 24
1.000000000000000E+20
 34
1.000000000000000E+20
 15
-1.000000000000000E+20
 25
-1.000000000000000E+20
 35
-1.000000000000000E+20
146
0.0
 13
0.0
 23
0.0
 33
0.0
 16
1.0
 26
0.0
 36
0.0
 17
0.0
 27
1.0
 37
0.0
 76
     0
330
1B
  0
LAYOUT
  5
26
102
{ACAD_REACTORS
330
1A
102
}
330
1A
100
AcDbPlotSettings
  1

  2
none_device
  4

  6

 40
0.0
 41
0.0
 42
0.0
 43
0.0
 44
0.0
 45
0.0
 46
0.0
 47
0.0
 48
0.0
 49
0.0
140
0.0
141
0.0
142
1.0
143
1.0
 70
   688
 72
     0
 73
     0
 74
     5
  7

 75
    16
147
1.0
148
0.0
149
0.0
100
AcDbLayout
  1
Layout2
 70
     1
 71
     2
 10
0.0
 20
0.0
 11
0.0
 21
0.0
 12
0.0
 22
0.0
 32
0.0
 14
0.0
 24
0.0
 34
0.0
 15
0.0
 25
0.0
 35
0.0
146
0.0
 13
0.0
 23
0.0
 33
0.0
 16
1.0
 26
0.0
 36
0.0
 17
0.0
 27
1.0
 37
0.0
 76
     0
330
23
  0
LAYOUT
  5
22
102
{ACAD_REACTORS
330
1A
102
}
330
1A
100
AcDbPlotSettings
  1

  2
none_device
  4

  6

 40
0.0
 41
0.0
 42
0.0
 43
0.0
 44
0.0
 45
0.0
 46
0.0
 47
0.0
 48
0.0
 49
0.0
140
0.0
141
0.0
142
1.0
143
1.0
 70
  1712
 72
     0
 73
     0
 74
     0
  7

 75
     0
147
1.0
148
0.0
149
0.0
100
AcDbLayout
  1
Model
 70
     1
 71
     0
 10
0.0
 20
0.0
 11
12.0
 21
9.0
 12
0.0
 22
0.0
 32
0.0
 14
1.000000000000000E+20
 24
1.000000000000000E+20
 34
1.000000000000000E+20
 15
-1.000000000000000E+20
 25
-1.000000000000000E+20
 35
-1.000000000000000E+20
146
0.0
 13
0.0
 23
0.0
 33
0.0
 16
1.0
 26
0.0
 36
0.0
 17
0.0
 27
1.0
 37
0.0
 76
     0
330
1F
331
29
  0
MLINESTYLE
  5
18
102
{ACAD_REACTORS
330
17
102
}
330
17
100
AcDbMlineStyle
  2
Standard
 70
     0
  3

 62
   256
 51
90.0
 52
90.0
 71
     2
 49
0.5
 62
   256
  6
BYLAYER
 49
-0.5
 62
   256
  6
BYLAYER
  0
ACDBPLACEHOLDER
  5
F
102
{ACAD_REACTORS
330
E
102
}
330
E
  0
SCALE
  5
3C
102
{ACAD_REACTORS
330
3B
102
}
330
3B
100
AcDbScale
 70
     0
300
1:1
140
1.0
141
1.0
290
     1
  0
SCALE
  5
3D
102
{ACAD_REACTORS
330
3B
102
}
330
3B
100
AcDbScale
 70
     0
300
1:2
140
1.0
141
2.0
290
     0
  0
SCALE
  5
3E
102
{ACAD_REACTORS
330
3B
102
}
330
3B
100
AcDbScale
 70
     0
300
1:4
140
1.0
141
4.0
290
     0
  0
SCALE
  5
3F
102
{ACAD_REACTORS
330
3B
102
}
330
3B
100
AcDbScale
 70
     0
300
1:5
140
1.0
141
5.0
290
     0
  0
SCALE
  5
40
102
{ACAD_REACTORS
330
3B
102
}
330
3B
100
AcDbScale
 70
     0
300
1:8
140
1.0
141
8.0
290
     0
  0
SCALE
  5
41
102
{ACAD_REACTORS
330
3B
102
}
330
3B
100
AcDbScale
 70
     0
300
1:10
140
1.0
141
10.0
290
     0
  0
SCALE
  5
42
102
{ACAD_REACTORS
330
3B
102
}
330
3B
100
AcDbScale
 70
     0
300
1:16
140
1.0
141
16.0
290
     0
  0
SCALE
  5
43
102
{ACAD_REACTORS
330
3B
102
}
330
3B
100
AcDbScale
 70
     0
300
1:20
140
1.0
141
20.0
290
     0
  0
SCALE
  5
44
102
{ACAD_REACTORS
330
3B
102
}
330
3B
100
AcDbScale
 70
     0
300
1:30
140
1.0
141
30.0
290
     0
  0
SCALE
  5
45
102
{ACAD_REACTORS
330
3B
102
}
330
3B
100
AcDbScale
 70
     0
300
1:40
140
1.0
141
40.0
290
     0
  0
SCALE
  5
46
102
{ACAD_REACTORS
330
3B
102
}
330
3B
100
AcDbScale
 70
     0
300
1:50
140
1.0
141
50.0
290
     0
  0
SCALE
  5
47
102
{ACAD_REACTORS
330
3B
102
}
330
3B
100
AcDbScale
 70
     0
300
1:100
140
1.0
141
100.0
290
     0
  0
SCALE
  5
48
102
{ACAD_REACTORS
330
3B
102
}
330
3B
100
AcDbScale
 70
     0
300
2:1
140
2.0
141
1.0
290
     0
  0
SCALE
  5
49
102
{ACAD_REACTORS
330
3B
102
}
330
3B
100
AcDbScale
 70
     0
300
4:1
140
4.0
141
1.0
290
     0
  0
SCALE
  5
4A
102
{ACAD_REACTORS
330
3B
102
}
330
3B
100
AcDbScale
 70
     0
300
8:1
140
8.0
141
1.0
290
     0
  0
SCALE
  5
4B
102
{ACAD_REACTORS
330
3B
102
}
330
3B
100
AcDbScale
 70
     0
300
10:1
140
10.0
141
1.0
290
     0
  0
SCALE
  5
4C
102
{ACAD_REACTORS
330
3B
102
}
330
3B
100
AcDbScale
 70
     0
300
100:1
140
100.0
141
1.0
290
     0
  0
SCALE
  5
4D
102
{ACAD_REACTORS
330
3B
102
}
330
3B
100
AcDbScale
 70
     0
300
1/128" = 1'-0"
140
0.0078125
141
12.0
290
     0
  0
SCALE
  5
4E
102
{ACAD_REACTORS
330
3B
102
}
330
3B
100
AcDbScale
 70
     0
300
1/64" = 1'-0"
140
0.015625
141
12.0
290
     0
  0
SCALE
  5
4F
102
{ACAD_REACTORS
330
3B
102
}
330
3B
100
AcDbScale
 70
     0
300
1/32" = 1'-0"
140
0.03125
141
12.0
290
     0
  0
SCALE
  5
50
102
{ACAD_REACTORS
330
3B
102
}
330
3B
100
AcDbScale
 70
     0
300
1/16" = 1'-0"
140
0.0625
141
12.0
290
     0
  0
SCALE
  5
51
102
{ACAD_REACTORS
330
3B
102
}
330
3B
100
AcDbScale
 70
     0
300
3/32" = 1'-0"
140
0.09375
141
12.0
290
     0
  0
SCALE
  5
52
102
{ACAD_REACTORS
330
3B
102
}
330
3B
100
AcDbScale
 70
     0
300
1/8" = 1'-0"
140
0.125
141
12.0
290
     0
  0
SCALE
  5
53
102
{ACAD_REACTORS
330
3B
102
}
330
3B
100
AcDbScale
 70
     0
300
3/16" = 1'-0"
140
0.1875
141
12.0
290
     0
  0
SCALE
  5
54
102
{ACAD_REACTORS
330
3B
102
}
330
3B
100
AcDbScale
 70
     0
300
1/4" = 1'-0"
140
0.25
141
12.0
290
     0
  0
SCALE
  5
55
102
{ACAD_REACTORS
330
3B
102
}
330
3B
100
AcDbScale
 70
     0
300
3/8" = 1'-0"
140
0.375
141
12.0
290
     0
  0
SCALE
  5
56
102
{ACAD_REACTORS
330
3B
102
}
330
3B
100
AcDbScale
 70
     0
300
1/2" = 1'-0"
140
0.5
141
12.0
290
     0
  0
SCALE
  5
57
102
{ACAD_REACTORS
330
3B
102
}
330
3B
100
AcDbScale
 70
     0
300
3/4" = 1'-0"
140
0.75
141
12.0
290
     0
  0
SCALE
  5
58
102
{ACAD_REACTORS
330
3B
102
}
330
3B
100
AcDbScale
 70
     0
300
1" = 1'-0"
140
1.0
141
12.0
290
     0
  0
SCALE
  5
59
102
{ACAD_REACTORS
330
3B
102
}
330
3B
100
AcDbScale
 70
     0
300
1-1/2" = 1'-0"
140
1.5
141
12.0
290
     0
  0
SCALE
  5
5A
102
{ACAD_REACTORS
330
3B
102
}
330
3B
100
AcDbScale
 70
     0
300
3" = 1'-0"
140
3.0
141
12.0
290
     0
  0
SCALE
  5
5B
102
{ACAD_REACTORS
330
3B
102
}
330
3B
100
AcDbScale
 70
     0
300
6" = 1'-0"
140
6.0
141
12.0
290
     0
  0
SCALE
  5
5C
102
{ACAD_REACTORS
330
3B
102
}
330
3B
100
AcDbScale
 70
     0
300
1'-0" = 1'-0"
140
12.0
141
12.0
290
     0
  0
VISUALSTYLE
  5
2F
102
{ACAD_REACTORS
330
2A
102
}
330
2A
100
AcDbVisualStyle
  2
2dWireframe
 70
     4
 71
     0
 72
     2
 73
     0
 90
        0
 40
-0.6
 41
-30.0
 62
     5
 63
     7
 74
     1
 91
        4
 64
     7
 65
   257
 75
     1
175
     1
 42
1.0
 92
        0
 66
   257
 43
1.0
 76
     1
 77
     6
 78
     2
 67
     7
 79
     5
170
     0
171
     0
290
     0
174
     0
 93
        1
 44
0.0
173
     0
291
     0
 45
0.0
1001
ACAD
1000
AcDbSavedByObjectVersion
1070
     0
  0
VISUALSTYLE
  5
31
102
{ACAD_REACTORS
330
2A
102
}
330
2A
100
AcDbVisualStyle
  2
3D Hidden
 70
     6
 71
     1
 72
     2
 73
     2
 90
        0
 40
-0.6
 41
-30.0
 62
     5
 63
     7
 74
     2
 91
        2
 64
     7
 65
   257
 75
     2
175
     1
 42
40.0
 92
        0
 66
   257
 43
1.0
 76
     1
 77
     6
 78
     2
 67
     7
 79
     3
170
     0
171
     0
290
     0
174
     0
 93
        1
 44
0.0
173
     0
291
     0
 45
0.0
1001
ACAD
1000
AcDbSavedByObjectVersion
1070
     0
  0
VISUALSTYLE
  5
30
102
{ACAD_REACTORS
330
2A
102
}
330
2A
100
AcDbVisualStyle
  2
3dWireframe
 70
     5
 71
     0
 72
     2
 73
     0
 90
        0
 40
-0.6
 41
-30.0
 62
     5
 63
     7
 74
     1
 91
        4
 64
     7
 65
   257
 75
     1
175
     1
 42
1.0
 92
        0
 66
   257
 43
1.0
 76
     1
 77
     6
 78
     2
 67
     7
 79
     5
170
     0
171
     0
290
     0
174
     0
 93
        1
 44
0.0
173
     0
291
     0
 45
0.0
1001
ACAD
1000
AcDbSavedByObjectVersion
1070
     0
  0
VISUALSTYLE
  5
32
102
{ACAD_REACTORS
330
2A
102
}
330
2A
100
AcDbVisualStyle
  2
Basic
 70
     7
 71
     1
 72
     0
 73
     1
 90
        0
 40
-0.6
 41
-30.0
 62
     5
 63
     7
 74
     0
 91
        4
 64
     7
 65
   257
 75
     1
175
     1
 42
1.0
 92
        8
 66
     7
 43
1.0
 76
     1
 77
     6
 78
     2
 67
     7
 79
     5
170
     0
171
     0
290
     0
174
     0
 93
        1
 44
0.0
173
     0
291
     1
 45
0.0
1001
ACAD
1000
AcDbSavedByObjectVersion
1070
     0
  0
VISUALSTYLE
  5
36
102
{ACAD_REACTORS
330
2A
102
}
330
2A
100
AcDbVisualStyle
  2
Brighten
 70
    12
 71
     2
 72
     2
 73
     0
 90
        0
 40
-0.6
 41
-30.0
 62
     5
 63
     7
 74
     1
 91
        4
 64
     7
 65
   257
 75
     1
175
     1
 42
1.0
 92
        8
 66
     7
 43
1.0
 76
     1
 77
     6
 78
     2
 67
     7
 79
     5
170
     0
171
     0
290
     0
174
     0
 93
        1
 44
50.0
173
     0
291
     1
 45
0.0
1001
ACAD
1000
AcDbSavedByObjectVersion
1070
     0
  0
VISUALSTYLE
  5
3A
102
{ACAD_REACTORS
330
2A
102
}
330
2A
100
AcDbVisualStyle
  2
ColorChange
 70
    16
 71
     2
 72
     2
 73
     3
 90
        0
 40
-0.6
 41
-30.0
 62
     5
 63
     8
 74
     1
 91
        4
 64
     7
 65
   257
 75
     1
175
     1
 42
1.0
 92
        8
 66
     8
 43
1.0
 76
     1
 77
     6
 78
     2
 67
     7
 79
     5
170
     0
171
     0
290
     0
174
     0
 93
        1
 44
0.0
173
     0
291
     1
 45
0.0
1001
ACAD
1000
AcDbSavedByObjectVersion
1070
     0
  0
VISUALSTYLE
  5
34
102
{ACAD_REACTORS
330
2A
102
}
330
2A
100
AcDbVisualStyle
  2
Conceptual
 70
     9
 71
     3
 72
     2
 73
     0
 90
        0
 40
-0.6
 41
-30.0
 62
     5
 63
     7
 74
     2
 91
        2
 64
     7
 65
   257
 75
     1
175
     1
 42
40.0
 92
        8
 66
     7
 43
1.0
 76
     1
 77
     6
 78
     2
 67
     7
 79
     3
170
     0
171
     0
290
     0
174
     0
 93
        1
 44
0.0
173
     0
291
     0
 45
0.0
1001
ACAD
1000
AcDbSavedByObjectVersion
1070
     0
  0
VISUALSTYLE
  5
35
102
{ACAD_REACTORS
330
2A
102
}
330
2A
100
AcDbVisualStyle
  2
Dim
 70
    11
 71
     2
 72
     2
 73
     0
 90
        0
 40
-0.6
 41
-30.0
 62
     5
 63
     7
 74
     1
 91
        4
 64
     7
 65
   257
 75
     1
175
     1
 42
1.0
 92
        8
 66
     7
 43
1.0
 76
     1
 77
     6
 78
     2
 67
     7
 79
     5
170
     0
171
     0
290
     0
174
     0
 93
        1
 44
-50.0
173
     0
291
     1
 45
0.0
1001
ACAD
1000
AcDbSavedByObjectVersion
1070
     0
  0
VISUALSTYLE
  5
39
102
{ACAD_REACTORS
330
2A
102
}
330
2A
100
AcDbVisualStyle
  2
Facepattern
 70
    15
 71
     2
 72
     2
 73
     0
 90
        0
 40
-0.6
 41
-30.0
 62
     5
 63
     7
 74
     1
 91
        4
 64
     7
 65
   257
 75
     1
175
     1
 42
1.0
 92
        8
 66
     7
 43
1.0
 76
     1
 77
     6
 78
     2
 67
     7
 79
     5
170
     0
171
     0
290
     0
174
     0
 93
        1
 44
0.0
173
     0
291
     1
 45
0.0
1001
ACAD
1000
AcDbSavedByObjectVersion
1070
     0
  0
VISUALSTYLE
  5
2B
102
{ACAD_REACTORS
330
2A
102
}
330
2A
100
AcDbVisualStyle
  2
Flat
 70
     0
 71
     2
 72
     1
 73
     1
 90
        2
 40
-0.6
 41
30.0
 62
     5
 63
     7
 74
     0
 91
        4
 64
     7
 65
   257
 75
     1
175
     1
 42
1.0
 92
        8
 66
     7
 43
1.0
 76
     1
 77
     6
 78
     2
 67
     7
 79
     5
170
     0
171
     0
290
     0
174
     0
 93
       13
 44
0.0
173
     0
291
     1
 45
0.0
1001
ACAD
1000
AcDbSavedByObjectVersion
1070
     0
  0
VISUALSTYLE
  5
2C
102
{ACAD_REACTORS
330
2A
102
}
330
2A
100
AcDbVisualStyle
  2
FlatWithEdges
 70
     1
 71
     2
 72
     1
 73
     1
 90
        2
 40
-0.6
 41
30.0
 62
     5
 63
     7
 74
     1
 91
        4
 64
     7
 65
   257
 75
     1
175
     1
 42
1.0
 92
        0
 66
   257
 43
1.0
 76
     1
 77
     6
 78
     2
 67
     7
 79
     5
170
     0
171
     0
290
     0
174
     0
 93
       13
 44
0.0
173
     0
291
     1
 45
0.0
1001
ACAD
1000
AcDbSavedByObjectVersion
1070
     0
  0
VISUALSTYLE
  5
2D
102
{ACAD_REACTORS
330
2A
102
}
330
2A
100
AcDbVisualStyle
  2
Gouraud
 70
     2
 71
     2
 72
     2
 73
     1
 90
        2
 40
-0.6
 41
30.0
 62
     5
 63
     7
 74
     0
 91
        4
 64
     7
 65
   257
 75
     1
175
     1
 42
1.0
 92
        0
 66
     7
 43
1.0
 76
     1
 77
     6
 78
     2
 67
     7
 79
     5
170
     0
171
     0
290
     0
174
     0
 93
       13
 44
0.0
173
     0
291
     1
 45
0.0
1001
ACAD
1000
AcDbSavedByObjectVersion
1070
     0
  0
VISUALSTYLE
  5
2E
102
{ACAD_REACTORS
330
2A
102
}
330
2A
100
AcDbVisualStyle
  2
GouraudWithEdges
 70
     3
 71
     2
 72
     2
 73
     1
 90
        2
 40
-0.6
 41
30.0
 62
     5
 63
     7
 74
     1
 91
        4
 64
     7
 65
   257
 75
     1
175
     1
 42
1.0
 92
        0
 66
   257
 43
1.0
 76
     1
 77
     6
 78
     2
 67
     7
 79
     5
170
     0
171
     0
290
     0
174
     0
 93
       13
 44
0.0
173
     0
291
     1
 45
0.0
1001
ACAD
1000
AcDbSavedByObjectVersion
1070
     0
  0
VISUALSTYLE
  5
38
102
{ACAD_REACTORS
330
2A
102
}
330
2A
100
AcDbVisualStyle
  2
Linepattern
 70
    14
 71
     2
 72
     2
 73
     0
 90
        0
 40
-0.6
 41
-30.0
 62
     5
 63
     7
 74
     1
 91
        4
 64
     7
 65
   257
 75
     7
175
     7
 42
1.0
 92
        8
 66
     7
 43
1.0
 76
     1
 77
     6
 78
     2
 67
     7
 79
     5
170
     0
171
     0
290
     0
174
     0
 93
        1
 44
0.0
173
     0
291
     1
 45
0.0
1001
ACAD
1000
AcDbSavedByObjectVersion
1070
     0
  0
VISUALSTYLE
  5
33
102
{ACAD_REACTORS
330
2A
102
}
330
2A
100
AcDbVisualStyle
  2
Realistic
 70
     8
 71
     2
 72
     2
 73
     0
 90
        0
 40
-0.6
 41
-30.0
 62
     5
 63
     7
 74
     1
 91
        0
 64
     7
 65
   257
 75
     1
175
     1
 42
1.0
 92
        8
 66
     8
 43
1.0
 76
     1
 77
     6
 78
     2
 67
     7
 79
     5
170
     0
171
     0
290
     0
174
     0
 93
       13
 44
0.0
173
     0
291
     0
 45
0.0
1001
ACAD
1000
AcDbSavedByObjectVersion
1070
     0
  0
VISUALSTYLE
  5
37
102
{ACAD_REACTORS
330
2A
102
}
330
2A
100
AcDbVisualStyle
  2
Thicken
 70
    13
 71
     2
 72
     2
 73
     0
 90
        0
 40
-0.6
 41
-30.0
 62
     5
 63
     7
 74
     1
 91
        4
 64
     7
 65
   257
 75
     1
175
     1
 42
1.0
 92
       12
 66
     7
 43
1.0
 76
     1
 77
     6
 78
     2
 67
     7
 79
     5
170
     0
171
     0
290
     0
174
     0
 93
        1
 44
0.0
173
     0
291
     1
 45
0.0
1001
ACAD
1000
AcDbSavedByObjectVersion
1070
     0
  0
DICTIONARYVAR
  5
2E6
102
{ACAD_REACTORS
330
2E5
102
}
330
2E5
100
DictionaryVariables
280
     0
  1
1:1
  0
XRECORD
  5
2E4
102
{ACAD_REACTORS
330
2E3
102
}
330
2E3
100
AcDbXrecord
280
     1
1000
Ten plik DWG został utworzony w programie ArchiCAD(TM)®
  0
ENDSEC
  0
EOF
