  0
SECTION
  2
HEADER
  9
$ACADVER
  1
AC1015
  9
$ACADMAINTVER
 70
     6
  9
$DWGCODEPAGE
  3
ANSI_1250
  9
$INSBASE
 10
0.0
 20
0.0
 30
0.0
  9
$EXTMIN
 10
1.000000000000000E+20
 20
1.000000000000000E+20
 30
1.000000000000000E+20
  9
$EXTMAX
 10
-1.000000000000000E+20
 20
-1.000000000000000E+20
 30
-1.000000000000000E+20
  9
$LIMMIN
 10
0.0
 20
0.0
  9
$LIMMAX
 10
12.0
 20
9.0
  9
$ORTHOMODE
 70
     0
  9
$REGENMODE
 70
     1
  9
$FILLMODE
 70
     1
  9
$QTEXTMODE
 70
     0
  9
$MIRRTEXT
 70
     1
  9
$LTSCALE
 40
1.0
  9
$ATTMODE
 70
     1
  9
$TEXTSIZE
 40
0.2
  9
$TRACEWID
 40
0.05
  9
$TEXTSTYLE
  7
Standard
  9
$CLAYER
  8
0
  9
$CELTYPE
  6
ByLayer
  9
$CECOLOR
 62
   256
  9
$CELTSCALE
 40
1.0
  9
$DISPSILH
 70
     0
  9
$DIMSCALE
 40
1.0
  9
$DIMASZ
 40
0.18
  9
$DIMEXO
 40
0.0625
  9
$DIMDLI
 40
0.38
  9
$DIMRND
 40
0.0
  9
$DIMDLE
 40
0.0
  9
$DIMEXE
 40
0.18
  9
$DIMTP
 40
0.0
  9
$DIMTM
 40
0.0
  9
$DIMTXT
 40
0.18
  9
$DIMCEN
 40
0.09
  9
$DIMTSZ
 40
0.0
  9
$DIMTOL
 70
     0
  9
$DIMLIM
 70
     0
  9
$DIMTIH
 70
     1
  9
$DIMTOH
 70
     1
  9
$DIMSE1
 70
     0
  9
$DIMSE2
 70
     0
  9
$DIMTAD
 70
     0
  9
$DIMZIN
 70
     0
  9
$DIMBLK
  1

  9
$DIMASO
 70
     1
  9
$DIMSHO
 70
     1
  9
$DIMPOST
  1

  9
$DIMAPOST
  1

  9
$DIMALT
 70
     0
  9
$DIMALTD
 70
     2
  9
$DIMALTF
 40
25.4
  9
$DIMLFAC
 40
1.0
  9
$DIMTOFL
 70
     0
  9
$DIMTVP
 40
0.0
  9
$DIMTIX
 70
     0
  9
$DIMSOXD
 70
     0
  9
$DIMSAH
 70
     0
  9
$DIMBLK1
  1

  9
$DIMBLK2
  1

  9
$DIMSTYLE
  2
Standard
  9
$DIMCLRD
 70
     0
  9
$DIMCLRE
 70
     0
  9
$DIMCLRT
 70
     0
  9
$DIMTFAC
 40
1.0
  9
$DIMGAP
 40
0.09
  9
$DIMJUST
 70
     0
  9
$DIMSD1
 70
     0
  9
$DIMSD2
 70
     0
  9
$DIMTOLJ
 70
     1
  9
$DIMTZIN
 70
     0
  9
$DIMALTZ
 70
     0
  9
$DIMALTTZ
 70
     0
  9
$DIMUPT
 70
     0
  9
$DIMDEC
 70
     4
  9
$DIMTDEC
 70
     4
  9
$DIMALTU
 70
     2
  9
$DIMALTTD
 70
     2
  9
$DIMTXSTY
  7
Standard
  9
$DIMAUNIT
 70
     0
  9
$DIMADEC
 70
     0
  9
$DIMALTRND
 40
0.0
  9
$DIMAZIN
 70
     0
  9
$DIMDSEP
 70
    46
  9
$DIMATFIT
 70
     3
  9
$DIMFRAC
 70
     0
  9
$DIMLDRBLK
  1

  9
$DIMLUNIT
 70
     2
  9
$DIMLWD
 70
    -2
  9
$DIMLWE
 70
    -2
  9
$DIMTMOVE
 70
     0
  9
$LUNITS
 70
     2
  9
$LUPREC
 70
     4
  9
$SKETCHINC
 40
0.1
  9
$FILLETRAD
 40
0.5
  9
$AUNITS
 70
     0
  9
$AUPREC
 70
     0
  9
$MENU
  1
.
  9
$ELEVATION
 40
0.0
  9
$PELEVATION
 40
0.0
  9
$THICKNESS
 40
0.0
  9
$LIMCHECK
 70
     0
  9
$CHAMFERA
 40
0.5
  9
$CHAMFERB
 40
0.5
  9
$CHAMFERC
 40
1.0
  9
$CHAMFERD
 40
0.0
  9
$SKPOLY
 70
     0
  9
$TDCREATE
 40
2458996.587994896
  9
$TDUCREATE
 40
2458996.504661562
  9
$TDUPDATE
 40
2458996.587994908
  9
$TDUUPDATE
 40
2458996.504661574
  9
$TDINDWG
 40
0.0000000116
  9
$TDUSRTIMER
 40
0.0000000116
  9
$USRTIMER
 70
     1
  9
$ANGBASE
 50
0.0
  9
$ANGDIR
 70
     0
  9
$PDMODE
 70
     0
  9
$PDSIZE
 40
0.0
  9
$PLINEWID
 40
0.0
  9
$SPLFRAME
 70
     0
  9
$SPLINETYPE
 70
     6
  9
$SPLINESEGS
 70
     8
  9
$HANDSEED
  5
41B
  9
$SURFTAB1
 70
     6
  9
$SURFTAB2
 70
     6
  9
$SURFTYPE
 70
     6
  9
$SURFU
 70
     6
  9
$SURFV
 70
     6
  9
$UCSBASE
  2

  9
$UCSNAME
  2

  9
$UCSORG
 10
0.0
 20
0.0
 30
0.0
  9
$UCSXDIR
 10
1.0
 20
0.0
 30
0.0
  9
$UCSYDIR
 10
0.0
 20
1.0
 30
0.0
  9
$UCSORTHOREF
  2

  9
$UCSORTHOVIEW
 70
     0
  9
$UCSORGTOP
 10
0.0
 20
0.0
 30
0.0
  9
$UCSORGBOTTOM
 10
0.0
 20
0.0
 30
0.0
  9
$UCSORGLEFT
 10
0.0
 20
0.0
 30
0.0
  9
$UCSORGRIGHT
 10
0.0
 20
0.0
 30
0.0
  9
$UCSORGFRONT
 10
0.0
 20
0.0
 30
0.0
  9
$UCSORGBACK
 10
0.0
 20
0.0
 30
0.0
  9
$PUCSBASE
  2

  9
$PUCSNAME
  2

  9
$PUCSORG
 10
0.0
 20
0.0
 30
0.0
  9
$PUCSXDIR
 10
1.0
 20
0.0
 30
0.0
  9
$PUCSYDIR
 10
0.0
 20
1.0
 30
0.0
  9
$PUCSORTHOREF
  2

  9
$PUCSORTHOVIEW
 70
     0
  9
$PUCSORGTOP
 10
0.0
 20
0.0
 30
0.0
  9
$PUCSORGBOTTOM
 10
0.0
 20
0.0
 30
0.0
  9
$PUCSORGLEFT
 10
0.0
 20
0.0
 30
0.0
  9
$PUCSORGRIGHT
 10
0.0
 20
0.0
 30
0.0
  9
$PUCSORGFRONT
 10
0.0
 20
0.0
 30
0.0
  9
$PUCSORGBACK
 10
0.0
 20
0.0
 30
0.0
  9
$USERI1
 70
     0
  9
$USERI2
 70
     0
  9
$USERI3
 70
     0
  9
$USERI4
 70
     0
  9
$USERI5
 70
     0
  9
$USERR1
 40
0.0
  9
$USERR2
 40
0.0
  9
$USERR3
 40
0.0
  9
$USERR4
 40
0.0
  9
$USERR5
 40
0.0
  9
$WORLDVIEW
 70
     1
  9
$SHADEDGE
 70
     3
  9
$SHADEDIF
 70
    70
  9
$TILEMODE
 70
     1
  9
$MAXACTVP
 70
    64
  9
$PINSBASE
 10
0.0
 20
0.0
 30
0.0
  9
$PLIMCHECK
 70
     0
  9
$PEXTMIN
 10
1.000000000000000E+20
 20
1.000000000000000E+20
 30
1.000000000000000E+20
  9
$PEXTMAX
 10
-1.000000000000000E+20
 20
-1.000000000000000E+20
 30
-1.000000000000000E+20
  9
$PLIMMIN
 10
0.0
 20
0.0
  9
$PLIMMAX
 10
12.0
 20
9.0
  9
$UNITMODE
 70
     0
  9
$VISRETAIN
 70
     1
  9
$PLINEGEN
 70
     0
  9
$PSLTSCALE
 70
     1
  9
$TREEDEPTH
 70
  3020
  9
$CMLSTYLE
  2
Standard
  9
$CMLJUST
 70
     0
  9
$CMLSCALE
 40
1.0
  9
$PROXYGRAPHICS
 70
     1
  9
$MEASUREMENT
 70
     0
  9
$CELWEIGHT
370
    -1
  9
$ENDCAPS
280
     0
  9
$JOINSTYLE
280
     0
  9
$LWDISPLAY
290
     1
  9
$INSUNITS
 70
     0
  9
$HYPERLINKBASE
  1

  9
$STYLESHEET
  1

  9
$XEDIT
290
     1
  9
$CEPSNTYPE
380
     0
  9
$PSTYLEMODE
290
     1
  9
$FINGERPRINTGUID
  2
{5A4AD2FD-5B00-4796-9D14-9930B319215E}
  9
$VERSIONGUID
  2
{FAEB1C32-E019-11D5-929B-00C0DF256EC4}
  9
$EXTNAMES
290
     1
  9
$PSVPSCALE
 40
0.0
  9
$OLESTARTUP
290
     0
  0
ENDSEC
  0
SECTION
  2
CLASSES
  0
CLASS
  1
ACDBDICTIONARYWDFLT
  2
AcDbDictionaryWithDefault
  3
ObjectDBX Classes
 90
        0
280
     0
281
     0
  0
CLASS
  1
VISUALSTYLE
  2
AcDbVisualStyle
  3
ObjectDBX Classes
 90
     4095
280
     0
281
     0
  0
CLASS
  1
SCALE
  2
AcDbScale
  3
ObjectDBX Classes
 90
     1153
280
     0
281
     0
  0
CLASS
  1
WIPEOUT
  2
AcDbWipeout
  3
WipeOut|AutoCAD Express Tool|expresstools@autodesk.com
 90
      127
280
     0
281
     1
  0
CLASS
  1
DICTIONARYVAR
  2
AcDbDictionaryVar
  3
ObjectDBX Classes
 90
        0
280
     0
281
     0
  0
CLASS
  1
ACDBPLACEHOLDER
  2
AcDbPlaceHolder
  3
ObjectDBX Classes
 90
        0
280
     0
281
     0
  0
CLASS
  1
LAYOUT
  2
AcDbLayout
  3
ObjectDBX Classes
 90
        0
280
     0
281
     0
  0
ENDSEC
  0
SECTION
  2
TABLES
  0
TABLE
  2
VPORT
  5
8
330
0
100
AcDbSymbolTable
 70
     1
  0
VPORT
  5
29
330
8
100
AcDbSymbolTableRecord
100
AcDbViewportTableRecord
  2
*Active
 70
     0
 10
0.0
 20
0.0
 11
1.0
 21
1.0
 12
0.0
 22
0.0
 13
0.0
 23
0.0
 14
0.5
 24
0.5
 15
0.5
 25
0.5
 16
0.0
 26
0.0
 36
1.0
 17
-854.8494766023479
 27
1435.000000000002
 37
0.0
 40
3029.4
 41
0.9058252682814918
 42
50.0
 43
0.0
 44
0.0
 50
0.0
 51
0.0
 71
     0
 72
   100
 73
     1
 74
     3
 75
     0
 76
     0
 77
     0
 78
     0
281
     0
 65
     1
110
0.0
120
0.0
130
0.0
111
1.0
121
0.0
131
0.0
112
0.0
122
1.0
132
0.0
 79
     0
146
0.0
  0
ENDTAB
  0
TABLE
  2
LTYPE
  5
5
330
0
100
AcDbSymbolTable
 70
     5
  0
LTYPE
  5
14
330
5
100
AcDbSymbolTableRecord
100
AcDbLinetypeTableRecord
  2
ByBlock
 70
     0
  3

 72
    65
 73
     0
 40
0.0
  0
LTYPE
  5
15
330
5
100
AcDbSymbolTableRecord
100
AcDbLinetypeTableRecord
  2
ByLayer
 70
     0
  3

 72
    65
 73
     0
 40
0.0
  0
LTYPE
  5
16
330
5
100
AcDbSymbolTableRecord
100
AcDbLinetypeTableRecord
  2
Continuous
 70
     0
  3
Solid line
 72
    65
 73
     0
 40
0.0
  0
LTYPE
  5
5E
330
5
100
AcDbSymbolTableRecord
100
AcDbLinetypeTableRecord
  2
Wipeout_Contour
 70
     0
  3
- - - - - 
 72
    65
 73
     2
 40
1000.0
 49
0.0
 74
     0
 49
-1000.0
 74
     0
  0
LTYPE
  5
71
330
5
100
AcDbSymbolTableRecord
100
AcDbLinetypeTableRecord
  2
@ --- gęsto_burzenie
 70
     0
  3
- - - - - 
 72
    65
 73
     2
 40
10.0
 49
5.0
 74
     0
 49
-5.0
 74
     0
  0
LTYPE
  5
32A
330
5
100
AcDbSymbolTableRecord
100
AcDbLinetypeTableRecord
  2
Przerywana gęsta
 70
     0
  3
- - - - - 
 72
    65
 73
     2
 40
30.0
 49
20.0
 74
     0
 49
-10.0
 74
     0
  0
LTYPE
  5
3CF
330
5
100
AcDbSymbolTableRecord
100
AcDbLinetypeTableRecord
  2
Kropki i Kreski
 70
     0
  3
- - - - - 
 72
    65
 73
     4
 40
67.02777624130249
 49
35.27777671813965
 74
     0
 49
-17.63888835906982
 74
     0
 49
0.0
 74
     0
 49
-14.11111116409302
 74
     0
  0
ENDTAB
  0
TABLE
  2
LAYER
  5
2
330
0
100
AcDbSymbolTable
 70
     3
  0
LAYER
  5
10
330
2
100
AcDbSymbolTableRecord
100
AcDbLayerTableRecord
  2
0
 70
     0
 62
     7
  6
Continuous
370
    -3
390
F
  0
LAYER
  5
5F
330
2
100
AcDbSymbolTableRecord
100
AcDbLayerTableRecord
  2
@__WIDOCZNE
 70
     0
 62
     7
  6
Continuous
370
    -3
390
F
  0
LAYER
  5
263
330
2
100
AcDbSymbolTableRecord
100
AcDbLayerTableRecord
  2
2D - Ogólne
 70
     0
 62
     7
  6
Continuous
370
    -3
390
F
  0
ENDTAB
  0
TABLE
  2
STYLE
  5
3
330
0
100
AcDbSymbolTable
 70
     4
  0
STYLE
  5
11
330
3
100
AcDbSymbolTableRecord
100
AcDbTextStyleTableRecord
  2
Standard
 70
     0
 40
0.0
 41
1.0
 50
0.0
 71
     0
 42
0.2
  3
txt
  4
BIGFONT.SHX
  0
STYLE
  5
30A
330
3
100
AcDbSymbolTableRecord
100
AcDbTextStyleTableRecord
  2
GENERATED_STYLE_1
 70
     0
 40
0.0
 41
1.0
 50
0.0
 71
     0
 42
0.2
  3

  4

1001
ACAD
1000
Arial
1071
    60966
  0
STYLE
  5
35A
330
3
100
AcDbSymbolTableRecord
100
AcDbTextStyleTableRecord
  2
GENERATED_STYLE_2
 70
     0
 40
0.0
 41
1.0
 50
0.0
 71
     0
 42
0.2
  3

  4

1001
ACAD
1000
Arial
1071
 33615398
  0
STYLE
  5
366
330
3
100
AcDbSymbolTableRecord
100
AcDbTextStyleTableRecord
  2
GENERATED_STYLE_3
 70
     0
 40
0.0
 41
1.0
 50
0.0
 71
     0
 42
0.2
  3

  4

1001
ACAD
1000
Arial
1071
    41254
  0
ENDTAB
  0
TABLE
  2
VIEW
  5
6
330
0
100
AcDbSymbolTable
 70
     0
  0
ENDTAB
  0
TABLE
  2
UCS
  5
7
330
0
100
AcDbSymbolTable
 70
     0
  0
ENDTAB
  0
TABLE
  2
APPID
  5
9
330
0
100
AcDbSymbolTable
 70
     1
  0
APPID
  5
12
330
9
100
AcDbSymbolTableRecord
100
AcDbRegAppTableRecord
  2
ACAD
 70
     0
  0
ENDTAB
  0
TABLE
  2
DIMSTYLE
  5
A
330
0
100
AcDbSymbolTable
 70
     1
100
AcDbDimStyleTable
  0
DIMSTYLE
105
27
330
A
100
AcDbSymbolTableRecord
100
AcDbDimStyleTableRecord
  2
Standard
 70
     0
340
11
  0
ENDTAB
  0
TABLE
  2
BLOCK_RECORD
  5
1
330
0
100
AcDbSymbolTable
 70
    11
  0
BLOCK_RECORD
  5
1F
330
1
100
AcDbSymbolTableRecord
100
AcDbBlockTableRecord
  2
*Model_Space
340
22
  0
BLOCK_RECORD
  5
1B
330
1
100
AcDbSymbolTableRecord
100
AcDbBlockTableRecord
  2
*Paper_Space
340
1E
  0
BLOCK_RECORD
  5
23
330
1
100
AcDbSymbolTableRecord
100
AcDbBlockTableRecord
  2
*Paper_Space0
340
26
  0
BLOCK_RECORD
  5
7D
330
1
100
AcDbSymbolTableRecord
100
AcDbBlockTableRecord
  2
*X1
340
0
102
{BLKREFS
331
C1
102
}
  0
BLOCK_RECORD
  5
E3
330
1
100
AcDbSymbolTableRecord
100
AcDbBlockTableRecord
  2
*X2
340
0
102
{BLKREFS
331
24B
102
}
  0
BLOCK_RECORD
  5
25F
330
1
100
AcDbSymbolTableRecord
100
AcDbBlockTableRecord
  2
*X3
340
0
102
{BLKREFS
331
296
102
}
  0
BLOCK_RECORD
  5
29F
330
1
100
AcDbSymbolTableRecord
100
AcDbBlockTableRecord
  2
Izolacja cieplna 12_62
340
0
102
{BLKREFS
331
2D3
102
}
  0
BLOCK_RECORD
  5
2D4
330
1
100
AcDbSymbolTableRecord
100
AcDbBlockTableRecord
  2
Izolacja cieplna 12_60
340
0
102
{BLKREFS
331
304
102
}
  0
BLOCK_RECORD
  5
305
330
1
100
AcDbSymbolTableRecord
100
AcDbBlockTableRecord
  2
Symbol nachylenia 12_67
340
0
102
{BLKREFS
331
30C
102
}
  0
BLOCK_RECORD
  5
30F
330
1
100
AcDbSymbolTableRecord
100
AcDbBlockTableRecord
  2
Izolacja cieplna 12_104
340
0
102
{BLKREFS
331
31F
102
}
  0
BLOCK_RECORD
  5
378
330
1
100
AcDbSymbolTableRecord
100
AcDbBlockTableRecord
  2
*X8
340
0
102
{BLKREFS
331
389
102
}
  0
BLOCK_RECORD
  5
38E
330
1
100
AcDbSymbolTableRecord
100
AcDbBlockTableRecord
  2
*X9
340
0
102
{BLKREFS
331
3B8
102
}
  0
BLOCK_RECORD
  5
412
330
1
100
AcDbSymbolTableRecord
100
AcDbBlockTableRecord
  2
Bez nazwy_STORY_MARKER
340
0
  0
ENDTAB
  0
ENDSEC
  0
SECTION
  2
BLOCKS
  0
BLOCK
  5
20
330
1F
100
AcDbEntity
  8
0
100
AcDbBlockBegin
  2
*Model_Space
 70
     0
 10
0.0
 20
0.0
 30
0.0
  3
*Model_Space
  1

  0
ENDBLK
  5
21
330
1F
100
AcDbEntity
  8
0
100
AcDbBlockEnd
  0
BLOCK
  5
1C
330
1B
100
AcDbEntity
 67
     1
  8
0
100
AcDbBlockBegin
  2
*Paper_Space
 70
     0
 10
0.0
 20
0.0
 30
0.0
  3
*Paper_Space
  1

  0
ENDBLK
  5
1D
330
1B
100
AcDbEntity
 67
     1
  8
0
100
AcDbBlockEnd
  0
BLOCK
  5
24
330
23
100
AcDbEntity
  8
0
100
AcDbBlockBegin
  2
*Paper_Space0
 70
     0
 10
0.0
 20
0.0
 30
0.0
  3
*Paper_Space0
  1

  0
ENDBLK
  5
25
330
23
100
AcDbEntity
  8
0
100
AcDbBlockEnd
  0
BLOCK
  5
7E
330
7D
100
AcDbEntity
  8
0
100
AcDbBlockBegin
  2
*X1
 70
     1
 10
0.0
 20
0.0
 30
0.0
  3
*X1
  1

  0
LINE
  5
80
330
7D
100
AcDbEntity
  8
@__WIDOCZNE
  6
Continuous
370
    13
100
AcDbLine
 10
-1163.450994188309
 20
1585.125179758693
 30
0.0
 11
-1163.088886734454
 21
1585.680753328215
 31
0.0
  0
LINE
  5
81
330
7D
100
AcDbEntity
  8
@__WIDOCZNE
  6
Continuous
370
    13
100
AcDbLine
 10
-1163.088886734454
 20
1585.680753328215
 30
0.0
 11
-1161.871912758722
 21
1587.538622995638
 31
0.0
  0
LINE
  5
82
330
7D
100
AcDbEntity
  8
@__WIDOCZNE
  6
Continuous
370
    13
100
AcDbLine
 10
-1161.871912758722
 20
1587.538622995638
 30
0.0
 11
-1160.650690896229
 21
1589.393703188328
 31
0.0
  0
LINE
  5
83
330
7D
100
AcDbEntity
  8
@__WIDOCZNE
  6
Continuous
370
    13
100
AcDbLine
 10
-1188.450847353306
 20
1614.668004405634
 30
0.0
 11
-1186.745788388877
 21
1617.443621332753
 31
0.0
  0
LINE
  5
84
330
7D
100
AcDbEntity
  8
@__WIDOCZNE
  6
Continuous
370
    13
100
AcDbLine
 10
-1150.885928543363
 20
1585.125179758693
 30
0.0
 11
-1147.082518698022
 21
1591.112928431175
 31
0.0
  0
LINE
  5
85
330
7D
100
AcDbEntity
  8
@__WIDOCZNE
  6
Continuous
370
    13
100
AcDbLine
 10
-1186.745788388877
 20
1617.443621332753
 30
0.0
 11
-1181.566702202928
 21
1625.597111936081
 31
0.0
  0
LINE
  5
86
330
7D
100
AcDbEntity
  8
@__WIDOCZNE
  6
Continuous
370
    13
100
AcDbLine
 10
-1147.082518698022
 20
1591.112928431175
 30
0.0
 11
-1141.781456303987
 21
1599.187647016649
 31
0.0
  0
LINE
  5
87
330
7D
100
AcDbEntity
  8
@__WIDOCZNE
  6
Continuous
370
    13
100
AcDbLine
 10
-1181.566702202928
 20
1625.597111936081
 30
0.0
 11
-1176.265639808893
 21
1633.671830521555
 31
0.0
  0
LINE
  5
88
330
7D
100
AcDbEntity
  8
@__WIDOCZNE
  6
Continuous
370
    13
100
AcDbLine
 10
-1141.781456303987
 20
1599.187647016649
 30
0.0
 11
-1136.359615565649
 21
1607.181768966441
 31
0.0
  0
LINE
  5
89
330
7D
100
AcDbEntity
  8
@__WIDOCZNE
  6
Continuous
370
    13
100
AcDbLine
 10
-1176.265639808893
 20
1633.671830521555
 30
0.0
 11
-1170.843799070555
 21
1641.665952471347
 31
0.0
  0
LINE
  5
8A
330
7D
100
AcDbEntity
  8
@__WIDOCZNE
  6
Continuous
370
    13
100
AcDbLine
 10
-1136.359615565649
 20
1607.181768966441
 30
0.0
 11
-1130.81822163868
 21
1615.093487874883
 31
0.0
  0
LINE
  5
8B
330
7D
100
AcDbEntity
  8
@__WIDOCZNE
  6
Continuous
370
    13
100
AcDbLine
 10
-1170.843799070555
 20
1641.665952471347
 30
0.0
 11
-1165.302405143585
 21
1649.577671379788
 31
0.0
  0
LINE
  5
8C
330
7D
100
AcDbEntity
  8
@__WIDOCZNE
  6
Continuous
370
    13
100
AcDbLine
 10
-1093.068833992409
 20
1585.125179758693
 30
0.0
 11
-1090.674343188889
 21
1588.436832451746
 31
0.0
  0
LINE
  5
8D
330
7D
100
AcDbEntity
  8
@__WIDOCZNE
  6
Continuous
370
    13
100
AcDbLine
 10
-1130.81822163868
 20
1615.093487874883
 30
0.0
 11
-1125.158526693794
 21
1622.921015956651
 31
0.0
  0
LINE
  5
8E
330
7D
100
AcDbEntity
  8
@__WIDOCZNE
  6
Continuous
370
    13
100
AcDbLine
 10
-1165.302405143585
 20
1649.577671379788
 30
0.0
 11
-1164.906529210556
 21
1650.125179684187
 31
0.0
  0
LINE
  5
8F
330
7D
100
AcDbEntity
  8
@__WIDOCZNE
  6
Continuous
370
    13
100
AcDbLine
 10
-1090.674343188889
 20
1588.436832451746
 30
0.0
 11
-1088.450847353306
 21
1591.416612338619
 31
0.0
  0
LINE
  5
90
330
7D
100
AcDbEntity
  8
@__WIDOCZNE
  6
Continuous
370
    13
100
AcDbLine
 10
-1125.158526693794
 20
1622.921015956651
 30
0.0
 11
-1119.381809633804
 21
1630.662584450753
 31
0.0
  0
LINE
  5
91
330
7D
100
AcDbEntity
  8
@__WIDOCZNE
  6
Continuous
370
    13
100
AcDbLine
 10
-1188.450847353306
 20
1597.120031199612
 30
0.0
 11
-1180.056942074499
 21
1610.58205960766
 31
0.0
  0
LINE
  5
92
330
7D
100
AcDbEntity
  8
@__WIDOCZNE
  6
Continuous
370
    13
100
AcDbLine
 10
-1139.643955325384
 20
1585.125179758693
 30
0.0
 11
-1135.072748339719
 21
1592.085382658672
 31
0.0
  0
LINE
  5
93
330
7D
100
AcDbEntity
  8
@__WIDOCZNE
  6
Continuous
370
    13
100
AcDbLine
 10
-1180.056942074499
 20
1610.58205960766
 30
0.0
 11
-1169.556931844625
 21
1626.569566163578
 31
0.0
  0
LINE
  5
94
330
7D
100
AcDbEntity
  8
@__WIDOCZNE
  6
Continuous
370
    13
100
AcDbLine
 10
-1135.072748339719
 20
1592.085382658672
 30
0.0
 11
-1124.198745111553
 21
1607.820904083044
 31
0.0
  0
LINE
  5
95
330
7D
100
AcDbEntity
  8
@__WIDOCZNE
  6
Continuous
370
    13
100
AcDbLine
 10
-1169.556931844625
 20
1626.569566163578
 30
0.0
 11
-1158.682928616458
 21
1642.305087587949
 31
0.0
  0
LINE
  5
96
330
7D
100
AcDbEntity
  8
@__WIDOCZNE
  6
Continuous
370
    13
100
AcDbLine
 10
-1124.198745111553
 20
1607.820904083044
 30
0.0
 11
-1112.95679347395
 21
1623.295693389551
 31
0.0
  0
LINE
  5
97
330
7D
100
AcDbEntity
  8
@__WIDOCZNE
  6
Continuous
370
    13
100
AcDbLine
 10
-1158.682928616458
 20
1642.305087587949
 30
0.0
 11
-1153.001875685384
 21
1650.125179684187
 31
0.0
  0
LINE
  5
98
330
7D
100
AcDbEntity
  8
@__WIDOCZNE
  6
Continuous
370
    13
100
AcDbLine
 10
-1112.95679347395
 20
1623.295693389551
 30
0.0
 11
-1101.353142549167
 21
1638.501148526402
 31
0.0
  0
LINE
  5
99
330
7D
100
AcDbEntity
  8
@__WIDOCZNE
  6
Continuous
370
    13
100
AcDbLine
 10
-1101.353142549167
 20
1638.501148526402
 30
0.0
 11
-1092.040862782462
 21
1650.125179684187
 31
0.0
  0
LINE
  5
9A
330
7D
100
AcDbEntity
  8
@__WIDOCZNE
  6
Continuous
370
    13
100
AcDbLine
 10
-1182.191765825416
 20
1586.36609819355
 30
0.0
 11
-1173.081170186446
 21
1599.199086008511
 31
0.0
  0
LINE
  5
9B
330
7D
100
AcDbEntity
  8
@__WIDOCZNE
  6
Continuous
370
    13
100
AcDbLine
 10
-1173.081170186446
 20
1599.199086008511
 30
0.0
 11
-1163.966026100582
 21
1612.02884350621
 31
0.0
  0
LINE
  5
9C
330
7D
100
AcDbEntity
  8
@__WIDOCZNE
  6
Continuous
370
    13
100
AcDbLine
 10
-1124.092074308444
 20
1585.125179758693
 30
0.0
 11
-1120.362151208282
 21
1590.371185569612
 31
0.0
  0
LINE
  5
9D
330
7D
100
AcDbEntity
  8
@__WIDOCZNE
  6
Continuous
370
    13
100
AcDbLine
 10
-1163.966026100582
 20
1612.02884350621
 30
0.0
 11
-1154.846334713187
 21
1624.855369074518
 31
0.0
  0
LINE
  5
9E
330
7D
100
AcDbEntity
  8
@__WIDOCZNE
  6
Continuous
370
    13
100
AcDbLine
 10
-1120.362151208282
 20
1590.371185569612
 30
0.0
 11
-1111.237913665308
 21
1603.194477596811
 31
0.0
  0
LINE
  5
9F
330
7D
100
AcDbEntity
  8
@__WIDOCZNE
  6
Continuous
370
    13
100
AcDbLine
 10
-1154.846334713187
 20
1624.855369074518
 30
0.0
 11
-1145.722097170213
 21
1637.678661101717
 31
0.0
  0
LINE
  5
A0
330
7D
100
AcDbEntity
  8
@__WIDOCZNE
  6
Continuous
370
    13
100
AcDbLine
 10
-1111.237913665308
 20
1603.194477596811
 30
0.0
 11
-1102.109131113245
 21
1616.014534471593
 31
0.0
  0
LINE
  5
A1
330
7D
100
AcDbEntity
  8
@__WIDOCZNE
  6
Continuous
370
    13
100
AcDbLine
 10
-1145.722097170213
 20
1637.678661101717
 30
0.0
 11
-1136.859300165539
 21
1650.125179684187
 31
0.0
  0
LINE
  5
A2
330
7D
100
AcDbEntity
  8
@__WIDOCZNE
  6
Continuous
370
    13
100
AcDbLine
 10
-1102.109131113245
 20
1616.014534471593
 30
0.0
 11
-1092.975804699176
 21
1628.831354583065
 31
0.0
  0
LINE
  5
A3
330
7D
100
AcDbEntity
  8
@__WIDOCZNE
  6
Continuous
370
    13
100
AcDbLine
 10
-1092.975804699176
 20
1628.831354583065
 30
0.0
 11
-1088.450847353306
 21
1635.1764783746
 31
0.0
  0
LINE
  5
A4
330
7D
100
AcDbEntity
  8
@__WIDOCZNE
  6
Continuous
370
    13
100
AcDbLine
 10
-1171.570717298122
 20
1585.125179758693
 30
0.0
 11
-1166.961270747882
 21
1592.243015551534
 31
0.0
  0
LINE
  5
A5
330
7D
100
AcDbEntity
  8
@__WIDOCZNE
  6
Continuous
370
    13
100
AcDbLine
 10
-1166.961270747882
 20
1592.243015551534
 30
0.0
 11
-1158.529988888247
 21
1604.965686077327
 31
0.0
  0
LINE
  5
A6
330
7D
100
AcDbEntity
  8
@__WIDOCZNE
  6
Continuous
370
    13
100
AcDbLine
 10
-1158.529988888247
 20
1604.965686077327
 30
0.0
 11
-1149.964704367199
 21
1617.598530577993
 31
0.0
  0
LINE
  5
A7
330
7D
100
AcDbEntity
  8
@__WIDOCZNE
  6
Continuous
370
    13
100
AcDbLine
 10
-1188.450847353306
 20
1646.180267795241
 30
0.0
 11
-1185.776129657106
 21
1650.125179684187
 31
0.0
  0
LINE
  5
A8
330
7D
100
AcDbEntity
  8
@__WIDOCZNE
  6
Continuous
370
    13
100
AcDbLine
 10
-1114.085892037803
 20
1585.125179758693
 30
0.0
 11
-1106.782190591019
 21
1595.655954210783
 31
0.0
  0
LINE
  5
A9
330
7D
100
AcDbEntity
  8
@__WIDOCZNE
  6
Continuous
370
    13
100
AcDbLine
 10
-1149.964704367199
 20
1617.598530577993
 30
0.0
 11
-1141.266374095924
 21
1630.140137715689
 31
0.0
  0
LINE
  5
AA
330
7D
100
AcDbEntity
  8
@__WIDOCZNE
  6
Continuous
370
    13
100
AcDbLine
 10
-1106.782190591019
 20
1595.655954210783
 30
0.0
 11
-1097.951786344532
 21
1608.104922840678
 31
0.0
  0
LINE
  5
AB
330
7D
100
AcDbEntity
  8
@__WIDOCZNE
  6
Continuous
370
    13
100
AcDbLine
 10
-1141.266374095924
 20
1630.140137715689
 30
0.0
 11
-1132.435969849438
 21
1642.589106345584
 31
0.0
  0
LINE
  5
AC
330
7D
100
AcDbEntity
  8
@__WIDOCZNE
  6
Continuous
370
    13
100
AcDbLine
 10
-1097.951786344532
 20
1608.104922840678
 30
0.0
 11
-1088.990294653119
 21
1620.459862167491
 31
0.0
  0
LINE
  5
AD
330
7D
100
AcDbEntity
  8
@__WIDOCZNE
  6
Continuous
370
    13
100
AcDbLine
 10
-1132.435969849438
 20
1642.589106345584
 30
0.0
 11
-1126.96977881253
 21
1650.125179684187
 31
0.0
  0
LINE
  5
AE
330
7D
100
AcDbEntity
  8
@__WIDOCZNE
  6
Continuous
370
    13
100
AcDbLine
 10
-1088.990294653119
 20
1620.459862167491
 30
0.0
 11
-1088.450847353306
 21
1621.187279370535
 31
0.0
  0
LINE
  5
AF
330
7D
100
AcDbEntity
  8
@__WIDOCZNE
  6
Continuous
370
    13
100
AcDbLine
 10
-1160.650690896229
 20
1589.393703188328
 30
0.0
 11
-1153.294803107416
 21
1600.376370619106
 31
0.0
  0
LINE
  5
B0
330
7D
100
AcDbEntity
  8
@__WIDOCZNE
  6
Continuous
370
    13
100
AcDbLine
 10
-1188.450847353306
 20
1633.857436174163
 30
0.0
 11
-1187.778986612322
 21
1634.860554124011
 31
0.0
  0
LINE
  5
B1
330
7D
100
AcDbEntity
  8
@__WIDOCZNE
  6
Continuous
370
    13
100
AcDbLine
 10
-1153.294803107416
 20
1600.376370619106
 30
0.0
 11
-1145.790035831114
 21
1611.257847411583
 31
0.0
  0
LINE
  5
B2
330
7D
100
AcDbEntity
  8
@__WIDOCZNE
  6
Continuous
370
    13
100
AcDbLine
 10
-1187.778986612322
 20
1634.860554124011
 30
0.0
 11
-1180.274219336019
 21
1645.742030916488
 31
0.0
  0
LINE
  5
B3
330
7D
100
AcDbEntity
  8
@__WIDOCZNE
  6
Continuous
370
    13
100
AcDbLine
 10
-1105.376520461699
 20
1585.125179758693
 30
0.0
 11
-1103.65359737849
 21
1587.551932008362
 31
0.0
  0
LINE
  5
B4
330
7D
100
AcDbEntity
  8
@__WIDOCZNE
  6
Continuous
370
    13
100
AcDbLine
 10
-1145.790035831114
 20
1611.257847411583
 30
0.0
 11
-1138.137780883395
 21
1622.036115513268
 31
0.0
  0
LINE
  5
B5
330
7D
100
AcDbEntity
  8
@__WIDOCZNE
  6
Continuous
370
    13
100
AcDbLine
 10
-1180.274219336019
 20
1645.742030916488
 30
0.0
 11
-1177.162311975043
 21
1650.125179684187
 31
0.0
  0
LINE
  5
B6
330
7D
100
AcDbEntity
  8
@__WIDOCZNE
  6
Continuous
370
    13
100
AcDbLine
 10
-1103.65359737849
 20
1587.551932008362
 30
0.0
 11
-1095.855273928137
 21
1598.224992507598
 31
0.0
  0
LINE
  5
B7
330
7D
100
AcDbEntity
  8
@__WIDOCZNE
  6
Continuous
370
    13
100
AcDbLine
 10
-1138.137780883395
 20
1622.036115513268
 30
0.0
 11
-1130.339457433043
 21
1632.709176012504
 31
0.0
  0
LINE
  5
B8
330
7D
100
AcDbEntity
  8
@__WIDOCZNE
  6
Continuous
370
    13
100
AcDbLine
 10
-1095.855273928137
 20
1598.224992507598
 30
0.0
 11
-1088.450847353306
 21
1608.074516539647
 31
0.0
  0
LINE
  5
B9
330
7D
100
AcDbEntity
  8
@__WIDOCZNE
  6
Continuous
370
    13
100
AcDbLine
 10
-1130.339457433043
 20
1632.709176012504
 30
0.0
 11
-1122.396511738351
 21
1643.275049509184
 31
0.0
  0
LINE
  5
BA
330
7D
100
AcDbEntity
  8
@__WIDOCZNE
  6
Continuous
370
    13
100
AcDbLine
 10
-1122.396511738351
 20
1643.275049509184
 30
0.0
 11
-1117.099366413679
 21
1650.125179684187
 31
0.0
  0
LINE
  5
BB
330
7D
100
AcDbEntity
  8
@__WIDOCZNE
  6
Continuous
370
    13
100
AcDbLine
 10
-1119.381809633804
 20
1630.662584450753
 30
0.0
 11
-1115.855231021617
 21
1635.271906822113
 31
0.0
  0
LINE
  5
BC
330
7D
100
AcDbEntity
  8
@__WIDOCZNE
  6
Continuous
370
    13
100
AcDbLine
 10
-1115.855231021617
 20
1635.271906822113
 30
0.0
 11
-1112.287165761712
 21
1639.849189829763
 31
0.0
  0
LINE
  5
BD
330
7D
100
AcDbEntity
  8
@__WIDOCZNE
  6
Continuous
370
    13
100
AcDbLine
 10
-1112.287165761712
 20
1639.849189829763
 30
0.0
 11
-1108.677904919427
 21
1644.394060081311
 31
0.0
  0
LINE
  5
BE
330
7D
100
AcDbEntity
  8
@__WIDOCZNE
  6
Continuous
370
    13
100
AcDbLine
 10
-1108.677904919427
 20
1644.394060081311
 30
0.0
 11
-1105.027742920632
 21
1648.90614682844
 31
0.0
  0
LINE
  5
BF
330
7D
100
AcDbEntity
  8
@__WIDOCZNE
  6
Continuous
370
    13
100
AcDbLine
 10
-1105.027742920632
 20
1648.90614682844
 30
0.0
 11
-1104.023226421208
 21
1650.125179684187
 31
0.0
  0
LINE
  5
C0
330
7D
100
AcDbEntity
  8
@__WIDOCZNE
  6
Continuous
370
    13
100
AcDbLine
 10
-1182.191765825416
 20
1586.36609819355
 30
0.0
 11
-1182.699096911059
 21
1585.125179758693
 31
0.0
  0
ENDBLK
  5
7F
330
7D
100
AcDbEntity
  8
0
100
AcDbBlockEnd
  0
BLOCK
  5
E4
330
E3
100
AcDbEntity
  8
0
100
AcDbBlockBegin
  2
*X2
 70
     1
 10
0.0
 20
0.0
 30
0.0
  3
*X2
  1

  0
LINE
  5
E6
330
E3
100
AcDbEntity
  8
@__WIDOCZNE
  6
Continuous
370
    13
100
AcDbLine
 10
-1125.881455867858
 20
1692.246852267682
 30
0.0
 11
-1125.285779051691
 21
1693.184053137489
 31
0.0
  0
LINE
  5
E7
330
E3
100
AcDbEntity
  8
@__WIDOCZNE
  6
Continuous
370
    13
100
AcDbLine
 10
-1143.12354762031
 20
1709.488944020134
 30
0.0
 11
-1142.527870804144
 21
1710.426144889941
 31
0.0
  0
LINE
  5
E8
330
E3
100
AcDbEntity
  8
@__WIDOCZNE
  6
Continuous
370
    13
100
AcDbLine
 10
-1160.365639372763
 20
1726.731035772587
 30
0.0
 11
-1159.769962556597
 21
1727.668236642394
 31
0.0
  0
LINE
  5
E9
330
E3
100
AcDbEntity
  8
@__WIDOCZNE
  6
Continuous
370
    13
100
AcDbLine
 10
-1177.607731125216
 20
1743.97312752504
 30
0.0
 11
-1177.01205430905
 21
1744.910328394847
 31
0.0
  0
LINE
  5
EA
330
E3
100
AcDbEntity
  8
@__WIDOCZNE
  6
Continuous
370
    13
100
AcDbLine
 10
-1125.285779051691
 20
1693.184053137489
 30
0.0
 11
-1124.687959344733
 21
1694.119888559802
 31
0.0
  0
LINE
  5
EB
330
E3
100
AcDbEntity
  8
@__WIDOCZNE
  6
Continuous
370
    13
100
AcDbLine
 10
-1142.527870804144
 20
1710.426144889941
 30
0.0
 11
-1141.930051097185
 21
1711.361980312255
 31
0.0
  0
LINE
  5
EC
330
E3
100
AcDbEntity
  8
@__WIDOCZNE
  6
Continuous
370
    13
100
AcDbLine
 10
-1159.769962556597
 20
1727.668236642394
 30
0.0
 11
-1159.172142849638
 21
1728.604072064708
 31
0.0
  0
LINE
  5
ED
330
E3
100
AcDbEntity
  8
@__WIDOCZNE
  6
Continuous
370
    13
100
AcDbLine
 10
-1177.01205430905
 20
1744.910328394847
 30
0.0
 11
-1176.414234602091
 21
1745.84616381716
 31
0.0
  0
LINE
  5
EE
330
E3
100
AcDbEntity
  8
@__WIDOCZNE
  6
Continuous
370
    13
100
AcDbLine
 10
-1124.687959344733
 20
1694.119888559802
 30
0.0
 11
-1124.087999876931
 21
1695.054353634955
 31
0.0
  0
LINE
  5
EF
330
E3
100
AcDbEntity
  8
@__WIDOCZNE
  6
Continuous
370
    13
100
AcDbLine
 10
-1141.930051097185
 20
1711.361980312255
 30
0.0
 11
-1141.330091629384
 21
1712.296445387408
 31
0.0
  0
LINE
  5
F0
330
E3
100
AcDbEntity
  8
@__WIDOCZNE
  6
Continuous
370
    13
100
AcDbLine
 10
-1159.172142849638
 20
1728.604072064708
 30
0.0
 11
-1158.572183381837
 21
1729.53853713986
 31
0.0
  0
LINE
  5
F1
330
E3
100
AcDbEntity
  8
@__WIDOCZNE
  6
Continuous
370
    13
100
AcDbLine
 10
-1176.414234602091
 20
1745.84616381716
 30
0.0
 11
-1175.814275134289
 21
1746.780628892313
 31
0.0
  0
LINE
  5
F2
330
E3
100
AcDbEntity
  8
@__WIDOCZNE
  6
Continuous
370
    13
100
AcDbLine
 10
-1124.087999876931
 20
1695.054353634955
 30
0.0
 11
-1123.485903789439
 21
1695.987443470454
 31
0.0
  0
LINE
  5
F3
330
E3
100
AcDbEntity
  8
@__WIDOCZNE
  6
Continuous
370
    13
100
AcDbLine
 10
-1141.330091629384
 20
1712.296445387408
 30
0.0
 11
-1140.727995541892
 21
1713.229535222907
 31
0.0
  0
LINE
  5
F4
330
E3
100
AcDbEntity
  8
@__WIDOCZNE
  6
Continuous
370
    13
100
AcDbLine
 10
-1158.572183381837
 20
1729.53853713986
 30
0.0
 11
-1157.970087294344
 21
1730.471626975359
 31
0.0
  0
LINE
  5
F5
330
E3
100
AcDbEntity
  8
@__WIDOCZNE
  6
Continuous
370
    13
100
AcDbLine
 10
-1175.814275134289
 20
1746.780628892313
 30
0.0
 11
-1175.212179046797
 21
1747.713718727812
 31
0.0
  0
LINE
  5
F6
330
E3
100
AcDbEntity
  8
@__WIDOCZNE
  6
Continuous
370
    13
100
AcDbLine
 10
-1123.485903789439
 20
1695.987443470454
 30
0.0
 11
-1122.881674234595
 21
1696.919153181007
 31
0.0
  0
LINE
  5
F7
330
E3
100
AcDbEntity
  8
@__WIDOCZNE
  6
Continuous
370
    13
100
AcDbLine
 10
-1140.727995541892
 20
1713.229535222907
 30
0.0
 11
-1140.123765987048
 21
1714.16124493346
 31
0.0
  0
LINE
  5
F8
330
E3
100
AcDbEntity
  8
@__WIDOCZNE
  6
Continuous
370
    13
100
AcDbLine
 10
-1157.970087294344
 20
1730.471626975359
 30
0.0
 11
-1157.365857739501
 21
1731.403336685912
 31
0.0
  0
LINE
  5
F9
330
E3
100
AcDbEntity
  8
@__WIDOCZNE
  6
Continuous
370
    13
100
AcDbLine
 10
-1175.212179046797
 20
1747.713718727812
 30
0.0
 11
-1174.607949491953
 21
1748.645428438365
 31
0.0
  0
LINE
  5
FA
330
E3
100
AcDbEntity
  8
@__WIDOCZNE
  6
Continuous
370
    13
100
AcDbLine
 10
-1122.881674234595
 20
1696.919153181007
 30
0.0
 11
-1122.275314375909
 21
1697.849477888547
 31
0.0
  0
LINE
  5
FB
330
E3
100
AcDbEntity
  8
@__WIDOCZNE
  6
Continuous
370
    13
100
AcDbLine
 10
-1140.123765987048
 20
1714.16124493346
 30
0.0
 11
-1139.517406128362
 21
1715.091569641
 31
0.0
  0
LINE
  5
FC
330
E3
100
AcDbEntity
  8
@__WIDOCZNE
  6
Continuous
370
    13
100
AcDbLine
 10
-1157.365857739501
 20
1731.403336685912
 30
0.0
 11
-1156.759497880815
 21
1732.333661393452
 31
0.0
  0
LINE
  5
FD
330
E3
100
AcDbEntity
  8
@__WIDOCZNE
  6
Continuous
370
    13
100
AcDbLine
 10
-1174.607949491953
 20
1748.645428438365
 30
0.0
 11
-1174.001589633267
 21
1749.575753145905
 31
0.0
  0
LINE
  5
FE
330
E3
100
AcDbEntity
  8
@__WIDOCZNE
  6
Continuous
370
    13
100
AcDbLine
 10
-1122.275314375909
 20
1697.849477888547
 30
0.0
 11
-1121.666827388043
 21
1698.778412722258
 31
0.0
  0
LINE
  5
FF
330
E3
100
AcDbEntity
  8
@__WIDOCZNE
  6
Continuous
370
    13
100
AcDbLine
 10
-1139.517406128362
 20
1715.091569641
 30
0.0
 11
-1138.908919140496
 21
1716.020504474711
 31
0.0
  0
LINE
  5
100
330
E3
100
AcDbEntity
  8
@__WIDOCZNE
  6
Continuous
370
    13
100
AcDbLine
 10
-1156.759497880815
 20
1732.333661393452
 30
0.0
 11
-1156.151010892949
 21
1733.262596227164
 31
0.0
  0
LINE
  5
101
330
E3
100
AcDbEntity
  8
@__WIDOCZNE
  6
Continuous
370
    13
100
AcDbLine
 10
-1174.001589633267
 20
1749.575753145905
 30
0.0
 11
-1173.393102645401
 21
1750.504687979616
 31
0.0
  0
LINE
  5
102
330
E3
100
AcDbEntity
  8
@__WIDOCZNE
  6
Continuous
370
    13
100
AcDbLine
 10
-1121.666827388043
 20
1698.778412722258
 30
0.0
 11
-1121.056216456797
 21
1699.705952818603
 31
0.0
  0
LINE
  5
103
330
E3
100
AcDbEntity
  8
@__WIDOCZNE
  6
Continuous
370
    13
100
AcDbLine
 10
-1138.908919140496
 20
1716.020504474711
 30
0.0
 11
-1138.298308209249
 21
1716.948044571056
 31
0.0
  0
LINE
  5
104
330
E3
100
AcDbEntity
  8
@__WIDOCZNE
  6
Continuous
370
    13
100
AcDbLine
 10
-1156.151010892949
 20
1733.262596227164
 30
0.0
 11
-1155.540399961702
 21
1734.190136323508
 31
0.0
  0
LINE
  5
105
330
E3
100
AcDbEntity
  8
@__WIDOCZNE
  6
Continuous
370
    13
100
AcDbLine
 10
-1173.393102645401
 20
1750.504687979616
 30
0.0
 11
-1172.782491714155
 21
1751.432228075961
 31
0.0
  0
LINE
  5
106
330
E3
100
AcDbEntity
  8
@__WIDOCZNE
  6
Continuous
370
    13
100
AcDbLine
 10
-1103.444336053358
 20
1672.947577954655
 30
0.0
 11
-1102.147551536538
 21
1675.131518284161
 31
0.0
  0
LINE
  5
107
330
E3
100
AcDbEntity
  8
@__WIDOCZNE
  6
Continuous
370
    13
100
AcDbLine
 10
-1121.855468635562
 20
1688.220865035386
 30
0.0
 11
-1119.389643288991
 21
1692.373610036614
 31
0.0
  0
LINE
  5
108
330
E3
100
AcDbEntity
  8
@__WIDOCZNE
  6
Continuous
370
    13
100
AcDbLine
 10
-1139.097560388015
 20
1705.462956787839
 30
0.0
 11
-1136.631735041444
 21
1709.615701789067
 31
0.0
  0
LINE
  5
109
330
E3
100
AcDbEntity
  8
@__WIDOCZNE
  6
Continuous
370
    13
100
AcDbLine
 10
-1156.339652140468
 20
1722.705048540292
 30
0.0
 11
-1153.873826793896
 21
1726.857793541519
 31
0.0
  0
LINE
  5
10A
330
E3
100
AcDbEntity
  8
@__WIDOCZNE
  6
Continuous
370
    13
100
AcDbLine
 10
-1173.58174389292
 20
1739.947140292745
 30
0.0
 11
-1171.115918546349
 21
1744.099885293972
 31
0.0
  0
LINE
  5
10B
330
E3
100
AcDbEntity
  8
@__WIDOCZNE
  6
Continuous
370
    13
100
AcDbLine
 10
-1102.147551536538
 20
1675.131518284161
 30
0.0
 11
-1099.619581698215
 21
1679.24672838591
 31
0.0
  0
LINE
  5
10C
330
E3
100
AcDbEntity
  8
@__WIDOCZNE
  6
Continuous
370
    13
100
AcDbLine
 10
-1119.389643288991
 20
1692.373610036614
 30
0.0
 11
-1116.861673450667
 21
1696.488820138363
 31
0.0
  0
LINE
  5
10D
330
E3
100
AcDbEntity
  8
@__WIDOCZNE
  6
Continuous
370
    13
100
AcDbLine
 10
-1136.631735041444
 20
1709.615701789067
 30
0.0
 11
-1134.10376520312
 21
1713.730911890816
 31
0.0
  0
LINE
  5
10E
330
E3
100
AcDbEntity
  8
@__WIDOCZNE
  6
Continuous
370
    13
100
AcDbLine
 10
-1153.873826793896
 20
1726.857793541519
 30
0.0
 11
-1151.345856955573
 21
1730.973003643268
 31
0.0
  0
LINE
  5
10F
330
E3
100
AcDbEntity
  8
@__WIDOCZNE
  6
Continuous
370
    13
100
AcDbLine
 10
-1171.115918546349
 20
1744.099885293972
 30
0.0
 11
-1168.587948708026
 21
1748.215095395721
 31
0.0
  0
LINE
  5
110
330
E3
100
AcDbEntity
  8
@__WIDOCZNE
  6
Continuous
370
    13
100
AcDbLine
 10
-1099.619581698215
 20
1679.24672838591
 30
0.0
 11
-1097.03003860524
 21
1683.323473687574
 31
0.0
  0
LINE
  5
111
330
E3
100
AcDbEntity
  8
@__WIDOCZNE
  6
Continuous
370
    13
100
AcDbLine
 10
-1116.861673450667
 20
1696.488820138363
 30
0.0
 11
-1114.272130357693
 21
1700.565565440027
 31
0.0
  0
LINE
  5
112
330
E3
100
AcDbEntity
  8
@__WIDOCZNE
  6
Continuous
370
    13
100
AcDbLine
 10
-1134.10376520312
 20
1713.730911890816
 30
0.0
 11
-1131.514222110146
 21
1717.80765719248
 31
0.0
  0
LINE
  5
113
330
E3
100
AcDbEntity
  8
@__WIDOCZNE
  6
Continuous
370
    13
100
AcDbLine
 10
-1151.345856955573
 20
1730.973003643268
 30
0.0
 11
-1148.756313862599
 21
1735.049748944932
 31
0.0
  0
LINE
  5
114
330
E3
100
AcDbEntity
  8
@__WIDOCZNE
  6
Continuous
370
    13
100
AcDbLine
 10
-1168.587948708026
 20
1748.215095395721
 30
0.0
 11
-1165.998405615051
 21
1752.291840697385
 31
0.0
  0
LINE
  5
115
330
E3
100
AcDbEntity
  8
@__WIDOCZNE
  6
Continuous
370
    13
100
AcDbLine
 10
-1097.03003860524
 20
1683.323473687574
 30
0.0
 11
-1094.379507408222
 21
1687.360832980311
 31
0.0
  0
LINE
  5
116
330
E3
100
AcDbEntity
  8
@__WIDOCZNE
  6
Continuous
370
    13
100
AcDbLine
 10
-1114.272130357693
 20
1700.565565440027
 30
0.0
 11
-1111.621599160675
 21
1704.602924732764
 31
0.0
  0
LINE
  5
117
330
E3
100
AcDbEntity
  8
@__WIDOCZNE
  6
Continuous
370
    13
100
AcDbLine
 10
-1131.514222110146
 20
1717.80765719248
 30
0.0
 11
-1128.863690913128
 21
1721.845016485216
 31
0.0
  0
LINE
  5
118
330
E3
100
AcDbEntity
  8
@__WIDOCZNE
  6
Continuous
370
    13
100
AcDbLine
 10
-1148.756313862599
 20
1735.049748944932
 30
0.0
 11
-1146.618663180015
 21
1738.305875059451
 31
0.0
  0
LINE
  5
119
330
E3
100
AcDbEntity
  8
@__WIDOCZNE
  6
Continuous
370
    13
100
AcDbLine
 10
-1165.998405615051
 20
1752.291840697385
 30
0.0
 11
-1163.603318369626
 21
1755.940101000117
 31
0.0
  0
LINE
  5
11A
330
E3
100
AcDbEntity
  8
@__WIDOCZNE
  6
Continuous
370
    13
100
AcDbLine
 10
-1094.379507408222
 20
1687.360832980311
 30
0.0
 11
-1091.668587039054
 21
1691.357893955207
 31
0.0
  0
LINE
  5
11B
330
E3
100
AcDbEntity
  8
@__WIDOCZNE
  6
Continuous
370
    13
100
AcDbLine
 10
-1111.621599160675
 20
1704.602924732764
 30
0.0
 11
-1108.910678791507
 21
1708.59998570766
 31
0.0
  0
LINE
  5
11C
330
E3
100
AcDbEntity
  8
@__WIDOCZNE
  6
Continuous
370
    13
100
AcDbLine
 10
-1128.863690913128
 20
1721.845016485216
 30
0.0
 11
-1126.152770543959
 21
1725.842077460112
 31
0.0
  0
LINE
  5
11D
330
E3
100
AcDbEntity
  8
@__WIDOCZNE
  6
Continuous
370
    13
100
AcDbLine
 10
-1091.668587039054
 20
1691.357893955207
 30
0.0
 11
-1088.897890075569
 21
1695.313753409427
 31
0.0
  0
LINE
  5
11E
330
E3
100
AcDbEntity
  8
@__WIDOCZNE
  6
Continuous
370
    13
100
AcDbLine
 10
-1108.910678791507
 20
1708.59998570766
 30
0.0
 11
-1106.139981828022
 21
1712.55584516188
 31
0.0
  0
LINE
  5
11F
330
E3
100
AcDbEntity
  8
@__WIDOCZNE
  6
Continuous
370
    13
100
AcDbLine
 10
-1126.152770543959
 20
1725.842077460112
 30
0.0
 11
-1123.382073580475
 21
1729.797936914333
 31
0.0
  0
LINE
  5
120
330
E3
100
AcDbEntity
  8
@__WIDOCZNE
  6
Continuous
370
    13
100
AcDbLine
 10
-1088.897890075569
 20
1695.313753409427
 30
0.0
 11
-1086.068042603126
 21
1699.227517450312
 31
0.0
  0
LINE
  5
121
330
E3
100
AcDbEntity
  8
@__WIDOCZNE
  6
Continuous
370
    13
100
AcDbLine
 10
-1106.139981828022
 20
1712.55584516188
 30
0.0
 11
-1103.310134355579
 21
1716.469609202765
 31
0.0
  0
LINE
  5
122
330
E3
100
AcDbEntity
  8
@__WIDOCZNE
  6
Continuous
370
    13
100
AcDbLine
 10
-1123.382073580475
 20
1729.797936914333
 30
0.0
 11
-1120.552226108032
 21
1733.711700955218
 31
0.0
  0
LINE
  5
123
330
E3
100
AcDbEntity
  8
@__WIDOCZNE
  6
Continuous
370
    13
100
AcDbLine
 10
-1086.068042603126
 20
1699.227517450312
 30
0.0
 11
-1083.444336053358
 21
1702.743632875824
 31
0.0
  0
LINE
  5
124
330
E3
100
AcDbEntity
  8
@__WIDOCZNE
  6
Continuous
370
    13
100
AcDbLine
 10
-1103.310134355579
 20
1716.469609202765
 30
0.0
 11
-1100.421775825584
 21
1720.340393449816
 31
0.0
  0
LINE
  5
125
330
E3
100
AcDbEntity
  8
@__WIDOCZNE
  6
Continuous
370
    13
100
AcDbLine
 10
-1120.552226108032
 20
1733.711700955218
 30
0.0
 11
-1117.663867578037
 21
1737.582485202268
 31
0.0
  0
LINE
  5
126
330
E3
100
AcDbEntity
  8
@__WIDOCZNE
  6
Continuous
370
    13
100
AcDbLine
 10
-1101.335248809108
 20
1667.700645208932
 30
0.0
 11
-1096.275158541026
 21
1675.815947523363
 31
0.0
  0
LINE
  5
127
330
E3
100
AcDbEntity
  8
@__WIDOCZNE
  6
Continuous
370
    13
100
AcDbLine
 10
-1118.577340561561
 20
1684.942736961385
 30
0.0
 11
-1113.517250293479
 21
1693.058039275816
 31
0.0
  0
LINE
  5
128
330
E3
100
AcDbEntity
  8
@__WIDOCZNE
  6
Continuous
370
    13
100
AcDbLine
 10
-1135.819432314014
 20
1702.184828713838
 30
0.0
 11
-1130.759342045931
 21
1710.300131028269
 31
0.0
  0
LINE
  5
129
330
E3
100
AcDbEntity
  8
@__WIDOCZNE
  6
Continuous
370
    13
100
AcDbLine
 10
-1153.061524066467
 20
1719.426920466291
 30
0.0
 11
-1148.001433798384
 21
1727.542222780722
 31
0.0
  0
LINE
  5
12A
330
E3
100
AcDbEntity
  8
@__WIDOCZNE
  6
Continuous
370
    13
100
AcDbLine
 10
-1170.30361581892
 20
1736.669012218744
 30
0.0
 11
-1165.243525550837
 21
1744.784314533174
 31
0.0
  0
LINE
  5
12B
330
E3
100
AcDbEntity
  8
@__WIDOCZNE
  6
Continuous
370
    13
100
AcDbLine
 10
-1096.275158541026
 20
1675.815947523363
 30
0.0
 11
-1091.025153426088
 21
1683.809700801322
 31
0.0
  0
LINE
  5
12C
330
E3
100
AcDbEntity
  8
@__WIDOCZNE
  6
Continuous
370
    13
100
AcDbLine
 10
-1113.517250293479
 20
1693.058039275816
 30
0.0
 11
-1108.267245178541
 21
1701.051792553775
 31
0.0
  0
LINE
  5
12D
330
E3
100
AcDbEntity
  8
@__WIDOCZNE
  6
Continuous
370
    13
100
AcDbLine
 10
-1130.759342045931
 20
1710.300131028269
 30
0.0
 11
-1125.509336930994
 21
1718.293884306228
 31
0.0
  0
LINE
  5
12E
330
E3
100
AcDbEntity
  8
@__WIDOCZNE
  6
Continuous
370
    13
100
AcDbLine
 10
-1148.001433798384
 20
1727.542222780722
 30
0.0
 11
-1142.751428683447
 21
1735.535976058681
 31
0.0
  0
LINE
  5
12F
330
E3
100
AcDbEntity
  8
@__WIDOCZNE
  6
Continuous
370
    13
100
AcDbLine
 10
-1165.243525550837
 20
1744.784314533174
 30
0.0
 11
-1161.225920386761
 21
1750.901593230389
 31
0.0
  0
LINE
  5
130
330
E3
100
AcDbEntity
  8
@__WIDOCZNE
  6
Continuous
370
    13
100
AcDbLine
 10
-1091.025153426088
 20
1683.809700801322
 30
0.0
 11
-1085.588151812005
 21
1691.677461513508
 31
0.0
  0
LINE
  5
131
330
E3
100
AcDbEntity
  8
@__WIDOCZNE
  6
Continuous
370
    13
100
AcDbLine
 10
-1108.267245178541
 20
1701.051792553775
 30
0.0
 11
-1102.830243564458
 21
1708.919553265961
 31
0.0
  0
LINE
  5
132
330
E3
100
AcDbEntity
  8
@__WIDOCZNE
  6
Continuous
370
    13
100
AcDbLine
 10
-1125.509336930994
 20
1718.293884306228
 30
0.0
 11
-1120.072335316911
 21
1726.161645018414
 31
0.0
  0
LINE
  5
133
330
E3
100
AcDbEntity
  8
@__WIDOCZNE
  6
Continuous
370
    13
100
AcDbLine
 10
-1142.751428683447
 20
1735.535976058681
 30
0.0
 11
-1140.837295057762
 21
1738.305875059451
 31
0.0
  0
LINE
  5
134
330
E3
100
AcDbEntity
  8
@__WIDOCZNE
  6
Continuous
370
    13
100
AcDbLine
 10
-1085.588151812005
 20
1691.677461513508
 30
0.0
 11
-1083.444336053358
 21
1694.628470221468
 31
0.0
  0
LINE
  5
135
330
E3
100
AcDbEntity
  8
@__WIDOCZNE
  6
Continuous
370
    13
100
AcDbLine
 10
-1102.830243564458
 20
1708.919553265961
 30
0.0
 11
-1097.209267745657
 21
1716.656947919215
 31
0.0
  0
LINE
  5
136
330
E3
100
AcDbEntity
  8
@__WIDOCZNE
  6
Continuous
370
    13
100
AcDbLine
 10
-1120.072335316911
 20
1726.161645018414
 30
0.0
 11
-1114.45135949811
 21
1733.899039671668
 31
0.0
  0
LINE
  5
137
330
E3
100
AcDbEntity
  8
@__WIDOCZNE
  6
Continuous
370
    13
100
AcDbLine
 10
-1097.209267745657
 20
1716.656947919215
 30
0.0
 11
-1091.407442283265
 21
1724.25967548764
 31
0.0
  0
LINE
  5
138
330
E3
100
AcDbEntity
  8
@__WIDOCZNE
  6
Continuous
370
    13
100
AcDbLine
 10
-1114.45135949811
 20
1733.899039671668
 30
0.0
 11
-1111.088396728328
 21
1738.305875059451
 31
0.0
  0
LINE
  5
139
330
E3
100
AcDbEntity
  8
@__WIDOCZNE
  6
Continuous
370
    13
100
AcDbLine
 10
-1091.407442283265
 20
1724.25967548764
 30
0.0
 11
-1085.427992268246
 21
1731.723509803435
 31
0.0
  0
LINE
  5
13A
330
E3
100
AcDbEntity
  8
@__WIDOCZNE
  6
Continuous
370
    13
100
AcDbLine
 10
-1105.679629867105
 20
1745.208943082793
 30
0.0
 11
-1102.670084020698
 21
1748.965601555887
 31
0.0
  0
LINE
  5
13B
330
E3
100
AcDbEntity
  8
@__WIDOCZNE
  6
Continuous
370
    13
100
AcDbLine
 10
-1085.427992268246
 20
1731.723509803435
 30
0.0
 11
-1083.444336053358
 21
1734.083360789748
 31
0.0
  0
LINE
  5
13C
330
E3
100
AcDbEntity
  8
@__WIDOCZNE
  6
Continuous
370
    13
100
AcDbLine
 10
-1102.670084020698
 20
1748.965601555887
 30
0.0
 11
-1097.349482530914
 21
1755.295240018044
 31
0.0
  0
LINE
  5
13D
330
E3
100
AcDbEntity
  8
@__WIDOCZNE
  6
Continuous
370
    13
100
AcDbLine
 10
-1171.578881372549
 20
1682.99033347608
 30
0.0
 11
-1171.119646273906
 21
1683.578152336836
 31
0.0
  0
LINE
  5
13E
330
E3
100
AcDbEntity
  8
@__WIDOCZNE
  6
Continuous
370
    13
100
AcDbLine
 10
-1171.119646273906
 20
1683.578152336836
 30
0.0
 11
-1170.287676580865
 21
1684.671951647569
 31
0.0
  0
LINE
  5
13F
330
E3
100
AcDbEntity
  8
@__WIDOCZNE
  6
Continuous
370
    13
100
AcDbLine
 10
-1170.287676580865
 20
1684.671951647569
 30
0.0
 11
-1169.469928816801
 21
1685.776423963504
 31
0.0
  0
LINE
  5
140
330
E3
100
AcDbEntity
  8
@__WIDOCZNE
  6
Continuous
370
    13
100
AcDbLine
 10
-1096.208159044123
 20
1665.305874120678
 30
0.0
 11
-1092.787272596999
 21
1670.124460723789
 31
0.0
  0
LINE
  5
141
330
E3
100
AcDbEntity
  8
@__WIDOCZNE
  6
Continuous
370
    13
100
AcDbLine
 10
-1113.136198261627
 20
1682.99033347608
 30
0.0
 11
-1110.029364349452
 21
1687.366552476242
 31
0.0
  0
LINE
  5
142
330
E3
100
AcDbEntity
  8
@__WIDOCZNE
  6
Continuous
370
    13
100
AcDbLine
 10
-1131.82675392139
 20
1698.192150321214
 30
0.0
 11
-1127.271456101905
 21
1704.608644228695
 31
0.0
  0
LINE
  5
143
330
E3
100
AcDbEntity
  8
@__WIDOCZNE
  6
Continuous
370
    13
100
AcDbLine
 10
-1149.068845673843
 20
1715.434242073667
 30
0.0
 11
-1144.513547854357
 21
1721.850735981147
 31
0.0
  0
LINE
  5
144
330
E3
100
AcDbEntity
  8
@__WIDOCZNE
  6
Continuous
370
    13
100
AcDbLine
 10
-1166.310937426295
 20
1732.676333826119
 30
0.0
 11
-1161.75563960681
 21
1739.0928277336
 31
0.0
  0
LINE
  5
145
330
E3
100
AcDbEntity
  8
@__WIDOCZNE
  6
Continuous
370
    13
100
AcDbLine
 10
-1183.459911593314
 20
1750.049588993852
 30
0.0
 11
-1180.583962346605
 21
1754.100588851818
 31
0.0
  0
LINE
  5
146
330
E3
100
AcDbEntity
  8
@__WIDOCZNE
  6
Continuous
370
    13
100
AcDbLine
 10
-1092.787272596999
 20
1670.124460723789
 30
0.0
 11
-1088.229700554067
 21
1676.539339472638
 31
0.0
  0
LINE
  5
147
330
E3
100
AcDbEntity
  8
@__WIDOCZNE
  6
Continuous
370
    13
100
AcDbLine
 10
-1110.029364349452
 20
1687.366552476242
 30
0.0
 11
-1105.47179230652
 21
1693.781431225091
 31
0.0
  0
LINE
  5
148
330
E3
100
AcDbEntity
  8
@__WIDOCZNE
  6
Continuous
370
    13
100
AcDbLine
 10
-1127.271456101905
 20
1704.608644228695
 30
0.0
 11
-1122.713884058973
 21
1711.023522977544
 31
0.0
  0
LINE
  5
149
330
E3
100
AcDbEntity
  8
@__WIDOCZNE
  6
Continuous
370
    13
100
AcDbLine
 10
-1144.513547854357
 20
1721.850735981147
 30
0.0
 11
-1139.955975811426
 21
1728.265614729997
 31
0.0
  0
LINE
  5
14A
330
E3
100
AcDbEntity
  8
@__WIDOCZNE
  6
Continuous
370
    13
100
AcDbLine
 10
-1161.75563960681
 20
1739.0928277336
 30
0.0
 11
-1161.225920386761
 21
1739.838418705183
 31
0.0
  0
LINE
  5
14B
330
E3
100
AcDbEntity
  8
@__WIDOCZNE
  6
Continuous
370
    13
100
AcDbLine
 10
-1088.229700554067
 20
1676.539339472638
 30
0.0
 11
-1083.66985486037
 21
1682.952602256792
 31
0.0
  0
LINE
  5
14C
330
E3
100
AcDbEntity
  8
@__WIDOCZNE
  6
Continuous
370
    13
100
AcDbLine
 10
-1105.47179230652
 20
1693.781431225091
 30
0.0
 11
-1100.911946612823
 21
1700.194694009245
 31
0.0
  0
LINE
  5
14D
330
E3
100
AcDbEntity
  8
@__WIDOCZNE
  6
Continuous
370
    13
100
AcDbLine
 10
-1122.713884058973
 20
1711.023522977544
 30
0.0
 11
-1118.154038365275
 21
1717.436785761698
 31
0.0
  0
LINE
  5
14E
330
E3
100
AcDbEntity
  8
@__WIDOCZNE
  6
Continuous
370
    13
100
AcDbLine
 10
-1139.955975811426
 20
1728.265614729997
 30
0.0
 11
-1135.396130117728
 21
1734.67887751415
 31
0.0
  0
LINE
  5
14F
330
E3
100
AcDbEntity
  8
@__WIDOCZNE
  6
Continuous
370
    13
100
AcDbLine
 10
-1083.66985486037
 20
1682.952602256792
 30
0.0
 11
-1083.444336053358
 21
1683.269548577656
 31
0.0
  0
LINE
  5
150
330
E3
100
AcDbEntity
  8
@__WIDOCZNE
  6
Continuous
370
    13
100
AcDbLine
 10
-1100.911946612823
 20
1700.194694009245
 30
0.0
 11
-1096.349827841336
 21
1706.606340022845
 31
0.0
  0
LINE
  5
151
330
E3
100
AcDbEntity
  8
@__WIDOCZNE
  6
Continuous
370
    13
100
AcDbLine
 10
-1118.154038365275
 20
1717.436785761698
 30
0.0
 11
-1113.591919593788
 21
1723.848431775298
 31
0.0
  0
LINE
  5
152
330
E3
100
AcDbEntity
  8
@__WIDOCZNE
  6
Continuous
370
    13
100
AcDbLine
 10
-1135.396130117728
 20
1734.67887751415
 30
0.0
 11
-1132.815389766428
 21
1738.305875059451
 31
0.0
  0
LINE
  5
153
330
E3
100
AcDbEntity
  8
@__WIDOCZNE
  6
Continuous
370
    13
100
AcDbLine
 10
-1096.349827841336
 20
1706.606340022845
 30
0.0
 11
-1091.785436565305
 21
1713.016368460235
 31
0.0
  0
LINE
  5
154
330
E3
100
AcDbEntity
  8
@__WIDOCZNE
  6
Continuous
370
    13
100
AcDbLine
 10
-1113.591919593788
 20
1723.848431775298
 30
0.0
 11
-1109.027528317757
 21
1730.258460212688
 31
0.0
  0
LINE
  5
155
330
E3
100
AcDbEntity
  8
@__WIDOCZNE
  6
Continuous
370
    13
100
AcDbLine
 10
-1091.785436565305
 20
1713.016368460235
 30
0.0
 11
-1087.21877335827
 21
1719.424778515972
 31
0.0
  0
LINE
  5
156
330
E3
100
AcDbEntity
  8
@__WIDOCZNE
  6
Continuous
370
    13
100
AcDbLine
 10
-1109.027528317757
 20
1730.258460212688
 30
0.0
 11
-1104.460865110723
 21
1736.666870268424
 31
0.0
  0
LINE
  5
157
330
E3
100
AcDbEntity
  8
@__WIDOCZNE
  6
Continuous
370
    13
100
AcDbLine
 10
-1087.21877335827
 20
1719.424778515972
 30
0.0
 11
-1083.444336053358
 21
1724.717485189751
 31
0.0
  0
LINE
  5
158
330
E3
100
AcDbEntity
  8
@__WIDOCZNE
  6
Continuous
370
    13
100
AcDbLine
 10
-1104.460865110723
 20
1736.666870268424
 30
0.0
 11
-1099.89193054651
 21
1743.073661137252
 31
0.0
  0
LINE
  5
159
330
E3
100
AcDbEntity
  8
@__WIDOCZNE
  6
Continuous
370
    13
100
AcDbLine
 10
-1099.89193054651
 20
1743.073661137252
 30
0.0
 11
-1095.320725199222
 21
1749.478832014118
 31
0.0
  0
LINE
  5
15A
330
E3
100
AcDbEntity
  8
@__WIDOCZNE
  6
Continuous
370
    13
100
AcDbLine
 10
-1095.320725199222
 20
1749.478832014118
 30
0.0
 11
-1092.889798784746
 21
1752.877985963343
 31
0.0
  0
LINE
  5
15B
330
E3
100
AcDbEntity
  8
@__WIDOCZNE
  6
Continuous
370
    13
100
AcDbLine
 10
-1092.889798784746
 20
1752.877985963343
 30
0.0
 11
-1091.601991861253
 21
1754.672614696919
 31
0.0
  0
LINE
  5
15C
330
E3
100
AcDbEntity
  8
@__WIDOCZNE
  6
Continuous
370
    13
100
AcDbLine
 10
-1167.310482243926
 20
1682.99033347608
 30
0.0
 11
-1166.863808595967
 21
1683.604419750984
 31
0.0
  0
LINE
  5
15D
330
E3
100
AcDbEntity
  8
@__WIDOCZNE
  6
Continuous
370
    13
100
AcDbLine
 10
-1166.863808595967
 20
1683.604419750984
 30
0.0
 11
-1164.400199728018
 21
1686.979961507338
 31
0.0
  0
LINE
  5
15E
330
E3
100
AcDbEntity
  8
@__WIDOCZNE
  6
Continuous
370
    13
100
AcDbLine
 10
-1183.443087807212
 20
1701.754671657668
 30
0.0
 11
-1181.642291480471
 21
1704.222053259791
 31
0.0
  0
LINE
  5
15F
330
E3
100
AcDbEntity
  8
@__WIDOCZNE
  6
Continuous
370
    13
100
AcDbLine
 10
-1164.400199728018
 20
1686.979961507338
 30
0.0
 11
-1161.931165999148
 21
1690.351537288605
 31
0.0
  0
LINE
  5
160
330
E3
100
AcDbEntity
  8
@__WIDOCZNE
  6
Continuous
370
    13
100
AcDbLine
 10
-1181.642291480471
 20
1704.222053259791
 30
0.0
 11
-1179.1732577516
 21
1707.593629041058
 31
0.0
  0
LINE
  5
161
330
E3
100
AcDbEntity
  8
@__WIDOCZNE
  6
Continuous
370
    13
100
AcDbLine
 10
-1161.931165999148
 20
1690.351537288605
 30
0.0
 11
-1161.304908364387
 21
1691.226599686487
 31
0.0
  0
LINE
  5
162
330
E3
100
AcDbEntity
  8
@__WIDOCZNE
  6
Continuous
370
    13
100
AcDbLine
 10
-1179.1732577516
 20
1707.593629041058
 30
0.0
 11
-1178.54700011684
 21
1708.46869143894
 31
0.0
  0
LINE
  5
163
330
E3
100
AcDbEntity
  8
@__WIDOCZNE
  6
Continuous
370
    13
100
AcDbLine
 10
-1161.304908364387
 20
1691.226599686487
 30
0.0
 11
-1160.699331118768
 21
1692.116098997826
 31
0.0
  0
LINE
  5
164
330
E3
100
AcDbEntity
  8
@__WIDOCZNE
  6
Continuous
370
    13
100
AcDbLine
 10
-1178.54700011684
 20
1708.46869143894
 30
0.0
 11
-1177.941422871221
 21
1709.358190750278
 31
0.0
  0
LINE
  5
165
330
E3
100
AcDbEntity
  8
@__WIDOCZNE
  6
Continuous
370
    13
100
AcDbLine
 10
-1160.699331118768
 20
1692.116098997826
 30
0.0
 11
-1160.114766932265
 21
1693.019546581884
 31
0.0
  0
LINE
  5
166
330
E3
100
AcDbEntity
  8
@__WIDOCZNE
  6
Continuous
370
    13
100
AcDbLine
 10
-1177.941422871221
 20
1709.358190750278
 30
0.0
 11
-1177.356858684717
 21
1710.261638334336
 31
0.0
  0
LINE
  5
167
330
E3
100
AcDbEntity
  8
@__WIDOCZNE
  6
Continuous
370
    13
100
AcDbLine
 10
-1160.114766932265
 20
1693.019546581884
 30
0.0
 11
-1159.551536931459
 21
1693.936446135529
 31
0.0
  0
LINE
  5
168
330
E3
100
AcDbEntity
  8
@__WIDOCZNE
  6
Continuous
370
    13
100
AcDbLine
 10
-1177.356858684717
 20
1710.261638334336
 30
0.0
 11
-1176.793628683911
 21
1711.178537887982
 31
0.0
  0
LINE
  5
169
330
E3
100
AcDbEntity
  8
@__WIDOCZNE
  6
Continuous
370
    13
100
AcDbLine
 10
-1159.551536931459
 20
1693.936446135529
 30
0.0
 11
-1159.009950523137
 21
1694.866293965878
 31
0.0
  0
LINE
  5
16A
330
E3
100
AcDbEntity
  8
@__WIDOCZNE
  6
Continuous
370
    13
100
AcDbLine
 10
-1176.793628683911
 20
1711.178537887982
 30
0.0
 11
-1176.25204227559
 21
1712.108385718331
 31
0.0
  0
LINE
  5
16B
330
E3
100
AcDbEntity
  8
@__WIDOCZNE
  6
Continuous
370
    13
100
AcDbLine
 10
-1159.009950523137
 20
1694.866293965878
 30
0.0
 11
-1158.490305224317
 21
1695.808579266993
 31
0.0
  0
LINE
  5
16C
330
E3
100
AcDbEntity
  8
@__WIDOCZNE
  6
Continuous
370
    13
100
AcDbLine
 10
-1176.25204227559
 20
1712.108385718331
 30
0.0
 11
-1175.73239697677
 21
1713.050671019446
 31
0.0
  0
LINE
  5
16D
330
E3
100
AcDbEntity
  8
@__WIDOCZNE
  6
Continuous
370
    13
100
AcDbLine
 10
-1158.490305224317
 20
1695.808579266993
 30
0.0
 11
-1157.992886498808
 21
1696.762784400492
 31
0.0
  0
LINE
  5
16E
330
E3
100
AcDbEntity
  8
@__WIDOCZNE
  6
Continuous
370
    13
100
AcDbLine
 10
-1175.73239697677
 20
1713.050671019446
 30
0.0
 11
-1175.23497825126
 21
1714.004876152944
 31
0.0
  0
LINE
  5
16F
330
E3
100
AcDbEntity
  8
@__WIDOCZNE
  6
Continuous
370
    13
100
AcDbLine
 10
-1157.992886498808
 20
1696.762784400492
 30
0.0
 11
-1157.517967600395
 21
1697.72838517991
 31
0.0
  0
LINE
  5
170
330
E3
100
AcDbEntity
  8
@__WIDOCZNE
  6
Continuous
370
    13
100
AcDbLine
 10
-1175.23497825126
 20
1714.004876152944
 30
0.0
 11
-1174.760059352848
 21
1714.970476932363
 31
0.0
  0
LINE
  5
171
330
E3
100
AcDbEntity
  8
@__WIDOCZNE
  6
Continuous
370
    13
100
AcDbLine
 10
-1090.595451911459
 20
1665.305874120678
 30
0.0
 11
-1089.727322877717
 21
1666.6464254953
 31
0.0
  0
LINE
  5
172
330
E3
100
AcDbEntity
  8
@__WIDOCZNE
  6
Continuous
370
    13
100
AcDbLine
 10
-1107.551070376146
 20
1682.99033347608
 30
0.0
 11
-1106.96941463017
 21
1683.888517247753
 31
0.0
  0
LINE
  5
173
330
E3
100
AcDbEntity
  8
@__WIDOCZNE
  6
Continuous
370
    13
100
AcDbLine
 10
-1128.359675011512
 20
1694.725071411336
 30
0.0
 11
-1124.211506382622
 21
1701.130609000206
 31
0.0
  0
LINE
  5
174
330
E3
100
AcDbEntity
  8
@__WIDOCZNE
  6
Continuous
370
    13
100
AcDbLine
 10
-1145.601766763965
 20
1711.967163163789
 30
0.0
 11
-1141.453598135075
 21
1718.372700752659
 31
0.0
  0
LINE
  5
175
330
E3
100
AcDbEntity
  8
@__WIDOCZNE
  6
Continuous
370
    13
100
AcDbLine
 10
-1162.843858516418
 20
1729.209254916242
 30
0.0
 11
-1158.695689887528
 21
1735.614792505111
 31
0.0
  0
LINE
  5
176
330
E3
100
AcDbEntity
  8
@__WIDOCZNE
  6
Continuous
370
    13
100
AcDbLine
 10
-1180.085950268871
 20
1746.451346668695
 30
0.0
 11
-1175.937781639981
 21
1752.856884257564
 31
0.0
  0
LINE
  5
177
330
E3
100
AcDbEntity
  8
@__WIDOCZNE
  6
Continuous
370
    13
100
AcDbLine
 10
-1089.727322877717
 20
1666.6464254953
 30
0.0
 11
-1085.511681947899
 21
1673.007760758197
 31
0.0
  0
LINE
  5
178
330
E3
100
AcDbEntity
  8
@__WIDOCZNE
  6
Continuous
370
    13
100
AcDbLine
 10
-1106.96941463017
 20
1683.888517247753
 30
0.0
 11
-1102.753773700352
 21
1690.24985251065
 31
0.0
  0
LINE
  5
179
330
E3
100
AcDbEntity
  8
@__WIDOCZNE
  6
Continuous
370
    13
100
AcDbLine
 10
-1124.211506382622
 20
1701.130609000206
 30
0.0
 11
-1119.995865452805
 21
1707.491944263102
 31
0.0
  0
LINE
  5
17A
330
E3
100
AcDbEntity
  8
@__WIDOCZNE
  6
Continuous
370
    13
100
AcDbLine
 10
-1141.453598135075
 20
1718.372700752659
 30
0.0
 11
-1137.237957205258
 21
1724.734036015555
 31
0.0
  0
LINE
  5
17B
330
E3
100
AcDbEntity
  8
@__WIDOCZNE
  6
Continuous
370
    13
100
AcDbLine
 10
-1158.695689887528
 20
1735.614792505111
 30
0.0
 11
-1156.91231622575
 21
1738.305875059451
 31
0.0
  0
LINE
  5
17C
330
E3
100
AcDbEntity
  8
@__WIDOCZNE
  6
Continuous
370
    13
100
AcDbLine
 10
-1175.937781639981
 20
1752.856884257564
 30
0.0
 11
-1174.690489421045
 21
1754.739028422009
 31
0.0
  0
LINE
  5
17D
330
E3
100
AcDbEntity
  8
@__WIDOCZNE
  6
Continuous
370
    13
100
AcDbLine
 10
-1085.511681947899
 20
1673.007760758197
 30
0.0
 11
-1083.444336053358
 21
1676.056866616928
 31
0.0
  0
LINE
  5
17E
330
E3
100
AcDbEntity
  8
@__WIDOCZNE
  6
Continuous
370
    13
100
AcDbLine
 10
-1102.753773700352
 20
1690.24985251065
 30
0.0
 11
-1098.471131439829
 21
1696.566274760983
 31
0.0
  0
LINE
  5
17F
330
E3
100
AcDbEntity
  8
@__WIDOCZNE
  6
Continuous
370
    13
100
AcDbLine
 10
-1119.995865452805
 20
1707.491944263102
 30
0.0
 11
-1115.713223192281
 21
1713.808366513435
 31
0.0
  0
LINE
  5
180
330
E3
100
AcDbEntity
  8
@__WIDOCZNE
  6
Continuous
370
    13
100
AcDbLine
 10
-1137.237957205258
 20
1724.734036015555
 30
0.0
 11
-1132.955314944734
 21
1731.050458265888
 31
0.0
  0
LINE
  5
181
330
E3
100
AcDbEntity
  8
@__WIDOCZNE
  6
Continuous
370
    13
100
AcDbLine
 10
-1098.471131439829
 20
1696.566274760983
 30
0.0
 11
-1094.121966304191
 21
1702.837078329831
 31
0.0
  0
LINE
  5
182
330
E3
100
AcDbEntity
  8
@__WIDOCZNE
  6
Continuous
370
    13
100
AcDbLine
 10
-1115.713223192281
 20
1713.808366513435
 30
0.0
 11
-1111.364058056644
 21
1720.079170082283
 31
0.0
  0
LINE
  5
183
330
E3
100
AcDbEntity
  8
@__WIDOCZNE
  6
Continuous
370
    13
100
AcDbLine
 10
-1132.955314944734
 20
1731.050458265888
 30
0.0
 11
-1128.606149809097
 21
1737.321261834736
 31
0.0
  0
LINE
  5
184
330
E3
100
AcDbEntity
  8
@__WIDOCZNE
  6
Continuous
370
    13
100
AcDbLine
 10
-1094.121966304191
 20
1702.837078329831
 30
0.0
 11
-1089.706764180948
 21
1709.061562644778
 31
0.0
  0
LINE
  5
185
330
E3
100
AcDbEntity
  8
@__WIDOCZNE
  6
Continuous
370
    13
100
AcDbLine
 10
-1111.364058056644
 20
1720.079170082283
 30
0.0
 11
-1106.948855933401
 21
1726.303654397231
 31
0.0
  0
LINE
  5
186
330
E3
100
AcDbEntity
  8
@__WIDOCZNE
  6
Continuous
370
    13
100
AcDbLine
 10
-1128.606149809097
 20
1737.321261834736
 30
0.0
 11
-1127.907735903563
 21
1738.305875059451
 31
0.0
  0
LINE
  5
187
330
E3
100
AcDbEntity
  8
@__WIDOCZNE
  6
Continuous
370
    13
100
AcDbLine
 10
-1089.706764180948
 20
1709.061562644778
 30
0.0
 11
-1085.226018335241
 21
1715.239032308185
 31
0.0
  0
LINE
  5
188
330
E3
100
AcDbEntity
  8
@__WIDOCZNE
  6
Continuous
370
    13
100
AcDbLine
 10
-1106.948855933401
 20
1726.303654397231
 30
0.0
 11
-1102.468110087694
 21
1732.481124060638
 31
0.0
  0
LINE
  5
189
330
E3
100
AcDbEntity
  8
@__WIDOCZNE
  6
Continuous
370
    13
100
AcDbLine
 10
-1085.226018335241
 20
1715.239032308185
 30
0.0
 11
-1083.444336053358
 21
1717.641540102087
 31
0.0
  0
LINE
  5
18A
330
E3
100
AcDbEntity
  8
@__WIDOCZNE
  6
Continuous
370
    13
100
AcDbLine
 10
-1102.468110087694
 20
1732.481124060638
 30
0.0
 11
-1097.922321107193
 21
1738.610888927325
 31
0.0
  0
LINE
  5
18B
330
E3
100
AcDbEntity
  8
@__WIDOCZNE
  6
Continuous
370
    13
100
AcDbLine
 10
-1097.922321107193
 20
1738.610888927325
 30
0.0
 11
-1093.311996846168
 21
1744.692264181684
 31
0.0
  0
LINE
  5
18C
330
E3
100
AcDbEntity
  8
@__WIDOCZNE
  6
Continuous
370
    13
100
AcDbLine
 10
-1093.311996846168
 20
1744.692264181684
 30
0.0
 11
-1089.743066165038
 21
1750.693604049378
 31
0.0
  0
LINE
  5
18D
330
E3
100
AcDbEntity
  8
@__WIDOCZNE
  6
Continuous
370
    13
100
AcDbLine
 10
-1089.743066165038
 20
1750.693604049378
 30
0.0
 11
-1087.595214033414
 21
1754.23856069403
 31
0.0
  0
LINE
  5
18E
330
E3
100
AcDbEntity
  8
@__WIDOCZNE
  6
Continuous
370
    13
100
AcDbLine
 10
-1183.44162849896
 20
1697.565533077061
 30
0.0
 11
-1182.194062346744
 21
1699.550109822615
 31
0.0
  0
LINE
  5
18F
330
E3
100
AcDbEntity
  8
@__WIDOCZNE
  6
Continuous
370
    13
100
AcDbLine
 10
-1164.51516714268
 20
1682.99033347608
 30
0.0
 11
-1161.187360406144
 21
1688.188584075707
 31
0.0
  0
LINE
  5
190
330
E3
100
AcDbEntity
  8
@__WIDOCZNE
  6
Continuous
370
    13
100
AcDbLine
 10
-1182.194062346744
 20
1699.550109822615
 30
0.0
 11
-1178.429452158596
 21
1705.43067582816
 31
0.0
  0
LINE
  5
191
330
E3
100
AcDbEntity
  8
@__WIDOCZNE
  6
Continuous
370
    13
100
AcDbLine
 10
-1161.187360406144
 20
1688.188584075707
 30
0.0
 11
-1157.374460117274
 21
1694.03795479412
 31
0.0
  0
LINE
  5
192
330
E3
100
AcDbEntity
  8
@__WIDOCZNE
  6
Continuous
370
    13
100
AcDbLine
 10
-1178.429452158596
 20
1705.43067582816
 30
0.0
 11
-1174.616551869726
 21
1711.280046546573
 31
0.0
  0
LINE
  5
193
330
E3
100
AcDbEntity
  8
@__WIDOCZNE
  6
Continuous
370
    13
100
AcDbLine
 10
-1157.374460117274
 20
1694.03795479412
 30
0.0
 11
-1153.513528211263
 21
1699.85573368571
 31
0.0
  0
LINE
  5
194
330
E3
100
AcDbEntity
  8
@__WIDOCZNE
  6
Continuous
370
    13
100
AcDbLine
 10
-1174.616551869726
 20
1711.280046546573
 30
0.0
 11
-1170.755619963716
 21
1717.097825438163
 31
0.0
  0
LINE
  5
195
330
E3
100
AcDbEntity
  8
@__WIDOCZNE
  6
Continuous
370
    13
100
AcDbLine
 10
-1136.016955354831
 20
1682.99033347608
 30
0.0
 11
-1132.362734675394
 21
1688.399434600006
 31
0.0
  0
LINE
  5
196
330
E3
100
AcDbEntity
  8
@__WIDOCZNE
  6
Continuous
370
    13
100
AcDbLine
 10
-1153.513528211263
 20
1699.85573368571
 30
0.0
 11
-1149.604826427846
 21
1705.641526352459
 31
0.0
  0
LINE
  5
197
330
E3
100
AcDbEntity
  8
@__WIDOCZNE
  6
Continuous
370
    13
100
AcDbLine
 10
-1170.755619963716
 20
1717.097825438163
 30
0.0
 11
-1166.846918180299
 21
1722.883618104911
 31
0.0
  0
LINE
  5
198
330
E3
100
AcDbEntity
  8
@__WIDOCZNE
  6
Continuous
370
    13
100
AcDbLine
 10
-1086.515701871436
 20
1665.305874120678
 30
0.0
 11
-1083.444336053358
 21
1669.891559806301
 31
0.0
  0
LINE
  5
199
330
E3
100
AcDbEntity
  8
@__WIDOCZNE
  6
Continuous
370
    13
100
AcDbLine
 10
-1103.461508002094
 20
1682.99033347608
 30
0.0
 11
-1100.136180809937
 21
1687.955194781539
 31
0.0
  0
LINE
  5
19A
330
E3
100
AcDbEntity
  8
@__WIDOCZNE
  6
Continuous
370
    13
100
AcDbLine
 10
-1121.056216456797
 20
1699.705952818603
 30
0.0
 11
-1117.37827256239
 21
1705.197286533992
 31
0.0
  0
LINE
  5
19B
330
E3
100
AcDbEntity
  8
@__WIDOCZNE
  6
Continuous
370
    13
100
AcDbLine
 10
-1138.298308209249
 20
1716.948044571056
 30
0.0
 11
-1134.620364314843
 21
1722.439378286444
 31
0.0
  0
LINE
  5
19C
330
E3
100
AcDbEntity
  8
@__WIDOCZNE
  6
Continuous
370
    13
100
AcDbLine
 10
-1155.540399961702
 20
1734.190136323508
 30
0.0
 11
-1152.783791651336
 21
1738.305875059451
 31
0.0
  0
LINE
  5
19D
330
E3
100
AcDbEntity
  8
@__WIDOCZNE
  6
Continuous
370
    13
100
AcDbLine
 10
-1172.782491714155
 20
1751.432228075961
 30
0.0
 11
-1170.245150188822
 21
1755.220591755654
 31
0.0
  0
LINE
  5
19E
330
E3
100
AcDbEntity
  8
@__WIDOCZNE
  6
Continuous
370
    13
100
AcDbLine
 10
-1100.136180809937
 20
1687.955194781539
 30
0.0
 11
-1096.383797171786
 21
1693.395933177778
 31
0.0
  0
LINE
  5
19F
330
E3
100
AcDbEntity
  8
@__WIDOCZNE
  6
Continuous
370
    13
100
AcDbLine
 10
-1117.37827256239
 20
1705.197286533992
 30
0.0
 11
-1113.625888924239
 21
1710.63802493023
 31
0.0
  0
LINE
  5
1A0
330
E3
100
AcDbEntity
  8
@__WIDOCZNE
  6
Continuous
370
    13
100
AcDbLine
 10
-1134.620364314843
 20
1722.439378286444
 30
0.0
 11
-1130.867980676692
 21
1727.880116682683
 31
0.0
  0
LINE
  5
1A1
330
E3
100
AcDbEntity
  8
@__WIDOCZNE
  6
Continuous
370
    13
100
AcDbLine
 10
-1096.383797171786
 20
1693.395933177778
 30
0.0
 11
-1092.557669697927
 21
1698.78506722862
 31
0.0
  0
LINE
  5
1A2
330
E3
100
AcDbEntity
  8
@__WIDOCZNE
  6
Continuous
370
    13
100
AcDbLine
 10
-1113.625888924239
 20
1710.63802493023
 30
0.0
 11
-1109.799761450379
 21
1716.027158981073
 31
0.0
  0
LINE
  5
1A3
330
E3
100
AcDbEntity
  8
@__WIDOCZNE
  6
Continuous
370
    13
100
AcDbLine
 10
-1130.867980676692
 20
1727.880116682683
 30
0.0
 11
-1127.041853202832
 21
1733.269250733525
 31
0.0
  0
LINE
  5
1A4
330
E3
100
AcDbEntity
  8
@__WIDOCZNE
  6
Continuous
370
    13
100
AcDbLine
 10
-1092.557669697927
 20
1698.78506722862
 30
0.0
 11
-1088.65850797275
 21
1704.121597478238
 31
0.0
  0
LINE
  5
1A5
330
E3
100
AcDbEntity
  8
@__WIDOCZNE
  6
Continuous
370
    13
100
AcDbLine
 10
-1109.799761450379
 20
1716.027158981073
 30
0.0
 11
-1105.900599725203
 21
1721.363689230691
 31
0.0
  0
LINE
  5
1A6
330
E3
100
AcDbEntity
  8
@__WIDOCZNE
  6
Continuous
370
    13
100
AcDbLine
 10
-1127.041853202832
 20
1733.269250733525
 30
0.0
 11
-1123.361819196252
 21
1738.305875059451
 31
0.0
  0
LINE
  5
1A7
330
E3
100
AcDbEntity
  8
@__WIDOCZNE
  6
Continuous
370
    13
100
AcDbLine
 10
-1088.65850797275
 20
1704.121597478238
 30
0.0
 11
-1084.687035125404
 21
1709.404534226579
 31
0.0
  0
LINE
  5
1A8
330
E3
100
AcDbEntity
  8
@__WIDOCZNE
  6
Continuous
370
    13
100
AcDbLine
 10
-1105.900599725203
 20
1721.363689230691
 30
0.0
 11
-1101.929126877857
 21
1726.646625979031
 31
0.0
  0
LINE
  5
1A9
330
E3
100
AcDbEntity
  8
@__WIDOCZNE
  6
Continuous
370
    13
100
AcDbLine
 10
-1084.687035125404
 20
1709.404534226579
 30
0.0
 11
-1083.444336053358
 21
1711.011560254772
 31
0.0
  0
LINE
  5
1AA
330
E3
100
AcDbEntity
  8
@__WIDOCZNE
  6
Continuous
370
    13
100
AcDbLine
 10
-1101.929126877857
 20
1726.646625979031
 30
0.0
 11
-1097.886079448136
 21
1731.874989465361
 31
0.0
  0
LINE
  5
1AB
330
E3
100
AcDbEntity
  8
@__WIDOCZNE
  6
Continuous
370
    13
100
AcDbLine
 10
-1097.886079448136
 20
1731.874989465361
 30
0.0
 11
-1093.772207249882
 21
1737.047810049975
 31
0.0
  0
LINE
  5
1AC
330
E3
100
AcDbEntity
  8
@__WIDOCZNE
  6
Continuous
370
    13
100
AcDbLine
 10
-1093.772207249882
 20
1737.047810049975
 30
0.0
 11
-1089.588273231931
 21
1742.164128394019
 31
0.0
  0
LINE
  5
1AD
330
E3
100
AcDbEntity
  8
@__WIDOCZNE
  6
Continuous
370
    13
100
AcDbLine
 10
-1089.588273231931
 20
1742.164128394019
 30
0.0
 11
-1088.171473513042
 21
1743.774735240575
 31
0.0
  0
LINE
  5
1AE
330
E3
100
AcDbEntity
  8
@__WIDOCZNE
  6
Continuous
370
    13
100
AcDbLine
 10
-1088.171473513042
 20
1743.774735240575
 30
0.0
 11
-1086.848435526347
 21
1745.463209801646
 31
0.0
  0
LINE
  5
1AF
330
E3
100
AcDbEntity
  8
@__WIDOCZNE
  6
Continuous
370
    13
100
AcDbLine
 10
-1086.848435526347
 20
1745.463209801646
 30
0.0
 11
-1085.623430441623
 21
1747.22410116684
 31
0.0
  0
LINE
  5
1B0
330
E3
100
AcDbEntity
  8
@__WIDOCZNE
  6
Continuous
370
    13
100
AcDbLine
 10
-1085.623430441623
 20
1747.22410116684
 30
0.0
 11
-1084.500412948562
 21
1749.051724642258
 31
0.0
  0
LINE
  5
1B1
330
E3
100
AcDbEntity
  8
@__WIDOCZNE
  6
Continuous
370
    13
100
AcDbLine
 10
-1084.500412948562
 20
1749.051724642258
 30
0.0
 11
-1083.483008489836
 21
1750.940180102411
 31
0.0
  0
LINE
  5
1B2
330
E3
100
AcDbEntity
  8
@__WIDOCZNE
  6
Continuous
370
    13
100
AcDbLine
 10
-1083.483008489836
 20
1750.940180102411
 30
0.0
 11
-1083.444336053358
 21
1751.022895957727
 31
0.0
  0
LINE
  5
1B3
330
E3
100
AcDbEntity
  8
@__WIDOCZNE
  6
Continuous
370
    13
100
AcDbLine
 10
-1180.936039215595
 20
1694.270066779949
 30
0.0
 11
-1178.848766146657
 21
1697.850112192315
 31
0.0
  0
LINE
  5
1B4
330
E3
100
AcDbEntity
  8
@__WIDOCZNE
  6
Continuous
370
    13
100
AcDbLine
 10
-1160.179647512318
 20
1682.99033347608
 30
0.0
 11
-1158.669391705728
 21
1685.511590883163
 31
0.0
  0
LINE
  5
1B5
330
E3
100
AcDbEntity
  8
@__WIDOCZNE
  6
Continuous
370
    13
100
AcDbLine
 10
-1178.848766146657
 20
1697.850112192315
 30
0.0
 11
-1175.911483458181
 21
1702.753682635616
 31
0.0
  0
LINE
  5
1B6
330
E3
100
AcDbEntity
  8
@__WIDOCZNE
  6
Continuous
370
    13
100
AcDbLine
 10
-1158.669391705728
 20
1685.511590883163
 30
0.0
 11
-1155.674245538729
 21
1690.380033357173
 31
0.0
  0
LINE
  5
1B7
330
E3
100
AcDbEntity
  8
@__WIDOCZNE
  6
Continuous
370
    13
100
AcDbLine
 10
-1175.911483458181
 20
1702.753682635616
 30
0.0
 11
-1172.916337291181
 21
1707.622125109626
 31
0.0
  0
LINE
  5
1B8
330
E3
100
AcDbEntity
  8
@__WIDOCZNE
  6
Continuous
370
    13
100
AcDbLine
 10
-1155.674245538729
 20
1690.380033357173
 30
0.0
 11
-1152.621655945922
 21
1695.212665089711
 31
0.0
  0
LINE
  5
1B9
330
E3
100
AcDbEntity
  8
@__WIDOCZNE
  6
Continuous
370
    13
100
AcDbLine
 10
-1172.916337291181
 20
1707.622125109626
 30
0.0
 11
-1169.863747698375
 21
1712.454756842163
 31
0.0
  0
LINE
  5
1BA
330
E3
100
AcDbEntity
  8
@__WIDOCZNE
  6
Continuous
370
    13
100
AcDbLine
 10
-1152.621655945922
 20
1695.212665089711
 30
0.0
 11
-1149.512051036148
 21
1700.008808330852
 31
0.0
  0
LINE
  5
1BB
330
E3
100
AcDbEntity
  8
@__WIDOCZNE
  6
Continuous
370
    13
100
AcDbLine
 10
-1169.863747698375
 20
1712.454756842163
 30
0.0
 11
-1166.754142788601
 21
1717.250900083305
 31
0.0
  0
LINE
  5
1BC
330
E3
100
AcDbEntity
  8
@__WIDOCZNE
  6
Continuous
370
    13
100
AcDbLine
 10
-1132.121185396049
 20
1682.99033347608
 30
0.0
 11
-1129.103775161876
 21
1687.525698695531
 31
0.0
  0
LINE
  5
1BD
330
E3
100
AcDbEntity
  8
@__WIDOCZNE
  6
Continuous
370
    13
100
AcDbLine
 10
-1149.512051036148
 20
1700.008808330852
 30
0.0
 11
-1146.345866914329
 21
1704.767790447984
 31
0.0
  0
LINE
  5
1BE
330
E3
100
AcDbEntity
  8
@__WIDOCZNE
  6
Continuous
370
    13
100
AcDbLine
 10
-1166.754142788601
 20
1717.250900083305
 30
0.0
 11
-1163.587958666782
 21
1722.009882200436
 31
0.0
  0
LINE
  5
1BF
330
E3
100
AcDbEntity
  8
@__WIDOCZNE
  6
Continuous
370
    13
100
AcDbLine
 10
-1183.454775879767
 20
1735.306839668696
 30
0.0
 11
-1180.830050419235
 21
1739.251973952889
 31
0.0
  0
LINE
  5
1C0
330
E3
100
AcDbEntity
  8
@__WIDOCZNE
  6
Continuous
370
    13
100
AcDbLine
 10
-1129.103775161876
 20
1687.525698695531
 30
0.0
 11
-1125.881455867858
 21
1692.246852267682
 31
0.0
  0
LINE
  5
1C1
330
E3
100
AcDbEntity
  8
@__WIDOCZNE
  6
Continuous
370
    13
100
AcDbLine
 10
-1146.345866914329
 20
1704.767790447984
 30
0.0
 11
-1143.12354762031
 21
1709.488944020134
 31
0.0
  0
LINE
  5
1C2
330
E3
100
AcDbEntity
  8
@__WIDOCZNE
  6
Continuous
370
    13
100
AcDbLine
 10
-1163.587958666782
 20
1722.009882200436
 30
0.0
 11
-1160.365639372763
 21
1726.731035772587
 31
0.0
  0
LINE
  5
1C3
330
E3
100
AcDbEntity
  8
@__WIDOCZNE
  6
Continuous
370
    13
100
AcDbLine
 10
-1180.830050419235
 20
1739.251973952889
 30
0.0
 11
-1177.607731125216
 21
1743.97312752504
 31
0.0
  0
LINE
  5
1C4
330
E3
100
AcDbEntity
  8
@__WIDOCZNE
  6
Continuous
370
    13
100
AcDbLine
 10
-1100.421775825584
 20
1720.340393449816
 30
0.0
 11
-1098.65848651949
 21
1722.645054635496
 31
0.0
  0
LINE
  5
1C5
330
E3
100
AcDbEntity
  8
@__WIDOCZNE
  6
Continuous
370
    13
100
AcDbLine
 10
-1117.663867578037
 20
1737.582485202268
 30
0.0
 11
-1117.110404185139
 21
1738.305875059451
 31
0.0
  0
LINE
  5
1C6
330
E3
100
AcDbEntity
  8
@__WIDOCZNE
  6
Continuous
370
    13
100
AcDbLine
 10
-1098.65848651949
 20
1722.645054635496
 30
0.0
 11
-1096.874453889538
 21
1724.933696139321
 31
0.0
  0
LINE
  5
1C7
330
E3
100
AcDbEntity
  8
@__WIDOCZNE
  6
Continuous
370
    13
100
AcDbLine
 10
-1096.874453889538
 20
1724.933696139321
 30
0.0
 11
-1095.069823468395
 21
1727.206131265094
 31
0.0
  0
LINE
  5
1C8
330
E3
100
AcDbEntity
  8
@__WIDOCZNE
  6
Continuous
370
    13
100
AcDbLine
 10
-1095.069823468395
 20
1727.206131265094
 30
0.0
 11
-1093.244742468997
 21
1729.462174638659
 31
0.0
  0
LINE
  5
1C9
330
E3
100
AcDbEntity
  8
@__WIDOCZNE
  6
Continuous
370
    13
100
AcDbLine
 10
-1093.244742468997
 20
1729.462174638659
 30
0.0
 11
-1091.39935977254
 21
1731.701642223014
 31
0.0
  0
LINE
  5
1CA
330
E3
100
AcDbEntity
  8
@__WIDOCZNE
  6
Continuous
370
    13
100
AcDbLine
 10
-1091.39935977254
 20
1731.701642223014
 30
0.0
 11
-1089.533825916328
 21
1733.924351333333
 31
0.0
  0
LINE
  5
1CB
330
E3
100
AcDbEntity
  8
@__WIDOCZNE
  6
Continuous
370
    13
100
AcDbLine
 10
-1089.533825916328
 20
1733.924351333333
 30
0.0
 11
-1087.648293081503
 21
1736.130120651861
 31
0.0
  0
LINE
  5
1CC
330
E3
100
AcDbEntity
  8
@__WIDOCZNE
  6
Continuous
370
    13
100
AcDbLine
 10
-1105.679629867105
 20
1752.448923004751
 30
0.0
 11
-1104.890384833956
 21
1753.372212404314
 31
0.0
  0
LINE
  5
1CD
330
E3
100
AcDbEntity
  8
@__WIDOCZNE
  6
Continuous
370
    13
100
AcDbLine
 10
-1087.648293081503
 20
1736.130120651861
 30
0.0
 11
-1085.742915080625
 21
1738.318770242713
 31
0.0
  0
LINE
  5
1CE
330
E3
100
AcDbEntity
  8
@__WIDOCZNE
  6
Continuous
370
    13
100
AcDbLine
 10
-1104.890384833956
 20
1753.372212404314
 30
0.0
 11
-1102.985006833077
 21
1755.560861995165
 31
0.0
  0
LINE
  5
1CF
330
E3
100
AcDbEntity
  8
@__WIDOCZNE
  6
Continuous
370
    13
100
AcDbLine
 10
-1085.742915080625
 20
1738.318770242713
 30
0.0
 11
-1083.444336053358
 21
1740.594020156026
 31
0.0
  0
LINE
  5
1D0
330
E3
100
AcDbEntity
  8
@__WIDOCZNE
  6
Continuous
370
    13
100
AcDbLine
 10
-1102.985006833077
 20
1755.560861995165
 30
0.0
 11
-1102.670965553014
 21
1755.871715956141
 31
0.0
  0
LINE
  5
1D1
330
E3
100
AcDbEntity
  8
@__WIDOCZNE
  6
Continuous
370
    13
100
AcDbLine
 10
-1177.876326947831
 20
1682.99033347608
 30
0.0
 11
-1175.646995026257
 21
1686.792155697367
 31
0.0
  0
LINE
  5
1D2
330
E3
100
AcDbEntity
  8
@__WIDOCZNE
  6
Continuous
370
    13
100
AcDbLine
 10
-1175.646995026257
 20
1686.792155697367
 30
0.0
 11
-1173.656617477172
 21
1690.756413560301
 31
0.0
  0
LINE
  5
1D3
330
E3
100
AcDbEntity
  8
@__WIDOCZNE
  6
Continuous
370
    13
100
AcDbLine
 10
-1173.656617477172
 20
1690.756413560301
 30
0.0
 11
-1171.928091964882
 21
1694.841648283679
 31
0.0
  0
LINE
  5
1D4
330
E3
100
AcDbEntity
  8
@__WIDOCZNE
  6
Continuous
370
    13
100
AcDbLine
 10
-1171.928091964882
 20
1694.841648283679
 30
0.0
 11
-1170.468727378172
 21
1699.030585881064
 31
0.0
  0
LINE
  5
1D5
330
E3
100
AcDbEntity
  8
@__WIDOCZNE
  6
Continuous
370
    13
100
AcDbLine
 10
-1170.468727378172
 20
1699.030585881064
 30
0.0
 11
-1170.220086957852
 21
1699.780205070327
 31
0.0
  0
LINE
  5
1D6
330
E3
100
AcDbEntity
  8
@__WIDOCZNE
  6
Continuous
370
    13
100
AcDbLine
 10
-1152.810161480114
 20
1682.99033347608
 30
0.0
 11
-1152.703197239375
 21
1683.278543642345
 31
0.0
  0
LINE
  5
1D7
330
E3
100
AcDbEntity
  8
@__WIDOCZNE
  6
Continuous
370
    13
100
AcDbLine
 10
-1170.220086957852
 20
1699.780205070327
 30
0.0
 11
-1169.945288991828
 21
1700.520635394798
 31
0.0
  0
LINE
  5
1D8
330
E3
100
AcDbEntity
  8
@__WIDOCZNE
  6
Continuous
370
    13
100
AcDbLine
 10
-1152.703197239375
 20
1683.278543642345
 30
0.0
 11
-1152.402580362984
 21
1684.00887266488
 31
0.0
  0
LINE
  5
1D9
330
E3
100
AcDbEntity
  8
@__WIDOCZNE
  6
Continuous
370
    13
100
AcDbLine
 10
-1169.945288991828
 20
1700.520635394798
 30
0.0
 11
-1169.644672115436
 21
1701.250964417333
 31
0.0
  0
LINE
  5
1DA
330
E3
100
AcDbEntity
  8
@__WIDOCZNE
  6
Continuous
370
    13
100
AcDbLine
 10
-1152.402580362984
 20
1684.00887266488
 30
0.0
 11
-1152.076515028373
 21
1684.728200396233
 31
0.0
  0
LINE
  5
1DB
330
E3
100
AcDbEntity
  8
@__WIDOCZNE
  6
Continuous
370
    13
100
AcDbLine
 10
-1169.644672115436
 20
1701.250964417333
 30
0.0
 11
-1169.318606780826
 21
1701.970292148686
 31
0.0
  0
LINE
  5
1DC
330
E3
100
AcDbEntity
  8
@__WIDOCZNE
  6
Continuous
370
    13
100
AcDbLine
 10
-1152.076515028373
 20
1684.728200396233
 30
0.0
 11
-1151.725403047995
 21
1685.435640404123
 31
0.0
  0
LINE
  5
1DD
330
E3
100
AcDbEntity
  8
@__WIDOCZNE
  6
Continuous
370
    13
100
AcDbLine
 10
-1169.318606780826
 20
1701.970292148686
 30
0.0
 11
-1168.967494800448
 21
1702.677732156575
 31
0.0
  0
LINE
  5
1DE
330
E3
100
AcDbEntity
  8
@__WIDOCZNE
  6
Continuous
370
    13
100
AcDbLine
 10
-1151.725403047995
 20
1685.435640404123
 30
0.0
 11
-1151.349677099445
 21
1686.130320905586
 31
0.0
  0
LINE
  5
1DF
330
E3
100
AcDbEntity
  8
@__WIDOCZNE
  6
Continuous
370
    13
100
AcDbLine
 10
-1168.967494800448
 20
1702.677732156575
 30
0.0
 11
-1168.591768851898
 21
1703.372412658039
 31
0.0
  0
LINE
  5
1E0
330
E3
100
AcDbEntity
  8
@__WIDOCZNE
  6
Continuous
370
    13
100
AcDbLine
 10
-1151.349677099445
 20
1686.130320905586
 30
0.0
 11
-1150.949800192275
 21
1686.811385841286
 31
0.0
  0
LINE
  5
1E1
330
E3
100
AcDbEntity
  8
@__WIDOCZNE
  6
Continuous
370
    13
100
AcDbLine
 10
-1168.591768851898
 20
1703.372412658039
 30
0.0
 11
-1168.191891944727
 21
1704.053477593738
 31
0.0
  0
LINE
  5
1E2
330
E3
100
AcDbEntity
  8
@__WIDOCZNE
  6
Continuous
370
    13
100
AcDbLine
 10
-1150.949800192275
 20
1686.811385841286
 30
0.0
 11
-1150.526265097419
 21
1687.477995930433
 31
0.0
  0
LINE
  5
1E3
330
E3
100
AcDbEntity
  8
@__WIDOCZNE
  6
Continuous
370
    13
100
AcDbLine
 10
-1168.191891944727
 20
1704.053477593738
 30
0.0
 11
-1167.768356849872
 21
1704.720087682886
 31
0.0
  0
LINE
  5
1E4
330
E3
100
AcDbEntity
  8
@__WIDOCZNE
  6
Continuous
370
    13
100
AcDbLine
 10
-1150.526265097419
 20
1687.477995930433
 30
0.0
 11
-1149.15358316555
 21
1689.761089457374
 31
0.0
  0
LINE
  5
1E5
330
E3
100
AcDbEntity
  8
@__WIDOCZNE
  6
Continuous
370
    13
100
AcDbLine
 10
-1167.768356849872
 20
1704.720087682886
 30
0.0
 11
-1166.395674918003
 21
1707.003181209827
 31
0.0
  0
LINE
  5
1E6
330
E3
100
AcDbEntity
  8
@__WIDOCZNE
  6
Continuous
370
    13
100
AcDbLine
 10
-1149.15358316555
 20
1689.761089457374
 30
0.0
 11
-1147.764787086275
 21
1692.034416796105
 31
0.0
  0
LINE
  5
1E7
330
E3
100
AcDbEntity
  8
@__WIDOCZNE
  6
Continuous
370
    13
100
AcDbLine
 10
-1166.395674918003
 20
1707.003181209827
 30
0.0
 11
-1165.006878838728
 21
1709.276508548558
 31
0.0
  0
LINE
  5
1E8
330
E3
100
AcDbEntity
  8
@__WIDOCZNE
  6
Continuous
370
    13
100
AcDbLine
 10
-1183.451029007741
 20
1724.550944788515
 30
0.0
 11
-1182.248970591181
 21
1726.518600301011
 31
0.0
  0
LINE
  5
1E9
330
E3
100
AcDbEntity
  8
@__WIDOCZNE
  6
Continuous
370
    13
100
AcDbLine
 10
-1147.764787086275
 20
1692.034416796105
 30
0.0
 11
-1146.359946339632
 21
1694.297864214404
 31
0.0
  0
LINE
  5
1EA
330
E3
100
AcDbEntity
  8
@__WIDOCZNE
  6
Continuous
370
    13
100
AcDbLine
 10
-1165.006878838728
 20
1709.276508548558
 30
0.0
 11
-1163.602038092084
 21
1711.539955966857
 31
0.0
  0
LINE
  5
1EB
330
E3
100
AcDbEntity
  8
@__WIDOCZNE
  6
Continuous
370
    13
100
AcDbLine
 10
-1182.248970591181
 20
1726.518600301011
 30
0.0
 11
-1180.844129844537
 21
1728.78204771931
 31
0.0
  0
LINE
  5
1EC
330
E3
100
AcDbEntity
  8
@__WIDOCZNE
  6
Continuous
370
    13
100
AcDbLine
 10
-1146.359946339632
 20
1694.297864214404
 30
0.0
 11
-1144.939131208353
 21
1696.551318474327
 31
0.0
  0
LINE
  5
1ED
330
E3
100
AcDbEntity
  8
@__WIDOCZNE
  6
Continuous
370
    13
100
AcDbLine
 10
-1163.602038092084
 20
1711.539955966857
 30
0.0
 11
-1162.181222960806
 21
1713.79341022678
 31
0.0
  0
LINE
  5
1EE
330
E3
100
AcDbEntity
  8
@__WIDOCZNE
  6
Continuous
370
    13
100
AcDbLine
 10
-1180.844129844537
 20
1728.78204771931
 30
0.0
 11
-1179.423314713258
 21
1731.035501979233
 31
0.0
  0
LINE
  5
1EF
330
E3
100
AcDbEntity
  8
@__WIDOCZNE
  6
Continuous
370
    13
100
AcDbLine
 10
-1144.939131208353
 20
1696.551318474327
 30
0.0
 11
-1143.502412774358
 21
1698.79466683788
 31
0.0
  0
LINE
  5
1F0
330
E3
100
AcDbEntity
  8
@__WIDOCZNE
  6
Continuous
370
    13
100
AcDbLine
 10
-1162.181222960806
 20
1713.79341022678
 30
0.0
 11
-1160.74450452681
 21
1716.036758590332
 31
0.0
  0
LINE
  5
1F1
330
E3
100
AcDbEntity
  8
@__WIDOCZNE
  6
Continuous
370
    13
100
AcDbLine
 10
-1179.423314713258
 20
1731.035501979233
 30
0.0
 11
-1177.986596279263
 21
1733.278850342785
 31
0.0
  0
LINE
  5
1F2
330
E3
100
AcDbEntity
  8
@__WIDOCZNE
  6
Continuous
370
    13
100
AcDbLine
 10
-1125.325124446559
 20
1682.99033347608
 30
0.0
 11
-1124.807771162736
 21
1683.785705320201
 31
0.0
  0
LINE
  5
1F3
330
E3
100
AcDbEntity
  8
@__WIDOCZNE
  6
Continuous
370
    13
100
AcDbLine
 10
-1143.502412774358
 20
1698.79466683788
 30
0.0
 11
-1142.049862915189
 21
1701.027797072654
 31
0.0
  0
LINE
  5
1F4
330
E3
100
AcDbEntity
  8
@__WIDOCZNE
  6
Continuous
370
    13
100
AcDbLine
 10
-1160.74450452681
 20
1716.036758590332
 30
0.0
 11
-1159.291954667641
 21
1718.269888825106
 31
0.0
  0
LINE
  5
1F5
330
E3
100
AcDbEntity
  8
@__WIDOCZNE
  6
Continuous
370
    13
100
AcDbLine
 10
-1177.986596279263
 20
1733.278850342785
 30
0.0
 11
-1176.534046420094
 21
1735.511980577559
 31
0.0
  0
LINE
  5
1F6
330
E3
100
AcDbEntity
  8
@__WIDOCZNE
  6
Continuous
370
    13
100
AcDbLine
 10
-1124.807771162736
 20
1683.785705320201
 30
0.0
 11
-1123.339462547966
 21
1686.008505704992
 31
0.0
  0
LINE
  5
1F7
330
E3
100
AcDbEntity
  8
@__WIDOCZNE
  6
Continuous
370
    13
100
AcDbLine
 10
-1142.049862915189
 20
1701.027797072654
 30
0.0
 11
-1140.581554300419
 21
1703.250597457445
 31
0.0
  0
LINE
  5
1F8
330
E3
100
AcDbEntity
  8
@__WIDOCZNE
  6
Continuous
370
    13
100
AcDbLine
 10
-1159.291954667641
 20
1718.269888825106
 30
0.0
 11
-1157.823646052872
 21
1720.492689209897
 31
0.0
  0
LINE
  5
1F9
330
E3
100
AcDbEntity
  8
@__WIDOCZNE
  6
Continuous
370
    13
100
AcDbLine
 10
-1176.534046420094
 20
1735.511980577559
 30
0.0
 11
-1175.065737805324
 21
1737.73478096235
 31
0.0
  0
LINE
  5
1FA
330
E3
100
AcDbEntity
  8
@__WIDOCZNE
  6
Continuous
370
    13
100
AcDbLine
 10
-1123.339462547966
 20
1686.008505704992
 30
0.0
 11
-1121.855468635562
 21
1688.220865035386
 31
0.0
  0
LINE
  5
1FB
330
E3
100
AcDbEntity
  8
@__WIDOCZNE
  6
Continuous
370
    13
100
AcDbLine
 10
-1140.581554300419
 20
1703.250597457445
 30
0.0
 11
-1139.097560388015
 21
1705.462956787839
 31
0.0
  0
LINE
  5
1FC
330
E3
100
AcDbEntity
  8
@__WIDOCZNE
  6
Continuous
370
    13
100
AcDbLine
 10
-1157.823646052872
 20
1720.492689209897
 30
0.0
 11
-1156.339652140468
 21
1722.705048540292
 31
0.0
  0
LINE
  5
1FD
330
E3
100
AcDbEntity
  8
@__WIDOCZNE
  6
Continuous
370
    13
100
AcDbLine
 10
-1175.065737805324
 20
1737.73478096235
 30
0.0
 11
-1173.58174389292
 21
1739.947140292745
 31
0.0
  0
LINE
  5
1FE
330
E3
100
AcDbEntity
  8
@__WIDOCZNE
  6
Continuous
370
    13
100
AcDbLine
 10
-1101.335248809108
 20
1667.700645208932
 30
0.0
 11
-1102.072539898003
 21
1665.305874120678
 31
0.0
  0
LINE
  5
1FF
330
E3
100
AcDbEntity
  8
@__WIDOCZNE
  6
Continuous
370
    13
100
AcDbLine
 10
-1118.577340561561
 20
1684.942736961385
 30
0.0
 11
-1119.178437551041
 21
1682.99033347608
 31
0.0
  0
LINE
  5
200
330
E3
100
AcDbEntity
  8
@__WIDOCZNE
  6
Continuous
370
    13
100
AcDbLine
 10
-1135.819432314014
 20
1702.184828713838
 30
0.0
 11
-1137.203539577502
 21
1697.689155149393
 31
0.0
  0
LINE
  5
201
330
E3
100
AcDbEntity
  8
@__WIDOCZNE
  6
Continuous
370
    13
100
AcDbLine
 10
-1153.061524066467
 20
1719.426920466291
 30
0.0
 11
-1154.445631329955
 21
1714.931246901846
 31
0.0
  0
LINE
  5
202
330
E3
100
AcDbEntity
  8
@__WIDOCZNE
  6
Continuous
370
    13
100
AcDbLine
 10
-1170.30361581892
 20
1736.669012218744
 30
0.0
 11
-1171.687723082408
 21
1732.173338654298
 31
0.0
  0
LINE
  5
203
330
E3
100
AcDbEntity
  8
@__WIDOCZNE
  6
Continuous
370
    13
100
AcDbLine
 10
-1137.203539577502
 20
1697.689155149393
 30
0.0
 11
-1138.785347267546
 21
1693.259175674653
 31
0.0
  0
LINE
  5
204
330
E3
100
AcDbEntity
  8
@__WIDOCZNE
  6
Continuous
370
    13
100
AcDbLine
 10
-1154.445631329955
 20
1714.931246901846
 30
0.0
 11
-1156.027439019998
 21
1710.501267427106
 31
0.0
  0
LINE
  5
205
330
E3
100
AcDbEntity
  8
@__WIDOCZNE
  6
Continuous
370
    13
100
AcDbLine
 10
-1171.687723082408
 20
1732.173338654298
 30
0.0
 11
-1173.269530772451
 21
1727.743359179559
 31
0.0
  0
LINE
  5
206
330
E3
100
AcDbEntity
  8
@__WIDOCZNE
  6
Continuous
370
    13
100
AcDbLine
 10
-1138.785347267546
 20
1693.259175674653
 30
0.0
 11
-1140.561752712128
 21
1688.903579571781
 31
0.0
  0
LINE
  5
207
330
E3
100
AcDbEntity
  8
@__WIDOCZNE
  6
Continuous
370
    13
100
AcDbLine
 10
-1156.027439019998
 20
1710.501267427106
 30
0.0
 11
-1157.803844464581
 21
1706.145671324234
 31
0.0
  0
LINE
  5
208
330
E3
100
AcDbEntity
  8
@__WIDOCZNE
  6
Continuous
370
    13
100
AcDbLine
 10
-1173.269530772451
 20
1727.743359179559
 30
0.0
 11
-1175.045936217034
 21
1723.387763076687
 31
0.0
  0
LINE
  5
209
330
E3
100
AcDbEntity
  8
@__WIDOCZNE
  6
Continuous
370
    13
100
AcDbLine
 10
-1140.561752712128
 20
1688.903579571781
 30
0.0
 11
-1142.529271541124
 21
1684.630910222014
 31
0.0
  0
LINE
  5
20A
330
E3
100
AcDbEntity
  8
@__WIDOCZNE
  6
Continuous
370
    13
100
AcDbLine
 10
-1157.803844464581
 20
1706.145671324234
 30
0.0
 11
-1159.771363293577
 21
1701.873001974467
 31
0.0
  0
LINE
  5
20B
330
E3
100
AcDbEntity
  8
@__WIDOCZNE
  6
Continuous
370
    13
100
AcDbLine
 10
-1175.045936217034
 20
1723.387763076687
 30
0.0
 11
-1177.013455046029
 21
1719.115093726919
 31
0.0
  0
LINE
  5
20C
330
E3
100
AcDbEntity
  8
@__WIDOCZNE
  6
Continuous
370
    13
100
AcDbLine
 10
-1142.529271541124
 20
1684.630910222014
 30
0.0
 11
-1143.374706724628
 21
1682.99033347608
 31
0.0
  0
LINE
  5
20D
330
E3
100
AcDbEntity
  8
@__WIDOCZNE
  6
Continuous
370
    13
100
AcDbLine
 10
-1159.771363293577
 20
1701.873001974467
 30
0.0
 11
-1161.926136273243
 21
1697.691640100508
 31
0.0
  0
LINE
  5
20E
330
E3
100
AcDbEntity
  8
@__WIDOCZNE
  6
Continuous
370
    13
100
AcDbLine
 10
-1177.013455046029
 20
1719.115093726919
 30
0.0
 11
-1179.168228025696
 21
1714.933731852961
 31
0.0
  0
LINE
  5
20F
330
E3
100
AcDbEntity
  8
@__WIDOCZNE
  6
Continuous
370
    13
100
AcDbLine
 10
-1161.926136273243
 20
1697.691640100508
 30
0.0
 11
-1164.263936876004
 21
1693.609787327977
 31
0.0
  0
LINE
  5
210
330
E3
100
AcDbEntity
  8
@__WIDOCZNE
  6
Continuous
370
    13
100
AcDbLine
 10
-1179.168228025696
 20
1714.933731852961
 30
0.0
 11
-1181.506028628457
 21
1710.851879080429
 31
0.0
  0
LINE
  5
211
330
E3
100
AcDbEntity
  8
@__WIDOCZNE
  6
Continuous
370
    13
100
AcDbLine
 10
-1164.263936876004
 20
1693.609787327977
 30
0.0
 11
-1166.780179570664
 21
1689.63545009814
 31
0.0
  0
LINE
  5
212
330
E3
100
AcDbEntity
  8
@__WIDOCZNE
  6
Continuous
370
    13
100
AcDbLine
 10
-1181.506028628457
 20
1710.851879080429
 30
0.0
 11
-1183.445189906105
 21
1707.789026329074
 31
0.0
  0
LINE
  5
213
330
E3
100
AcDbEntity
  8
@__WIDOCZNE
  6
Continuous
370
    13
100
AcDbLine
 10
-1166.780179570664
 20
1689.63545009814
 30
0.0
 11
-1169.4699288168
 21
1685.776423963504
 31
0.0
  0
LINE
  5
214
330
E3
100
AcDbEntity
  8
@__WIDOCZNE
  6
Continuous
370
    13
100
AcDbLine
 10
-1131.82675392139
 20
1698.192150321214
 30
0.0
 11
-1132.755431570014
 21
1695.920629322739
 31
0.0
  0
LINE
  5
215
330
E3
100
AcDbEntity
  8
@__WIDOCZNE
  6
Continuous
370
    13
100
AcDbLine
 10
-1149.068845673843
 20
1715.434242073667
 30
0.0
 11
-1149.997523322467
 21
1713.162721075192
 31
0.0
  0
LINE
  5
216
330
E3
100
AcDbEntity
  8
@__WIDOCZNE
  6
Continuous
370
    13
100
AcDbLine
 10
-1166.310937426295
 20
1732.676333826119
 30
0.0
 11
-1167.23961507492
 21
1730.404812827644
 31
0.0
  0
LINE
  5
217
330
E3
100
AcDbEntity
  8
@__WIDOCZNE
  6
Continuous
370
    13
100
AcDbLine
 10
-1132.755431570014
 20
1695.920629322739
 30
0.0
 11
-1133.721066081335
 21
1693.6645708545
 31
0.0
  0
LINE
  5
218
330
E3
100
AcDbEntity
  8
@__WIDOCZNE
  6
Continuous
370
    13
100
AcDbLine
 10
-1149.997523322467
 20
1713.162721075192
 30
0.0
 11
-1150.963157833787
 21
1710.906662606953
 31
0.0
  0
LINE
  5
219
330
E3
100
AcDbEntity
  8
@__WIDOCZNE
  6
Continuous
370
    13
100
AcDbLine
 10
-1167.23961507492
 20
1730.404812827644
 30
0.0
 11
-1168.20524958624
 21
1728.148754359405
 31
0.0
  0
LINE
  5
21A
330
E3
100
AcDbEntity
  8
@__WIDOCZNE
  6
Continuous
370
    13
100
AcDbLine
 10
-1133.721066081335
 20
1693.6645708545
 30
0.0
 11
-1134.723400118569
 21
1691.424576144826
 31
0.0
  0
LINE
  5
21B
330
E3
100
AcDbEntity
  8
@__WIDOCZNE
  6
Continuous
370
    13
100
AcDbLine
 10
-1150.963157833787
 20
1710.906662606953
 30
0.0
 11
-1151.965491871022
 21
1708.666667897279
 31
0.0
  0
LINE
  5
21C
330
E3
100
AcDbEntity
  8
@__WIDOCZNE
  6
Continuous
370
    13
100
AcDbLine
 10
-1168.20524958624
 20
1728.148754359405
 30
0.0
 11
-1169.207583623475
 21
1725.908759649731
 31
0.0
  0
LINE
  5
21D
330
E3
100
AcDbEntity
  8
@__WIDOCZNE
  6
Continuous
370
    13
100
AcDbLine
 10
-1134.723400118569
 20
1691.424576144826
 30
0.0
 11
-1135.762166564696
 21
1689.201242141135
 31
0.0
  0
LINE
  5
21E
330
E3
100
AcDbEntity
  8
@__WIDOCZNE
  6
Continuous
370
    13
100
AcDbLine
 10
-1151.965491871022
 20
1708.666667897279
 30
0.0
 11
-1153.004258317149
 21
1706.443333893588
 31
0.0
  0
LINE
  5
21F
330
E3
100
AcDbEntity
  8
@__WIDOCZNE
  6
Continuous
370
    13
100
AcDbLine
 10
-1169.207583623475
 20
1725.908759649731
 30
0.0
 11
-1170.246350069602
 21
1723.685425646041
 31
0.0
  0
LINE
  5
220
330
E3
100
AcDbEntity
  8
@__WIDOCZNE
  6
Continuous
370
    13
100
AcDbLine
 10
-1135.762166564696
 20
1689.201242141135
 30
0.0
 11
-1136.837088593639
 21
1686.995161350851
 31
0.0
  0
LINE
  5
221
330
E3
100
AcDbEntity
  8
@__WIDOCZNE
  6
Continuous
370
    13
100
AcDbLine
 10
-1153.004258317149
 20
1706.443333893588
 30
0.0
 11
-1154.079180346092
 21
1704.237253103304
 31
0.0
  0
LINE
  5
222
330
E3
100
AcDbEntity
  8
@__WIDOCZNE
  6
Continuous
370
    13
100
AcDbLine
 10
-1170.246350069602
 20
1723.685425646041
 30
0.0
 11
-1171.321272098544
 21
1721.479344855757
 31
0.0
  0
LINE
  5
223
330
E3
100
AcDbEntity
  8
@__WIDOCZNE
  6
Continuous
370
    13
100
AcDbLine
 10
-1136.837088593639
 20
1686.995161350851
 30
0.0
 11
-1137.947879744037
 21
1684.806921683502
 31
0.0
  0
LINE
  5
224
330
E3
100
AcDbEntity
  8
@__WIDOCZNE
  6
Continuous
370
    13
100
AcDbLine
 10
-1154.079180346092
 20
1704.237253103304
 30
0.0
 11
-1155.18997149649
 21
1702.049013435955
 31
0.0
  0
LINE
  5
225
330
E3
100
AcDbEntity
  8
@__WIDOCZNE
  6
Continuous
370
    13
100
AcDbLine
 10
-1171.321272098544
 20
1721.479344855757
 30
0.0
 11
-1172.432063248943
 21
1719.291105188407
 31
0.0
  0
LINE
  5
226
330
E3
100
AcDbEntity
  8
@__WIDOCZNE
  6
Continuous
370
    13
100
AcDbLine
 10
-1137.947879744037
 20
1684.806921683502
 30
0.0
 11
-1138.907625808564
 21
1682.99033347608
 31
0.0
  0
LINE
  5
227
330
E3
100
AcDbEntity
  8
@__WIDOCZNE
  6
Continuous
370
    13
100
AcDbLine
 10
-1155.18997149649
 20
1702.049013435955
 30
0.0
 11
-1156.336335748043
 21
1699.879198046497
 31
0.0
  0
LINE
  5
228
330
E3
100
AcDbEntity
  8
@__WIDOCZNE
  6
Continuous
370
    13
100
AcDbLine
 10
-1172.432063248943
 20
1719.291105188407
 30
0.0
 11
-1173.578427500496
 21
1717.121289798949
 31
0.0
  0
LINE
  5
229
330
E3
100
AcDbEntity
  8
@__WIDOCZNE
  6
Continuous
370
    13
100
AcDbLine
 10
-1156.336335748043
 20
1699.879198046497
 30
0.0
 11
-1157.517967600395
 21
1697.72838517991
 31
0.0
  0
LINE
  5
22A
330
E3
100
AcDbEntity
  8
@__WIDOCZNE
  6
Continuous
370
    13
100
AcDbLine
 10
-1173.578427500496
 20
1717.121289798949
 30
0.0
 11
-1174.760059352847
 21
1714.970476932363
 31
0.0
  0
LINE
  5
22B
330
E3
100
AcDbEntity
  8
@__WIDOCZNE
  6
Continuous
370
    13
100
AcDbLine
 10
-1132.362734675394
 20
1688.399434600006
 30
0.0
 11
-1131.86594187974
 21
1689.192404341253
 31
0.0
  0
LINE
  5
22C
330
E3
100
AcDbEntity
  8
@__WIDOCZNE
  6
Continuous
370
    13
100
AcDbLine
 10
-1149.604826427846
 20
1705.641526352459
 30
0.0
 11
-1149.108033632193
 21
1706.434496093705
 31
0.0
  0
LINE
  5
22D
330
E3
100
AcDbEntity
  8
@__WIDOCZNE
  6
Continuous
370
    13
100
AcDbLine
 10
-1166.846918180299
 20
1722.883618104911
 30
0.0
 11
-1166.350125384646
 21
1723.676587846158
 31
0.0
  0
LINE
  5
22E
330
E3
100
AcDbEntity
  8
@__WIDOCZNE
  6
Continuous
370
    13
100
AcDbLine
 10
-1131.86594187974
 20
1689.192404341253
 30
0.0
 11
-1131.368121789602
 21
1689.984729558698
 31
0.0
  0
LINE
  5
22F
330
E3
100
AcDbEntity
  8
@__WIDOCZNE
  6
Continuous
370
    13
100
AcDbLine
 10
-1149.108033632193
 20
1706.434496093705
 30
0.0
 11
-1148.610213542055
 21
1707.226821311151
 31
0.0
  0
LINE
  5
230
330
E3
100
AcDbEntity
  8
@__WIDOCZNE
  6
Continuous
370
    13
100
AcDbLine
 10
-1166.350125384646
 20
1723.676587846158
 30
0.0
 11
-1165.852305294508
 21
1724.468913063603
 31
0.0
  0
LINE
  5
231
330
E3
100
AcDbEntity
  8
@__WIDOCZNE
  6
Continuous
370
    13
100
AcDbLine
 10
-1183.456805870666
 20
1741.13419874548
 30
0.0
 11
-1183.094397046961
 21
1741.711004816056
 31
0.0
  0
LINE
  5
232
330
E3
100
AcDbEntity
  8
@__WIDOCZNE
  6
Continuous
370
    13
100
AcDbLine
 10
-1131.368121789602
 20
1689.984729558698
 30
0.0
 11
-1130.869275241163
 21
1690.77640892148
 31
0.0
  0
LINE
  5
233
330
E3
100
AcDbEntity
  8
@__WIDOCZNE
  6
Continuous
370
    13
100
AcDbLine
 10
-1148.610213542055
 20
1707.226821311151
 30
0.0
 11
-1148.111366993616
 21
1708.018500673933
 31
0.0
  0
LINE
  5
234
330
E3
100
AcDbEntity
  8
@__WIDOCZNE
  6
Continuous
370
    13
100
AcDbLine
 10
-1165.852305294508
 20
1724.468913063603
 30
0.0
 11
-1165.353458746069
 21
1725.260592426386
 31
0.0
  0
LINE
  5
235
330
E3
100
AcDbEntity
  8
@__WIDOCZNE
  6
Continuous
370
    13
100
AcDbLine
 10
-1183.094397046961
 20
1741.711004816056
 30
0.0
 11
-1182.595550498522
 21
1742.502684178839
 31
0.0
  0
LINE
  5
236
330
E3
100
AcDbEntity
  8
@__WIDOCZNE
  6
Continuous
370
    13
100
AcDbLine
 10
-1130.869275241163
 20
1690.77640892148
 30
0.0
 11
-1130.369403072332
 21
1691.567441099822
 31
0.0
  0
LINE
  5
237
330
E3
100
AcDbEntity
  8
@__WIDOCZNE
  6
Continuous
370
    13
100
AcDbLine
 10
-1148.111366993616
 20
1708.018500673933
 30
0.0
 11
-1147.611494824785
 21
1708.809532852275
 31
0.0
  0
LINE
  5
238
330
E3
100
AcDbEntity
  8
@__WIDOCZNE
  6
Continuous
370
    13
100
AcDbLine
 10
-1165.353458746069
 20
1725.260592426386
 30
0.0
 11
-1164.853586577237
 21
1726.051624604728
 31
0.0
  0
LINE
  5
239
330
E3
100
AcDbEntity
  8
@__WIDOCZNE
  6
Continuous
370
    13
100
AcDbLine
 10
-1182.595550498522
 20
1742.502684178839
 30
0.0
 11
-1182.09567832969
 21
1743.293716357181
 31
0.0
  0
LINE
  5
23A
330
E3
100
AcDbEntity
  8
@__WIDOCZNE
  6
Continuous
370
    13
100
AcDbLine
 10
-1130.369403072332
 20
1691.567441099822
 30
0.0
 11
-1129.868506122739
 21
1692.357824765034
 31
0.0
  0
LINE
  5
23B
330
E3
100
AcDbEntity
  8
@__WIDOCZNE
  6
Continuous
370
    13
100
AcDbLine
 10
-1147.611494824785
 20
1708.809532852275
 30
0.0
 11
-1147.110597875191
 21
1709.599916517486
 31
0.0
  0
LINE
  5
23C
330
E3
100
AcDbEntity
  8
@__WIDOCZNE
  6
Continuous
370
    13
100
AcDbLine
 10
-1164.853586577237
 20
1726.051624604728
 30
0.0
 11
-1164.352689627644
 21
1726.842008269939
 31
0.0
  0
LINE
  5
23D
330
E3
100
AcDbEntity
  8
@__WIDOCZNE
  6
Continuous
370
    13
100
AcDbLine
 10
-1182.09567832969
 20
1743.293716357181
 30
0.0
 11
-1181.594781380097
 21
1744.084100022392
 31
0.0
  0
LINE
  5
23E
330
E3
100
AcDbEntity
  8
@__WIDOCZNE
  6
Continuous
370
    13
100
AcDbLine
 10
-1129.868506122739
 20
1692.357824765034
 30
0.0
 11
-1129.366585233737
 21
1693.147558589514
 31
0.0
  0
LINE
  5
23F
330
E3
100
AcDbEntity
  8
@__WIDOCZNE
  6
Continuous
370
    13
100
AcDbLine
 10
-1147.110597875191
 20
1709.599916517486
 30
0.0
 11
-1146.60867698619
 21
1710.389650341967
 31
0.0
  0
LINE
  5
240
330
E3
100
AcDbEntity
  8
@__WIDOCZNE
  6
Continuous
370
    13
100
AcDbLine
 10
-1164.352689627644
 20
1726.842008269939
 30
0.0
 11
-1163.850768738642
 21
1727.631742094419
 31
0.0
  0
LINE
  5
241
330
E3
100
AcDbEntity
  8
@__WIDOCZNE
  6
Continuous
370
    13
100
AcDbLine
 10
-1181.594781380097
 20
1744.084100022392
 30
0.0
 11
-1181.092860491095
 21
1744.873833846872
 31
0.0
  0
LINE
  5
242
330
E3
100
AcDbEntity
  8
@__WIDOCZNE
  6
Continuous
370
    13
100
AcDbLine
 10
-1129.366585233737
 20
1693.147558589514
 30
0.0
 11
-1128.863641248398
 21
1693.936641246754
 31
0.0
  0
LINE
  5
243
330
E3
100
AcDbEntity
  8
@__WIDOCZNE
  6
Continuous
370
    13
100
AcDbLine
 10
-1146.60867698619
 20
1710.389650341967
 30
0.0
 11
-1146.105733000851
 21
1711.178732999206
 31
0.0
  0
LINE
  5
244
330
E3
100
AcDbEntity
  8
@__WIDOCZNE
  6
Continuous
370
    13
100
AcDbLine
 10
-1163.850768738642
 20
1727.631742094419
 30
0.0
 11
-1163.347824753304
 21
1728.420824751659
 31
0.0
  0
LINE
  5
245
330
E3
100
AcDbEntity
  8
@__WIDOCZNE
  6
Continuous
370
    13
100
AcDbLine
 10
-1181.092860491095
 20
1744.873833846872
 30
0.0
 11
-1180.589916505757
 21
1745.662916504112
 31
0.0
  0
LINE
  5
246
330
E3
100
AcDbEntity
  8
@__WIDOCZNE
  6
Continuous
370
    13
100
AcDbLine
 10
-1128.863641248398
 20
1693.936641246754
 30
0.0
 11
-1128.359675011512
 21
1694.725071411337
 31
0.0
  0
LINE
  5
247
330
E3
100
AcDbEntity
  8
@__WIDOCZNE
  6
Continuous
370
    13
100
AcDbLine
 10
-1146.105733000851
 20
1711.178732999206
 30
0.0
 11
-1145.601766763965
 21
1711.967163163789
 31
0.0
  0
LINE
  5
248
330
E3
100
AcDbEntity
  8
@__WIDOCZNE
  6
Continuous
370
    13
100
AcDbLine
 10
-1163.347824753304
 20
1728.420824751659
 30
0.0
 11
-1162.843858516418
 21
1729.209254916242
 31
0.0
  0
LINE
  5
249
330
E3
100
AcDbEntity
  8
@__WIDOCZNE
  6
Continuous
370
    13
100
AcDbLine
 10
-1180.589916505757
 20
1745.662916504112
 30
0.0
 11
-1180.085950268871
 21
1746.451346668695
 31
0.0
  0
ENDBLK
  5
E5
330
E3
100
AcDbEntity
  8
0
100
AcDbBlockEnd
  0
BLOCK
  5
260
330
25F
100
AcDbEntity
  8
0
100
AcDbBlockBegin
  2
*X3
 70
     1
 10
0.0
 20
0.0
 30
0.0
  3
*X3
  1

  0
HATCH
  5
262
330
25F
100
AcDbEntity
  8
2D - Ogólne
  6
Continuous
370
    13
100
AcDbHatch
 10
0.0
 20
0.0
 30
0.0
210
0.0
220
0.0
230
1.0
  2
SOLID
 70
     1
 71
     0
 91
        1
 92
        2
 72
     0
 73
     1
 93
        4
 10
-1199.999998501233
 20
499.9999959534295
 10
-1199.999998501233
 20
474.9999915900027
 10
-1188.450846589088
 20
474.9999915900027
 10
-1188.450846589088
 20
499.9999959534295
 97
        0
 75
     0
 76
     1
 98
        0
  0
HATCH
  5
264
330
25F
100
AcDbEntity
  8
2D - Ogólne
  6
Continuous
370
    13
100
AcDbHatch
 10
0.0
 20
0.0
 30
0.0
210
0.0
220
0.0
230
1.0
  2
SOLID
 70
     1
 71
     0
 91
        1
 92
        2
 72
     0
 73
     1
 93
        4
 10
-1199.999998501233
 20
599.9999950495364
 10
-1199.999998501233
 20
575.00000904371
 10
-1188.450846589088
 20
575.00000904371
 10
-1188.450846589088
 20
599.9999950495364
 97
        0
 75
     0
 76
     1
 98
        0
  0
HATCH
  5
265
330
25F
100
AcDbEntity
  8
2D - Ogólne
  6
Continuous
370
    13
100
AcDbHatch
 10
0.0
 20
0.0
 30
0.0
210
0.0
220
0.0
230
1.0
  2
SOLID
 70
     1
 71
     0
 91
        1
 92
        2
 72
     0
 73
     1
 93
        4
 10
-1199.999998501233
 20
699.9999941456432
 10
-1199.999998501233
 20
675.0000081398168
 10
-1188.450846589088
 20
675.0000081398168
 10
-1188.450846589088
 20
699.9999941456432
 97
        0
 75
     0
 76
     1
 98
        0
  0
HATCH
  5
266
330
25F
100
AcDbEntity
  8
2D - Ogólne
  6
Continuous
370
    13
100
AcDbHatch
 10
0.0
 20
0.0
 30
0.0
210
0.0
220
0.0
230
1.0
  2
SOLID
 70
     1
 71
     0
 91
        1
 92
        2
 72
     0
 73
     1
 93
        4
 10
-1199.999998501233
 20
799.9999932417501
 10
-1199.999998501233
 20
775.0000072359237
 10
-1188.450846589088
 20
775.0000072359237
 10
-1188.450846589088
 20
799.9999932417501
 97
        0
 75
     0
 76
     1
 98
        0
  0
HATCH
  5
267
330
25F
100
AcDbEntity
  8
2D - Ogólne
  6
Continuous
370
    13
100
AcDbHatch
 10
0.0
 20
0.0
 30
0.0
210
0.0
220
0.0
230
1.0
  2
SOLID
 70
     1
 71
     0
 91
        1
 92
        2
 72
     0
 73
     1
 93
        4
 10
-1199.999998501233
 20
899.9999923378568
 10
-1199.999998501233
 20
875.0000063320305
 10
-1188.450846589088
 20
875.0000063320305
 10
-1188.450846589088
 20
899.9999923378568
 97
        0
 75
     0
 76
     1
 98
        0
  0
HATCH
  5
268
330
25F
100
AcDbEntity
  8
2D - Ogólne
  6
Continuous
370
    13
100
AcDbHatch
 10
0.0
 20
0.0
 30
0.0
210
0.0
220
0.0
230
1.0
  2
SOLID
 70
     1
 71
     0
 91
        1
 92
        2
 72
     0
 73
     1
 93
        4
 10
-1199.999998501233
 20
999.9999914339638
 10
-1199.999998501233
 20
975.0000054281373
 10
-1188.450846589088
 20
975.0000054281373
 10
-1188.450846589088
 20
999.9999914339638
 97
        0
 75
     0
 76
     1
 98
        0
  0
HATCH
  5
269
330
25F
100
AcDbEntity
  8
2D - Ogólne
  6
Continuous
370
    13
100
AcDbHatch
 10
0.0
 20
0.0
 30
0.0
210
0.0
220
0.0
230
1.0
  2
SOLID
 70
     1
 71
     0
 91
        1
 92
        2
 72
     0
 73
     1
 93
        4
 10
-1199.999998501233
 20
1100.000008887671
 10
-1199.999998501233
 20
1075.000004524244
 10
-1188.450846589088
 20
1075.000004524244
 10
-1188.450846589088
 20
1100.000008887671
 97
        0
 75
     0
 76
     1
 98
        0
  0
HATCH
  5
26A
330
25F
100
AcDbEntity
  8
2D - Ogólne
  6
Continuous
370
    13
100
AcDbHatch
 10
0.0
 20
0.0
 30
0.0
210
0.0
220
0.0
230
1.0
  2
SOLID
 70
     1
 71
     0
 91
        1
 92
        2
 72
     0
 73
     1
 93
        4
 10
-1199.999998501233
 20
1200.000007983778
 10
-1199.999998501233
 20
1175.000003620351
 10
-1188.450846589088
 20
1175.000003620351
 10
-1188.450846589088
 20
1200.000007983778
 97
        0
 75
     0
 76
     1
 98
        0
  0
HATCH
  5
26B
330
25F
100
AcDbEntity
  8
2D - Ogólne
  6
Continuous
370
    13
100
AcDbHatch
 10
0.0
 20
0.0
 30
0.0
210
0.0
220
0.0
230
1.0
  2
SOLID
 70
     1
 71
     0
 91
        1
 92
        2
 72
     0
 73
     1
 93
        4
 10
-1199.999998501233
 20
1300.000007079885
 10
-1199.999998501233
 20
1275.000002716458
 10
-1188.450846589088
 20
1275.000002716458
 10
-1188.450846589088
 20
1300.000007079885
 97
        0
 75
     0
 76
     1
 98
        0
  0
HATCH
  5
26C
330
25F
100
AcDbEntity
  8
2D - Ogólne
  6
Continuous
370
    13
100
AcDbHatch
 10
0.0
 20
0.0
 30
0.0
210
0.0
220
0.0
230
1.0
  2
SOLID
 70
     1
 71
     0
 91
        1
 92
        2
 72
     0
 73
     1
 93
        4
 10
-1199.999998501233
 20
1400.000006175992
 10
-1199.999998501233
 20
1375.000001812565
 10
-1188.450846589088
 20
1375.000001812565
 10
-1188.450846589088
 20
1400.000006175992
 97
        0
 75
     0
 76
     1
 98
        0
  0
HATCH
  5
26D
330
25F
100
AcDbEntity
  8
2D - Ogólne
  6
Continuous
370
    13
100
AcDbHatch
 10
0.0
 20
0.0
 30
0.0
210
0.0
220
0.0
230
1.0
  2
SOLID
 70
     1
 71
     0
 91
        1
 92
        2
 72
     0
 73
     1
 93
        4
 10
-1199.999998501233
 20
1500.000005272098
 10
-1199.999998501233
 20
1475.000000908671
 10
-1188.450846589088
 20
1475.000000908671
 10
-1188.450846589088
 20
1500.000005272098
 97
        0
 75
     0
 76
     1
 98
        0
  0
HATCH
  5
26E
330
25F
100
AcDbEntity
  8
2D - Ogólne
  6
Continuous
370
    13
100
AcDbHatch
 10
0.0
 20
0.0
 30
0.0
210
0.0
220
0.0
230
1.0
  2
SOLID
 70
     1
 71
     0
 91
        1
 92
        2
 72
     0
 73
     1
 93
        4
 10
-1199.999998501233
 20
1600.000004368206
 10
-1199.999998501233
 20
1575.000000004778
 10
-1188.450846589088
 20
1575.000000004778
 10
-1188.450846589088
 20
1600.000004368206
 97
        0
 75
     0
 76
     1
 98
        0
  0
HATCH
  5
26F
330
25F
100
AcDbEntity
  8
2D - Ogólne
  6
Continuous
370
    13
100
AcDbHatch
 10
0.0
 20
0.0
 30
0.0
210
0.0
220
0.0
230
1.0
  2
SOLID
 70
     1
 71
     0
 91
        1
 92
        2
 72
     0
 73
     1
 93
        4
 10
-1199.999991273146
 20
499.9999959534295
 10
-1205.45084012522
 20
499.9999959534295
 10
-1205.45084012522
 20
474.9999915900027
 10
-1199.999991273146
 20
474.9999915900027
 97
        0
 75
     0
 76
     1
 98
        0
  0
HATCH
  5
270
330
25F
100
AcDbEntity
  8
2D - Ogólne
  6
Continuous
370
    13
100
AcDbHatch
 10
0.0
 20
0.0
 30
0.0
210
0.0
220
0.0
230
1.0
  2
SOLID
 70
     1
 71
     0
 91
        1
 92
        2
 72
     0
 73
     1
 93
        4
 10
-1199.999991273146
 20
599.9999950495364
 10
-1205.45084012522
 20
599.9999950495364
 10
-1205.45084012522
 20
575.00000904371
 10
-1199.999991273146
 20
575.00000904371
 97
        0
 75
     0
 76
     1
 98
        0
  0
HATCH
  5
271
330
25F
100
AcDbEntity
  8
2D - Ogólne
  6
Continuous
370
    13
100
AcDbHatch
 10
0.0
 20
0.0
 30
0.0
210
0.0
220
0.0
230
1.0
  2
SOLID
 70
     1
 71
     0
 91
        1
 92
        2
 72
     0
 73
     1
 93
        4
 10
-1199.999991273146
 20
699.9999941456432
 10
-1205.45084012522
 20
699.9999941456432
 10
-1205.45084012522
 20
675.0000081398168
 10
-1199.999991273146
 20
675.0000081398168
 97
        0
 75
     0
 76
     1
 98
        0
  0
HATCH
  5
272
330
25F
100
AcDbEntity
  8
2D - Ogólne
  6
Continuous
370
    13
100
AcDbHatch
 10
0.0
 20
0.0
 30
0.0
210
0.0
220
0.0
230
1.0
  2
SOLID
 70
     1
 71
     0
 91
        1
 92
        2
 72
     0
 73
     1
 93
        4
 10
-1199.999991273146
 20
799.9999932417501
 10
-1205.45084012522
 20
799.9999932417501
 10
-1205.45084012522
 20
775.0000072359237
 10
-1199.999991273146
 20
775.0000072359237
 97
        0
 75
     0
 76
     1
 98
        0
  0
HATCH
  5
273
330
25F
100
AcDbEntity
  8
2D - Ogólne
  6
Continuous
370
    13
100
AcDbHatch
 10
0.0
 20
0.0
 30
0.0
210
0.0
220
0.0
230
1.0
  2
SOLID
 70
     1
 71
     0
 91
        1
 92
        2
 72
     0
 73
     1
 93
        4
 10
-1199.999991273146
 20
899.9999923378568
 10
-1205.45084012522
 20
899.9999923378568
 10
-1205.45084012522
 20
875.0000063320305
 10
-1199.999991273146
 20
875.0000063320305
 97
        0
 75
     0
 76
     1
 98
        0
  0
HATCH
  5
274
330
25F
100
AcDbEntity
  8
2D - Ogólne
  6
Continuous
370
    13
100
AcDbHatch
 10
0.0
 20
0.0
 30
0.0
210
0.0
220
0.0
230
1.0
  2
SOLID
 70
     1
 71
     0
 91
        1
 92
        2
 72
     0
 73
     1
 93
        4
 10
-1199.999991273146
 20
999.9999914339638
 10
-1205.45084012522
 20
999.9999914339638
 10
-1205.45084012522
 20
975.0000054281373
 10
-1199.999991273146
 20
975.0000054281373
 97
        0
 75
     0
 76
     1
 98
        0
  0
HATCH
  5
275
330
25F
100
AcDbEntity
  8
2D - Ogólne
  6
Continuous
370
    13
100
AcDbHatch
 10
0.0
 20
0.0
 30
0.0
210
0.0
220
0.0
230
1.0
  2
SOLID
 70
     1
 71
     0
 91
        1
 92
        2
 72
     0
 73
     1
 93
        4
 10
-1199.999991273146
 20
1100.000008887671
 10
-1205.45084012522
 20
1100.000008887671
 10
-1205.45084012522
 20
1075.000004524244
 10
-1199.999991273146
 20
1075.000004524244
 97
        0
 75
     0
 76
     1
 98
        0
  0
HATCH
  5
276
330
25F
100
AcDbEntity
  8
2D - Ogólne
  6
Continuous
370
    13
100
AcDbHatch
 10
0.0
 20
0.0
 30
0.0
210
0.0
220
0.0
230
1.0
  2
SOLID
 70
     1
 71
     0
 91
        1
 92
        2
 72
     0
 73
     1
 93
        4
 10
-1199.999991273146
 20
1200.000007983778
 10
-1205.45084012522
 20
1200.000007983778
 10
-1205.45084012522
 20
1175.000003620351
 10
-1199.999991273146
 20
1175.000003620351
 97
        0
 75
     0
 76
     1
 98
        0
  0
HATCH
  5
277
330
25F
100
AcDbEntity
  8
2D - Ogólne
  6
Continuous
370
    13
100
AcDbHatch
 10
0.0
 20
0.0
 30
0.0
210
0.0
220
0.0
230
1.0
  2
SOLID
 70
     1
 71
     0
 91
        1
 92
        2
 72
     0
 73
     1
 93
        4
 10
-1199.999991273146
 20
1300.000007079885
 10
-1205.45084012522
 20
1300.000007079885
 10
-1205.45084012522
 20
1275.000002716458
 10
-1199.999991273146
 20
1275.000002716458
 97
        0
 75
     0
 76
     1
 98
        0
  0
HATCH
  5
278
330
25F
100
AcDbEntity
  8
2D - Ogólne
  6
Continuous
370
    13
100
AcDbHatch
 10
0.0
 20
0.0
 30
0.0
210
0.0
220
0.0
230
1.0
  2
SOLID
 70
     1
 71
     0
 91
        1
 92
        2
 72
     0
 73
     1
 93
        4
 10
-1199.999991273146
 20
1400.000006175992
 10
-1205.45084012522
 20
1400.000006175992
 10
-1205.45084012522
 20
1375.000001812565
 10
-1199.999991273146
 20
1375.000001812565
 97
        0
 75
     0
 76
     1
 98
        0
  0
HATCH
  5
279
330
25F
100
AcDbEntity
  8
2D - Ogólne
  6
Continuous
370
    13
100
AcDbHatch
 10
0.0
 20
0.0
 30
0.0
210
0.0
220
0.0
230
1.0
  2
SOLID
 70
     1
 71
     0
 91
        1
 92
        2
 72
     0
 73
     1
 93
        4
 10
-1199.999991273146
 20
1500.000005272098
 10
-1205.45084012522
 20
1500.000005272098
 10
-1205.45084012522
 20
1475.000000908671
 10
-1199.999991273146
 20
1475.000000908671
 97
        0
 75
     0
 76
     1
 98
        0
  0
HATCH
  5
27A
330
25F
100
AcDbEntity
  8
2D - Ogólne
  6
Continuous
370
    13
100
AcDbHatch
 10
0.0
 20
0.0
 30
0.0
210
0.0
220
0.0
230
1.0
  2
SOLID
 70
     1
 71
     0
 91
        1
 92
        2
 72
     0
 73
     1
 93
        4
 10
-1199.999991273146
 20
1600.000004368206
 10
-1205.45084012522
 20
1600.000004368206
 10
-1205.45084012522
 20
1575.000000004778
 10
-1199.999991273146
 20
1575.000000004778
 97
        0
 75
     0
 76
     1
 98
        0
  0
HATCH
  5
27B
330
25F
100
AcDbEntity
  8
2D - Ogólne
  6
Continuous
370
    13
100
AcDbHatch
 10
0.0
 20
0.0
 30
0.0
210
0.0
220
0.0
230
1.0
  2
SOLID
 70
     1
 71
     0
 91
        1
 92
        2
 72
     0
 73
     1
 93
        4
 10
-1199.99999801589
 20
424.9999933266215
 10
-1199.99999801589
 20
423.1686485946101
 10
-1188.450844410068
 20
423.1686485946101
 10
-1188.450844410068
 20
424.9999933266215
 97
        0
 75
     0
 76
     1
 98
        0
  0
HATCH
  5
27C
330
25F
100
AcDbEntity
  8
2D - Ogólne
  6
Continuous
370
    13
100
AcDbHatch
 10
0.0
 20
0.0
 30
0.0
210
0.0
220
0.0
230
1.0
  2
SOLID
 70
     1
 71
     0
 91
        1
 92
        2
 72
     0
 73
     1
 93
        4
 10
-1199.999998501233
 20
525.0000003168564
 10
-1199.999998501233
 20
499.9999959534295
 10
-1188.450846589088
 20
499.9999959534295
 10
-1188.450846589088
 20
525.0000003168564
 97
        0
 75
     0
 76
     1
 98
        0
  0
HATCH
  5
27D
330
25F
100
AcDbEntity
  8
2D - Ogólne
  6
Continuous
370
    13
100
AcDbHatch
 10
0.0
 20
0.0
 30
0.0
210
0.0
220
0.0
230
1.0
  2
SOLID
 70
     1
 71
     0
 91
        1
 92
        2
 72
     0
 73
     1
 93
        4
 10
-1199.999998501233
 20
624.9999994129631
 10
-1199.999998501233
 20
599.9999950495364
 10
-1188.450846589088
 20
599.9999950495364
 10
-1188.450846589088
 20
624.9999994129631
 97
        0
 75
     0
 76
     1
 98
        0
  0
HATCH
  5
27E
330
25F
100
AcDbEntity
  8
2D - Ogólne
  6
Continuous
370
    13
100
AcDbHatch
 10
0.0
 20
0.0
 30
0.0
210
0.0
220
0.0
230
1.0
  2
SOLID
 70
     1
 71
     0
 91
        1
 92
        2
 72
     0
 73
     1
 93
        4
 10
-1199.999998501233
 20
724.99999850907
 10
-1199.999998501233
 20
699.9999941456432
 10
-1188.450846589088
 20
699.9999941456432
 10
-1188.450846589088
 20
724.99999850907
 97
        0
 75
     0
 76
     1
 98
        0
  0
HATCH
  5
27F
330
25F
100
AcDbEntity
  8
2D - Ogólne
  6
Continuous
370
    13
100
AcDbHatch
 10
0.0
 20
0.0
 30
0.0
210
0.0
220
0.0
230
1.0
  2
SOLID
 70
     1
 71
     0
 91
        1
 92
        2
 72
     0
 73
     1
 93
        4
 10
-1199.999998501233
 20
824.999997605177
 10
-1199.999998501233
 20
799.9999932417501
 10
-1188.450846589088
 20
799.9999932417501
 10
-1188.450846589088
 20
824.999997605177
 97
        0
 75
     0
 76
     1
 98
        0
  0
HATCH
  5
280
330
25F
100
AcDbEntity
  8
2D - Ogólne
  6
Continuous
370
    13
100
AcDbHatch
 10
0.0
 20
0.0
 30
0.0
210
0.0
220
0.0
230
1.0
  2
SOLID
 70
     1
 71
     0
 91
        1
 92
        2
 72
     0
 73
     1
 93
        4
 10
-1199.999998501233
 20
924.9999967012837
 10
-1199.999998501233
 20
899.9999923378568
 10
-1188.450846589088
 20
899.9999923378568
 10
-1188.450846589088
 20
924.9999967012837
 97
        0
 75
     0
 76
     1
 98
        0
  0
HATCH
  5
281
330
25F
100
AcDbEntity
  8
2D - Ogólne
  6
Continuous
370
    13
100
AcDbHatch
 10
0.0
 20
0.0
 30
0.0
210
0.0
220
0.0
230
1.0
  2
SOLID
 70
     1
 71
     0
 91
        1
 92
        2
 72
     0
 73
     1
 93
        4
 10
-1199.999998501233
 20
1024.999995797391
 10
-1199.999998501233
 20
999.9999914339638
 10
-1188.450846589088
 20
999.9999914339638
 10
-1188.450846589088
 20
1024.999995797391
 97
        0
 75
     0
 76
     1
 98
        0
  0
HATCH
  5
282
330
25F
100
AcDbEntity
  8
2D - Ogólne
  6
Continuous
370
    13
100
AcDbHatch
 10
0.0
 20
0.0
 30
0.0
210
0.0
220
0.0
230
1.0
  2
SOLID
 70
     1
 71
     0
 91
        1
 92
        2
 72
     0
 73
     1
 93
        4
 10
-1199.999998501233
 20
1124.999994893497
 10
-1199.999998501233
 20
1100.000008887671
 10
-1188.450846589088
 20
1100.000008887671
 10
-1188.450846589088
 20
1124.999994893497
 97
        0
 75
     0
 76
     1
 98
        0
  0
HATCH
  5
283
330
25F
100
AcDbEntity
  8
2D - Ogólne
  6
Continuous
370
    13
100
AcDbHatch
 10
0.0
 20
0.0
 30
0.0
210
0.0
220
0.0
230
1.0
  2
SOLID
 70
     1
 71
     0
 91
        1
 92
        2
 72
     0
 73
     1
 93
        4
 10
-1199.999998501233
 20
1224.999993989604
 10
-1199.999998501233
 20
1200.000007983778
 10
-1188.450846589088
 20
1200.000007983778
 10
-1188.450846589088
 20
1224.999993989604
 97
        0
 75
     0
 76
     1
 98
        0
  0
HATCH
  5
284
330
25F
100
AcDbEntity
  8
2D - Ogólne
  6
Continuous
370
    13
100
AcDbHatch
 10
0.0
 20
0.0
 30
0.0
210
0.0
220
0.0
230
1.0
  2
SOLID
 70
     1
 71
     0
 91
        1
 92
        2
 72
     0
 73
     1
 93
        4
 10
-1199.999998501233
 20
1324.999993085711
 10
-1199.999998501233
 20
1300.000007079885
 10
-1188.450846589088
 20
1300.000007079885
 10
-1188.450846589088
 20
1324.999993085711
 97
        0
 75
     0
 76
     1
 98
        0
  0
HATCH
  5
285
330
25F
100
AcDbEntity
  8
2D - Ogólne
  6
Continuous
370
    13
100
AcDbHatch
 10
0.0
 20
0.0
 30
0.0
210
0.0
220
0.0
230
1.0
  2
SOLID
 70
     1
 71
     0
 91
        1
 92
        2
 72
     0
 73
     1
 93
        4
 10
-1199.999998501233
 20
1424.999992181818
 10
-1199.999998501233
 20
1400.000006175992
 10
-1188.450846589088
 20
1400.000006175992
 10
-1188.450846589088
 20
1424.999992181818
 97
        0
 75
     0
 76
     1
 98
        0
  0
HATCH
  5
286
330
25F
100
AcDbEntity
  8
2D - Ogólne
  6
Continuous
370
    13
100
AcDbHatch
 10
0.0
 20
0.0
 30
0.0
210
0.0
220
0.0
230
1.0
  2
SOLID
 70
     1
 71
     0
 91
        1
 92
        2
 72
     0
 73
     1
 93
        4
 10
-1199.999998501233
 20
1524.999991277925
 10
-1199.999998501233
 20
1500.000005272098
 10
-1188.450846589088
 20
1500.000005272098
 10
-1188.450846589088
 20
1524.999991277925
 97
        0
 75
     0
 76
     1
 98
        0
  0
HATCH
  5
287
330
25F
100
AcDbEntity
  8
2D - Ogólne
  6
Continuous
370
    13
100
AcDbHatch
 10
0.0
 20
0.0
 30
0.0
210
0.0
220
0.0
230
1.0
  2
SOLID
 70
     1
 71
     0
 91
        1
 92
        2
 72
     0
 73
     1
 93
        4
 10
-1199.999998501233
 20
1625.000008731632
 10
-1199.999998501233
 20
1600.000004368206
 10
-1188.450846589088
 20
1600.000004368206
 10
-1188.450846589088
 20
1625.000008731632
 97
        0
 75
     0
 76
     1
 98
        0
  0
HATCH
  5
288
330
25F
100
AcDbEntity
  8
2D - Ogólne
  6
Continuous
370
    13
100
AcDbHatch
 10
0.0
 20
0.0
 30
0.0
210
0.0
220
0.0
230
1.0
  2
SOLID
 70
     1
 71
     0
 91
        1
 92
        2
 72
     0
 73
     1
 93
        4
 10
-1199.999994643917
 20
424.9999933266215
 10
-1205.450843981333
 20
424.9999933266215
 10
-1205.450843981333
 20
423.1686485946101
 10
-1199.999994643917
 20
423.1686485946101
 97
        0
 75
     0
 76
     1
 98
        0
  0
HATCH
  5
289
330
25F
100
AcDbEntity
  8
2D - Ogólne
  6
Continuous
370
    13
100
AcDbHatch
 10
0.0
 20
0.0
 30
0.0
210
0.0
220
0.0
230
1.0
  2
SOLID
 70
     1
 71
     0
 91
        1
 92
        2
 72
     0
 73
     1
 93
        4
 10
-1199.999991273146
 20
525.0000003168564
 10
-1205.45084012522
 20
525.0000003168564
 10
-1205.45084012522
 20
499.9999959534295
 10
-1199.999991273146
 20
499.9999959534295
 97
        0
 75
     0
 76
     1
 98
        0
  0
HATCH
  5
28A
330
25F
100
AcDbEntity
  8
2D - Ogólne
  6
Continuous
370
    13
100
AcDbHatch
 10
0.0
 20
0.0
 30
0.0
210
0.0
220
0.0
230
1.0
  2
SOLID
 70
     1
 71
     0
 91
        1
 92
        2
 72
     0
 73
     1
 93
        4
 10
-1199.999991273146
 20
624.9999994129631
 10
-1205.45084012522
 20
624.9999994129631
 10
-1205.45084012522
 20
599.9999950495364
 10
-1199.999991273146
 20
599.9999950495364
 97
        0
 75
     0
 76
     1
 98
        0
  0
HATCH
  5
28B
330
25F
100
AcDbEntity
  8
2D - Ogólne
  6
Continuous
370
    13
100
AcDbHatch
 10
0.0
 20
0.0
 30
0.0
210
0.0
220
0.0
230
1.0
  2
SOLID
 70
     1
 71
     0
 91
        1
 92
        2
 72
     0
 73
     1
 93
        4
 10
-1199.999991273146
 20
724.99999850907
 10
-1205.45084012522
 20
724.99999850907
 10
-1205.45084012522
 20
699.9999941456432
 10
-1199.999991273146
 20
699.9999941456432
 97
        0
 75
     0
 76
     1
 98
        0
  0
HATCH
  5
28C
330
25F
100
AcDbEntity
  8
2D - Ogólne
  6
Continuous
370
    13
100
AcDbHatch
 10
0.0
 20
0.0
 30
0.0
210
0.0
220
0.0
230
1.0
  2
SOLID
 70
     1
 71
     0
 91
        1
 92
        2
 72
     0
 73
     1
 93
        4
 10
-1199.999991273146
 20
824.999997605177
 10
-1205.45084012522
 20
824.999997605177
 10
-1205.45084012522
 20
799.9999932417501
 10
-1199.999991273146
 20
799.9999932417501
 97
        0
 75
     0
 76
     1
 98
        0
  0
HATCH
  5
28D
330
25F
100
AcDbEntity
  8
2D - Ogólne
  6
Continuous
370
    13
100
AcDbHatch
 10
0.0
 20
0.0
 30
0.0
210
0.0
220
0.0
230
1.0
  2
SOLID
 70
     1
 71
     0
 91
        1
 92
        2
 72
     0
 73
     1
 93
        4
 10
-1199.999991273146
 20
924.9999967012837
 10
-1205.45084012522
 20
924.9999967012837
 10
-1205.45084012522
 20
899.9999923378568
 10
-1199.999991273146
 20
899.9999923378568
 97
        0
 75
     0
 76
     1
 98
        0
  0
HATCH
  5
28E
330
25F
100
AcDbEntity
  8
2D - Ogólne
  6
Continuous
370
    13
100
AcDbHatch
 10
0.0
 20
0.0
 30
0.0
210
0.0
220
0.0
230
1.0
  2
SOLID
 70
     1
 71
     0
 91
        1
 92
        2
 72
     0
 73
     1
 93
        4
 10
-1199.999991273146
 20
1024.999995797391
 10
-1205.45084012522
 20
1024.999995797391
 10
-1205.45084012522
 20
999.9999914339638
 10
-1199.999991273146
 20
999.9999914339638
 97
        0
 75
     0
 76
     1
 98
        0
  0
HATCH
  5
28F
330
25F
100
AcDbEntity
  8
2D - Ogólne
  6
Continuous
370
    13
100
AcDbHatch
 10
0.0
 20
0.0
 30
0.0
210
0.0
220
0.0
230
1.0
  2
SOLID
 70
     1
 71
     0
 91
        1
 92
        2
 72
     0
 73
     1
 93
        4
 10
-1199.999991273146
 20
1124.999994893497
 10
-1205.45084012522
 20
1124.999994893497
 10
-1205.45084012522
 20
1100.000008887671
 10
-1199.999991273146
 20
1100.000008887671
 97
        0
 75
     0
 76
     1
 98
        0
  0
HATCH
  5
290
330
25F
100
AcDbEntity
  8
2D - Ogólne
  6
Continuous
370
    13
100
AcDbHatch
 10
0.0
 20
0.0
 30
0.0
210
0.0
220
0.0
230
1.0
  2
SOLID
 70
     1
 71
     0
 91
        1
 92
        2
 72
     0
 73
     1
 93
        4
 10
-1199.999991273146
 20
1224.999993989604
 10
-1205.45084012522
 20
1224.999993989604
 10
-1205.45084012522
 20
1200.000007983778
 10
-1199.999991273146
 20
1200.000007983778
 97
        0
 75
     0
 76
     1
 98
        0
  0
HATCH
  5
291
330
25F
100
AcDbEntity
  8
2D - Ogólne
  6
Continuous
370
    13
100
AcDbHatch
 10
0.0
 20
0.0
 30
0.0
210
0.0
220
0.0
230
1.0
  2
SOLID
 70
     1
 71
     0
 91
        1
 92
        2
 72
     0
 73
     1
 93
        4
 10
-1199.999991273146
 20
1324.999993085711
 10
-1205.45084012522
 20
1324.999993085711
 10
-1205.45084012522
 20
1300.000007079885
 10
-1199.999991273146
 20
1300.000007079885
 97
        0
 75
     0
 76
     1
 98
        0
  0
HATCH
  5
292
330
25F
100
AcDbEntity
  8
2D - Ogólne
  6
Continuous
370
    13
100
AcDbHatch
 10
0.0
 20
0.0
 30
0.0
210
0.0
220
0.0
230
1.0
  2
SOLID
 70
     1
 71
     0
 91
        1
 92
        2
 72
     0
 73
     1
 93
        4
 10
-1199.999991273146
 20
1424.999992181818
 10
-1205.45084012522
 20
1424.999992181818
 10
-1205.45084012522
 20
1400.000006175992
 10
-1199.999991273146
 20
1400.000006175992
 97
        0
 75
     0
 76
     1
 98
        0
  0
HATCH
  5
293
330
25F
100
AcDbEntity
  8
2D - Ogólne
  6
Continuous
370
    13
100
AcDbHatch
 10
0.0
 20
0.0
 30
0.0
210
0.0
220
0.0
230
1.0
  2
SOLID
 70
     1
 71
     0
 91
        1
 92
        2
 72
     0
 73
     1
 93
        4
 10
-1199.999991273146
 20
1524.999991277925
 10
-1205.45084012522
 20
1524.999991277925
 10
-1205.45084012522
 20
1500.000005272098
 10
-1199.999991273146
 20
1500.000005272098
 97
        0
 75
     0
 76
     1
 98
        0
  0
HATCH
  5
294
330
25F
100
AcDbEntity
  8
2D - Ogólne
  6
Continuous
370
    13
100
AcDbHatch
 10
0.0
 20
0.0
 30
0.0
210
0.0
220
0.0
230
1.0
  2
SOLID
 70
     1
 71
     0
 91
        1
 92
        2
 72
     0
 73
     1
 93
        4
 10
-1199.999991273146
 20
1625.000008731632
 10
-1205.45084012522
 20
1625.000008731632
 10
-1205.45084012522
 20
1600.000004368206
 10
-1199.999991273146
 20
1600.000004368206
 97
        0
 75
     0
 76
     1
 98
        0
  0
ENDBLK
  5
261
330
25F
100
AcDbEntity
  8
0
100
AcDbBlockEnd
  0
BLOCK
  5
2A0
330
29F
100
AcDbEntity
  8
0
100
AcDbBlockBegin
  2
Izolacja cieplna 12_62
 70
     0
 10
-1077.483622645485
 20
1585.125179758693
 30
0.0
  3
Izolacja cieplna 12_62
  1

  0
LINE
  5
2A2
330
29F
100
AcDbEntity
  8
@__WIDOCZNE
  6
Continuous
370
    13
100
AcDbLine
 10
-1080.463537944301
 20
1587.383455677728
 30
0.0
 11
-1084.503798784204
 21
1589.116767245557
 31
0.0
  0
LINE
  5
2A3
330
29F
100
AcDbEntity
  8
@__WIDOCZNE
  6
Continuous
370
    13
100
AcDbLine
 10
-1084.503798784204
 20
1585.300168136108
 30
0.0
 11
-1080.463537944301
 21
1587.033478141853
 31
0.0
  0
LINE
  5
2A4
330
29F
100
AcDbEntity
  8
@__WIDOCZNE
  6
Continuous
370
    13
100
AcDbLine
 10
-1080.463537944301
 20
1591.550122344395
 30
0.0
 11
-1084.503798784204
 21
1593.283433912223
 31
0.0
  0
LINE
  5
2A5
330
29F
100
AcDbEntity
  8
@__WIDOCZNE
  6
Continuous
370
    13
100
AcDbLine
 10
-1084.503798784204
 20
1589.466834802775
 30
0.0
 11
-1080.463537944301
 21
1591.20014480852
 31
0.0
  0
LINE
  5
2A6
330
29F
100
AcDbEntity
  8
@__WIDOCZNE
  6
Continuous
370
    13
100
AcDbLine
 10
-1080.463537944301
 20
1595.716789011062
 30
0.0
 11
-1084.503798784204
 21
1597.45010057889
 31
0.0
  0
LINE
  5
2A7
330
29F
100
AcDbEntity
  8
@__WIDOCZNE
  6
Continuous
370
    13
100
AcDbLine
 10
-1084.503798784204
 20
1593.633501469441
 30
0.0
 11
-1080.463537944301
 21
1595.366811475187
 31
0.0
  0
LINE
  5
2A8
330
29F
100
AcDbEntity
  8
@__WIDOCZNE
  6
Continuous
370
    13
100
AcDbLine
 10
-1080.463537944301
 20
1599.883455677728
 30
0.0
 11
-1084.503798784204
 21
1601.616767245557
 31
0.0
  0
LINE
  5
2A9
330
29F
100
AcDbEntity
  8
@__WIDOCZNE
  6
Continuous
370
    13
100
AcDbLine
 10
-1084.503798784204
 20
1597.800168136108
 30
0.0
 11
-1080.463537944301
 21
1599.533478141853
 31
0.0
  0
LINE
  5
2AA
330
29F
100
AcDbEntity
  8
@__WIDOCZNE
  6
Continuous
370
    13
100
AcDbLine
 10
-1080.463537944301
 20
1604.050122344395
 30
0.0
 11
-1084.503798784204
 21
1605.783433912223
 31
0.0
  0
LINE
  5
2AB
330
29F
100
AcDbEntity
  8
@__WIDOCZNE
  6
Continuous
370
    13
100
AcDbLine
 10
-1084.503798784204
 20
1601.966834802775
 30
0.0
 11
-1080.463537944301
 21
1603.70014480852
 31
0.0
  0
LINE
  5
2AC
330
29F
100
AcDbEntity
  8
@__WIDOCZNE
  6
Continuous
370
    13
100
AcDbLine
 10
-1080.463537944301
 20
1608.216789011062
 30
0.0
 11
-1084.503798784204
 21
1609.95010057889
 31
0.0
  0
LINE
  5
2AD
330
29F
100
AcDbEntity
  8
@__WIDOCZNE
  6
Continuous
370
    13
100
AcDbLine
 10
-1084.503798784204
 20
1606.133501469441
 30
0.0
 11
-1080.463537944301
 21
1607.866811475187
 31
0.0
  0
LINE
  5
2AE
330
29F
100
AcDbEntity
  8
@__WIDOCZNE
  6
Continuous
370
    13
100
AcDbLine
 10
-1080.463537944301
 20
1612.383455677728
 30
0.0
 11
-1084.503798784204
 21
1614.116767245557
 31
0.0
  0
LINE
  5
2AF
330
29F
100
AcDbEntity
  8
@__WIDOCZNE
  6
Continuous
370
    13
100
AcDbLine
 10
-1084.503798784204
 20
1610.300168136108
 30
0.0
 11
-1080.463537944301
 21
1612.033478141853
 31
0.0
  0
LINE
  5
2B0
330
29F
100
AcDbEntity
  8
@__WIDOCZNE
  6
Continuous
370
    13
100
AcDbLine
 10
-1080.463537944301
 20
1616.550122344395
 30
0.0
 11
-1084.503798784204
 21
1618.283433912223
 31
0.0
  0
LINE
  5
2B1
330
29F
100
AcDbEntity
  8
@__WIDOCZNE
  6
Continuous
370
    13
100
AcDbLine
 10
-1084.503798784204
 20
1614.466834802775
 30
0.0
 11
-1080.463537944301
 21
1616.20014480852
 31
0.0
  0
LINE
  5
2B2
330
29F
100
AcDbEntity
  8
@__WIDOCZNE
  6
Continuous
370
    13
100
AcDbLine
 10
-1080.463537944301
 20
1620.716789011062
 30
0.0
 11
-1084.503798784204
 21
1622.45010057889
 31
0.0
  0
LINE
  5
2B3
330
29F
100
AcDbEntity
  8
@__WIDOCZNE
  6
Continuous
370
    13
100
AcDbLine
 10
-1084.503798784204
 20
1618.633501469442
 30
0.0
 11
-1080.463537944301
 21
1620.366811475187
 31
0.0
  0
LINE
  5
2B4
330
29F
100
AcDbEntity
  8
@__WIDOCZNE
  6
Continuous
370
    13
100
AcDbLine
 10
-1080.463537944301
 20
1624.883455677728
 30
0.0
 11
-1084.503798784204
 21
1626.616767245557
 31
0.0
  0
LINE
  5
2B5
330
29F
100
AcDbEntity
  8
@__WIDOCZNE
  6
Continuous
370
    13
100
AcDbLine
 10
-1084.503798784204
 20
1622.800168136108
 30
0.0
 11
-1080.463537944301
 21
1624.533478141853
 31
0.0
  0
LINE
  5
2B6
330
29F
100
AcDbEntity
  8
@__WIDOCZNE
  6
Continuous
370
    13
100
AcDbLine
 10
-1080.463537944301
 20
1629.050122344395
 30
0.0
 11
-1084.503798784204
 21
1630.783433912223
 31
0.0
  0
LINE
  5
2B7
330
29F
100
AcDbEntity
  8
@__WIDOCZNE
  6
Continuous
370
    13
100
AcDbLine
 10
-1084.503798784204
 20
1626.966834802775
 30
0.0
 11
-1080.463537944301
 21
1628.70014480852
 31
0.0
  0
LINE
  5
2B8
330
29F
100
AcDbEntity
  8
@__WIDOCZNE
  6
Continuous
370
    13
100
AcDbLine
 10
-1080.463537944301
 20
1633.216789011062
 30
0.0
 11
-1084.503798784204
 21
1634.95010057889
 31
0.0
  0
LINE
  5
2B9
330
29F
100
AcDbEntity
  8
@__WIDOCZNE
  6
Continuous
370
    13
100
AcDbLine
 10
-1084.503798784204
 20
1631.133501469441
 30
0.0
 11
-1080.463537944301
 21
1632.866811475187
 31
0.0
  0
ELLIPSE
  5
2BA
330
29F
100
AcDbEntity
  8
@__WIDOCZNE
  6
Continuous
370
    13
100
AcDbEllipse
 10
-1079.610357114798
 20
1585.125179758693
 30
0.0
 11
-2.126734668647583
 21
2.604498804594969E-16
 31
0.0
210
0.0
220
0.0
230
1.0
 40
0.9795712451188562
 41
3.141592653589793
 42
5.12518239819812
  0
ELLIPSE
  5
2BB
330
29F
100
AcDbEntity
  8
@__WIDOCZNE
  6
Continuous
370
    13
100
AcDbEllipse
 10
-1085.356980411052
 20
1587.208468862403
 30
0.0
 11
-2.126734668647583
 21
2.604498804594969E-16
 31
0.0
210
0.0
220
0.0
230
1.0
 40
0.9795712451188562
 41
4.299595219146362
 42
8.26677494400426
  0
ELLIPSE
  5
2BC
330
29F
100
AcDbEntity
  8
@__WIDOCZNE
  6
Continuous
370
    13
100
AcDbEllipse
 10
-1079.610357912132
 20
1589.291755622984
 30
0.0
 11
-2.126734668647583
 21
2.604498804594969E-16
 31
0.0
210
0.0
220
0.0
230
1.0
 40
0.9795712451188562
 41
1.158003553206665
 42
5.125182741616072
  0
ELLIPSE
  5
2BD
330
29F
100
AcDbEntity
  8
@__WIDOCZNE
  6
Continuous
370
    13
100
AcDbEllipse
 10
-1085.356980411052
 20
1591.375135529069
 30
0.0
 11
-2.126734668647583
 21
2.604498804594969E-16
 31
0.0
210
0.0
220
0.0
230
1.0
 40
0.9795712451188562
 41
4.299595219146362
 42
8.266774944004302
  0
ELLIPSE
  5
2BE
330
29F
100
AcDbEntity
  8
@__WIDOCZNE
  6
Continuous
370
    13
100
AcDbEllipse
 10
-1079.610357912132
 20
1593.458422289651
 30
0.0
 11
-2.126734668647583
 21
2.604498804594969E-16
 31
0.0
210
0.0
220
0.0
230
1.0
 40
0.9795712451188562
 41
1.158003553206665
 42
5.125182741616072
  0
ELLIPSE
  5
2BF
330
29F
100
AcDbEntity
  8
@__WIDOCZNE
  6
Continuous
370
    13
100
AcDbEllipse
 10
-1085.356980411052
 20
1595.541802195736
 30
0.0
 11
-2.126734668647583
 21
2.604498804594969E-16
 31
0.0
210
0.0
220
0.0
230
1.0
 40
0.9795712451188562
 41
4.299595219146405
 42
8.266774944004302
  0
ELLIPSE
  5
2C0
330
29F
100
AcDbEntity
  8
@__WIDOCZNE
  6
Continuous
370
    13
100
AcDbEllipse
 10
-1079.610357912132
 20
1597.625088956317
 30
0.0
 11
-2.126734668647583
 21
2.604498804594969E-16
 31
0.0
210
0.0
220
0.0
230
1.0
 40
0.9795712451188562
 41
1.158003553206665
 42
5.125182741616072
  0
ELLIPSE
  5
2C1
330
29F
100
AcDbEntity
  8
@__WIDOCZNE
  6
Continuous
370
    13
100
AcDbEllipse
 10
-1085.356980411052
 20
1599.708468862403
 30
0.0
 11
-2.126734668647583
 21
2.604498804594969E-16
 31
0.0
210
0.0
220
0.0
230
1.0
 40
0.9795712451188562
 41
4.299595219146405
 42
8.266774944004302
  0
ELLIPSE
  5
2C2
330
29F
100
AcDbEntity
  8
@__WIDOCZNE
  6
Continuous
370
    13
100
AcDbEllipse
 10
-1079.610357912132
 20
1601.791755622984
 30
0.0
 11
-2.126734668647583
 21
2.604498804594969E-16
 31
0.0
210
0.0
220
0.0
230
1.0
 40
0.9795712451188562
 41
1.158003553206665
 42
5.125182741616072
  0
ELLIPSE
  5
2C3
330
29F
100
AcDbEntity
  8
@__WIDOCZNE
  6
Continuous
370
    13
100
AcDbEllipse
 10
-1085.356980411052
 20
1603.875135529069
 30
0.0
 11
-2.126734668647583
 21
2.604498804594969E-16
 31
0.0
210
0.0
220
0.0
230
1.0
 40
0.9795712451188562
 41
4.299595219146362
 42
8.26677494400426
  0
ELLIPSE
  5
2C4
330
29F
100
AcDbEntity
  8
@__WIDOCZNE
  6
Continuous
370
    13
100
AcDbEllipse
 10
-1079.610357912132
 20
1605.958422289651
 30
0.0
 11
-2.126734668647583
 21
2.604498804594969E-16
 31
0.0
210
0.0
220
0.0
230
1.0
 40
0.9795712451188562
 41
1.158003553206665
 42
5.125182741616072
  0
ELLIPSE
  5
2C5
330
29F
100
AcDbEntity
  8
@__WIDOCZNE
  6
Continuous
370
    13
100
AcDbEllipse
 10
-1085.356980411052
 20
1608.041802195736
 30
0.0
 11
-2.126734668647583
 21
2.604498804594969E-16
 31
0.0
210
0.0
220
0.0
230
1.0
 40
0.9795712451188562
 41
4.299595219146362
 42
8.26677494400426
  0
ELLIPSE
  5
2C6
330
29F
100
AcDbEntity
  8
@__WIDOCZNE
  6
Continuous
370
    13
100
AcDbEllipse
 10
-1079.610357912132
 20
1610.125088956318
 30
0.0
 11
-2.126734668647583
 21
2.604498804594969E-16
 31
0.0
210
0.0
220
0.0
230
1.0
 40
0.9795712451188562
 41
1.158003553206708
 42
5.125182741616115
  0
ELLIPSE
  5
2C7
330
29F
100
AcDbEntity
  8
@__WIDOCZNE
  6
Continuous
370
    13
100
AcDbEllipse
 10
-1085.356980411052
 20
1612.208468862403
 30
0.0
 11
-2.126734668647583
 21
2.604498804594969E-16
 31
0.0
210
0.0
220
0.0
230
1.0
 40
0.9795712451188562
 41
4.299595219146362
 42
8.26677494400426
  0
ELLIPSE
  5
2C8
330
29F
100
AcDbEntity
  8
@__WIDOCZNE
  6
Continuous
370
    13
100
AcDbEllipse
 10
-1079.610357912132
 20
1614.291755622984
 30
0.0
 11
-2.126734668647583
 21
2.604498804594969E-16
 31
0.0
210
0.0
220
0.0
230
1.0
 40
0.9795712451188562
 41
1.158003553206665
 42
5.125182741616072
  0
ELLIPSE
  5
2C9
330
29F
100
AcDbEntity
  8
@__WIDOCZNE
  6
Continuous
370
    13
100
AcDbEllipse
 10
-1085.356980411052
 20
1616.375135529069
 30
0.0
 11
-2.126734668647583
 21
2.604498804594969E-16
 31
0.0
210
0.0
220
0.0
230
1.0
 40
0.9795712451188562
 41
4.299595219146362
 42
8.266774944004302
  0
ELLIPSE
  5
2CA
330
29F
100
AcDbEntity
  8
@__WIDOCZNE
  6
Continuous
370
    13
100
AcDbEllipse
 10
-1079.610357912132
 20
1618.458422289651
 30
0.0
 11
-2.126734668647583
 21
2.604498804594969E-16
 31
0.0
210
0.0
220
0.0
230
1.0
 40
0.9795712451188562
 41
1.158003553206665
 42
5.125182741616072
  0
ELLIPSE
  5
2CB
330
29F
100
AcDbEntity
  8
@__WIDOCZNE
  6
Continuous
370
    13
100
AcDbEllipse
 10
-1085.356980411052
 20
1620.541802195736
 30
0.0
 11
-2.126734668647583
 21
2.604498804594969E-16
 31
0.0
210
0.0
220
0.0
230
1.0
 40
0.9795712451188562
 41
4.299595219146405
 42
8.266774944004302
  0
ELLIPSE
  5
2CC
330
29F
100
AcDbEntity
  8
@__WIDOCZNE
  6
Continuous
370
    13
100
AcDbEllipse
 10
-1079.610357912132
 20
1622.625088956317
 30
0.0
 11
-2.126734668647583
 21
2.604498804594969E-16
 31
0.0
210
0.0
220
0.0
230
1.0
 40
0.9795712451188562
 41
1.158003553206665
 42
5.125182741616072
  0
ELLIPSE
  5
2CD
330
29F
100
AcDbEntity
  8
@__WIDOCZNE
  6
Continuous
370
    13
100
AcDbEllipse
 10
-1085.356980411052
 20
1624.708468862403
 30
0.0
 11
-2.126734668647583
 21
2.604498804594969E-16
 31
0.0
210
0.0
220
0.0
230
1.0
 40
0.9795712451188562
 41
4.299595219146405
 42
8.266774944004302
  0
ELLIPSE
  5
2CE
330
29F
100
AcDbEntity
  8
@__WIDOCZNE
  6
Continuous
370
    13
100
AcDbEllipse
 10
-1079.610357912132
 20
1626.791755622984
 30
0.0
 11
-2.126734668647583
 21
2.604498804594969E-16
 31
0.0
210
0.0
220
0.0
230
1.0
 40
0.9795712451188562
 41
1.158003553206665
 42
5.125182741616072
  0
ELLIPSE
  5
2CF
330
29F
100
AcDbEntity
  8
@__WIDOCZNE
  6
Continuous
370
    13
100
AcDbEllipse
 10
-1085.356980411052
 20
1628.87513552907
 30
0.0
 11
-2.126734668647583
 21
2.604498804594969E-16
 31
0.0
210
0.0
220
0.0
230
1.0
 40
0.9795712451188562
 41
4.299595219146362
 42
8.26677494400426
  0
ELLIPSE
  5
2D0
330
29F
100
AcDbEntity
  8
@__WIDOCZNE
  6
Continuous
370
    13
100
AcDbEllipse
 10
-1079.610357912132
 20
1630.958422289651
 30
0.0
 11
-2.126734668647583
 21
2.604498804594969E-16
 31
0.0
210
0.0
220
0.0
230
1.0
 40
0.9795712451188562
 41
1.158003553206665
 42
5.125182741616072
  0
ELLIPSE
  5
2D1
330
29F
100
AcDbEntity
  8
@__WIDOCZNE
  6
Continuous
370
    13
100
AcDbEllipse
 10
-1085.356980411052
 20
1633.041802195736
 30
0.0
 11
-2.126734668647583
 21
2.604498804594969E-16
 31
0.0
210
0.0
220
0.0
230
1.0
 40
0.9795712451188562
 41
4.299595219146362
 42
8.26677494400426
  0
ELLIPSE
  5
2D2
330
29F
100
AcDbEntity
  8
@__WIDOCZNE
  6
Continuous
370
    13
100
AcDbEllipse
 10
-1079.610357912132
 20
1635.125088956318
 30
0.0
 11
-2.126734668647583
 21
2.604498804594969E-16
 31
0.0
210
0.0
220
0.0
230
1.0
 40
0.9795712451188562
 41
1.158003553206708
 42
3.141592653589793
  0
ENDBLK
  5
2A1
330
29F
100
AcDbEntity
  8
0
100
AcDbBlockEnd
  0
BLOCK
  5
2D5
330
2D4
100
AcDbEntity
  8
0
100
AcDbBlockBegin
  2
Izolacja cieplna 12_60
 70
     0
 10
-933.6616686678157
 20
1452.124790032153
 30
0.0
  3
Izolacja cieplna 12_60
  1

  0
LINE
  5
2D7
330
2D4
100
AcDbEntity
  8
@__WIDOCZNE
  6
Continuous
370
    13
100
AcDbLine
 10
-902.4791021079734
 20
1491.757663506407
 30
0.0
 11
-878.545311344335
 21
1545.493132677126
 31
0.0
  0
LINE
  5
2D8
330
2D4
100
AcDbEntity
  8
@__WIDOCZNE
  6
Continuous
370
    13
100
AcDbLine
 10
-931.2454064741887
 20
1545.493132677126
 30
0.0
 11
-907.3116372799946
 21
1491.757663506407
 31
0.0
  0
LINE
  5
2D9
330
2D4
100
AcDbEntity
  8
@__WIDOCZNE
  6
Continuous
370
    13
100
AcDbLine
 10
-844.9452287797224
 20
1491.757663506407
 30
0.0
 11
-821.0114380160838
 21
1545.493132677126
 31
0.0
  0
LINE
  5
2DA
330
2D4
100
AcDbEntity
  8
@__WIDOCZNE
  6
Continuous
370
    13
100
AcDbLine
 10
-873.7115331459377
 20
1545.493132677126
 30
0.0
 11
-849.7777639517434
 21
1491.757663506407
 31
0.0
  0
LINE
  5
2DB
330
2D4
100
AcDbEntity
  8
@__WIDOCZNE
  6
Continuous
370
    13
100
AcDbLine
 10
-787.4113554514712
 20
1491.757663506407
 30
0.0
 11
-763.4775646878329
 21
1545.493132677126
 31
0.0
  0
LINE
  5
2DC
330
2D4
100
AcDbEntity
  8
@__WIDOCZNE
  6
Continuous
370
    13
100
AcDbLine
 10
-816.1776598176865
 20
1545.493132677126
 30
0.0
 11
-792.2438906234923
 21
1491.757663506407
 31
0.0
  0
LINE
  5
2DD
330
2D4
100
AcDbEntity
  8
@__WIDOCZNE
  6
Continuous
370
    13
100
AcDbLine
 10
-729.8774821232201
 20
1491.757663506407
 30
0.0
 11
-705.9436913595817
 21
1545.493132677126
 31
0.0
  0
LINE
  5
2DE
330
2D4
100
AcDbEntity
  8
@__WIDOCZNE
  6
Continuous
370
    13
100
AcDbLine
 10
-758.6437864894356
 20
1545.493132677126
 30
0.0
 11
-734.7100172952412
 21
1491.757663506407
 31
0.0
  0
LINE
  5
2DF
330
2D4
100
AcDbEntity
  8
@__WIDOCZNE
  6
Continuous
370
    13
100
AcDbLine
 10
-672.343608794969
 20
1491.757663506407
 30
0.0
 11
-648.4098180313307
 21
1545.493132677126
 31
0.0
  0
LINE
  5
2E0
330
2D4
100
AcDbEntity
  8
@__WIDOCZNE
  6
Continuous
370
    13
100
AcDbLine
 10
-701.1099131611844
 20
1545.493132677126
 30
0.0
 11
-677.1761439669901
 21
1491.757663506407
 31
0.0
  0
LINE
  5
2E1
330
2D4
100
AcDbEntity
  8
@__WIDOCZNE
  6
Continuous
370
    13
100
AcDbLine
 10
-614.8097354667179
 20
1491.757663506407
 30
0.0
 11
-590.8759447030795
 21
1545.493132677126
 31
0.0
  0
LINE
  5
2E2
330
2D4
100
AcDbEntity
  8
@__WIDOCZNE
  6
Continuous
370
    13
100
AcDbLine
 10
-643.5760398329334
 20
1545.493132677126
 30
0.0
 11
-619.642270638739
 21
1491.757663506407
 31
0.0
  0
LINE
  5
2E3
330
2D4
100
AcDbEntity
  8
@__WIDOCZNE
  6
Continuous
370
    13
100
AcDbLine
 10
-557.2758621384668
 20
1491.757663506407
 30
0.0
 11
-533.3420713748285
 21
1545.493132677126
 31
0.0
  0
LINE
  5
2E4
330
2D4
100
AcDbEntity
  8
@__WIDOCZNE
  6
Continuous
370
    13
100
AcDbLine
 10
-586.0421665046822
 20
1545.493132677126
 30
0.0
 11
-562.1083973104879
 21
1491.757663506407
 31
0.0
  0
LINE
  5
2E5
330
2D4
100
AcDbEntity
  8
@__WIDOCZNE
  6
Continuous
370
    13
100
AcDbLine
 10
-499.7419888102157
 20
1491.757663506407
 30
0.0
 11
-475.8081980465774
 21
1545.493132677126
 31
0.0
  0
LINE
  5
2E6
330
2D4
100
AcDbEntity
  8
@__WIDOCZNE
  6
Continuous
370
    13
100
AcDbLine
 10
-528.5082931764312
 20
1545.493132677126
 30
0.0
 11
-504.5745239822368
 21
1491.757663506407
 31
0.0
  0
LINE
  5
2E7
330
2D4
100
AcDbEntity
  8
@__WIDOCZNE
  6
Continuous
370
    13
100
AcDbLine
 10
-442.2081154819646
 20
1491.757663506407
 30
0.0
 11
-418.2743247183263
 21
1545.493132677126
 31
0.0
  0
LINE
  5
2E8
330
2D4
100
AcDbEntity
  8
@__WIDOCZNE
  6
Continuous
370
    13
100
AcDbLine
 10
-470.9744198481799
 20
1545.493132677126
 30
0.0
 11
-447.0406506539857
 21
1491.757663506407
 31
0.0
  0
LINE
  5
2E9
330
2D4
100
AcDbEntity
  8
@__WIDOCZNE
  6
Continuous
370
    13
100
AcDbLine
 10
-384.6742421537136
 20
1491.757663506407
 30
0.0
 11
-360.7404513900752
 21
1545.493132677126
 31
0.0
  0
LINE
  5
2EA
330
2D4
100
AcDbEntity
  8
@__WIDOCZNE
  6
Continuous
370
    13
100
AcDbLine
 10
-413.4405465199289
 20
1545.493132677126
 30
0.0
 11
-389.5067773257347
 21
1491.757663506407
 31
0.0
  0
LINE
  5
2EB
330
2D4
100
AcDbEntity
  8
@__WIDOCZNE
  6
Continuous
370
    13
100
AcDbLine
 10
-327.1403688254625
 20
1491.757663506407
 30
0.0
 11
-303.2065780618241
 21
1545.493132677126
 31
0.0
  0
LINE
  5
2EC
330
2D4
100
AcDbEntity
  8
@__WIDOCZNE
  6
Continuous
370
    13
100
AcDbLine
 10
-355.9066731916778
 20
1545.493132677126
 30
0.0
 11
-331.9729039974836
 21
1491.757663506407
 31
0.0
  0
ELLIPSE
  5
2ED
330
2D4
100
AcDbEntity
  8
@__WIDOCZNE
  6
Continuous
370
    13
100
AcDbEllipse
 10
-933.6616686678157
 20
1480.410358474017
 30
0.0
 11
28.76631245480212
 21
0.0
 31
0.0
210
0.0
220
0.0
230
1.0
 40
0.9832880435215804
 41
4.71238898038469
 42
6.695978724992977
  0
ELLIPSE
  5
2EE
330
2D4
100
AcDbEntity
  8
@__WIDOCZNE
  6
Continuous
370
    13
100
AcDbEllipse
 10
-904.8953427320657
 20
1556.840448314201
 30
0.0
 11
28.76631245480212
 21
0.0
 31
0.0
210
0.0
220
0.0
230
1.0
 40
0.9832880435215804
 41
5.870391545941215
 42
9.837571270799234
  0
ELLIPSE
  5
2EF
330
2D4
100
AcDbEntity
  8
@__WIDOCZNE
  6
Continuous
370
    13
100
AcDbEllipse
 10
-876.1290491505363
 20
1480.410369078567
 30
0.0
 11
28.76631245480212
 21
0.0
 31
0.0
210
0.0
220
0.0
230
1.0
 40
0.9832880435215804
 41
2.728799880001602
 42
6.695979068410928
  0
ELLIPSE
  5
2F0
330
2D4
100
AcDbEntity
  8
@__WIDOCZNE
  6
Continuous
370
    13
100
AcDbEllipse
 10
-847.3614694038147
 20
1556.840448314201
 30
0.0
 11
28.76631245480212
 21
0.0
 31
0.0
210
0.0
220
0.0
230
1.0
 40
0.9832880435215804
 41
5.870391545941215
 42
9.837571270799234
  0
ELLIPSE
  5
2F1
330
2D4
100
AcDbEntity
  8
@__WIDOCZNE
  6
Continuous
370
    13
100
AcDbEllipse
 10
-818.5951758222851
 20
1480.410369078567
 30
0.0
 11
28.76631245480212
 21
0.0
 31
0.0
210
0.0
220
0.0
230
1.0
 40
0.9832880435215804
 41
2.728799880001602
 42
6.695979068410928
  0
ELLIPSE
  5
2F2
330
2D4
100
AcDbEntity
  8
@__WIDOCZNE
  6
Continuous
370
    13
100
AcDbEllipse
 10
-789.8275960755635
 20
1556.840448314201
 30
0.0
 11
28.76631245480212
 21
0.0
 31
0.0
210
0.0
220
0.0
230
1.0
 40
0.9832880435215804
 41
5.870391545941213
 42
9.837571270799234
  0
ELLIPSE
  5
2F3
330
2D4
100
AcDbEntity
  8
@__WIDOCZNE
  6
Continuous
370
    13
100
AcDbEllipse
 10
-761.0613024940341
 20
1480.410369078567
 30
0.0
 11
28.76631245480212
 21
0.0
 31
0.0
210
0.0
220
0.0
230
1.0
 40
0.9832880435215804
 41
2.728799880001602
 42
6.695979068410928
  0
ELLIPSE
  5
2F4
330
2D4
100
AcDbEntity
  8
@__WIDOCZNE
  6
Continuous
370
    13
100
AcDbEllipse
 10
-732.2937227473124
 20
1556.840448314201
 30
0.0
 11
28.76631245480212
 21
0.0
 31
0.0
210
0.0
220
0.0
230
1.0
 40
0.9832880435215804
 41
5.870391545941213
 42
9.837571270799234
  0
ELLIPSE
  5
2F5
330
2D4
100
AcDbEntity
  8
@__WIDOCZNE
  6
Continuous
370
    13
100
AcDbEllipse
 10
-703.5274291657829
 20
1480.410369078567
 30
0.0
 11
28.76631245480212
 21
0.0
 31
0.0
210
0.0
220
0.0
230
1.0
 40
0.9832880435215804
 41
2.728799880001602
 42
6.695979068410928
  0
ELLIPSE
  5
2F6
330
2D4
100
AcDbEntity
  8
@__WIDOCZNE
  6
Continuous
370
    13
100
AcDbEllipse
 10
-674.7598494190613
 20
1556.840448314201
 30
0.0
 11
28.76631245480212
 21
0.0
 31
0.0
210
0.0
220
0.0
230
1.0
 40
0.9832880435215804
 41
5.870391545941213
 42
9.837571270799234
  0
ELLIPSE
  5
2F7
330
2D4
100
AcDbEntity
  8
@__WIDOCZNE
  6
Continuous
370
    13
100
AcDbEllipse
 10
-645.9935558375319
 20
1480.410369078567
 30
0.0
 11
28.76631245480212
 21
0.0
 31
0.0
210
0.0
220
0.0
230
1.0
 40
0.9832880435215804
 41
2.728799880001602
 42
6.695979068410928
  0
ELLIPSE
  5
2F8
330
2D4
100
AcDbEntity
  8
@__WIDOCZNE
  6
Continuous
370
    13
100
AcDbEllipse
 10
-617.2259760908101
 20
1556.840448314201
 30
0.0
 11
28.76631245480212
 21
0.0
 31
0.0
210
0.0
220
0.0
230
1.0
 40
0.9832880435215804
 41
5.870391545941213
 42
9.837571270799234
  0
ELLIPSE
  5
2F9
330
2D4
100
AcDbEntity
  8
@__WIDOCZNE
  6
Continuous
370
    13
100
AcDbEllipse
 10
-588.4596825092807
 20
1480.410369078567
 30
0.0
 11
28.76631245480212
 21
0.0
 31
0.0
210
0.0
220
0.0
230
1.0
 40
0.9832880435215804
 41
2.728799880001602
 42
6.695979068410928
  0
ELLIPSE
  5
2FA
330
2D4
100
AcDbEntity
  8
@__WIDOCZNE
  6
Continuous
370
    13
100
AcDbEllipse
 10
-559.6921027625591
 20
1556.840448314201
 30
0.0
 11
28.76631245480212
 21
0.0
 31
0.0
210
0.0
220
0.0
230
1.0
 40
0.9832880435215804
 41
5.870391545941213
 42
9.837571270799234
  0
ELLIPSE
  5
2FB
330
2D4
100
AcDbEntity
  8
@__WIDOCZNE
  6
Continuous
370
    13
100
AcDbEllipse
 10
-530.9258091810296
 20
1480.410369078567
 30
0.0
 11
28.76631245480212
 21
0.0
 31
0.0
210
0.0
220
0.0
230
1.0
 40
0.9832880435215804
 41
2.728799880001602
 42
6.695979068410928
  0
ELLIPSE
  5
2FC
330
2D4
100
AcDbEntity
  8
@__WIDOCZNE
  6
Continuous
370
    13
100
AcDbEllipse
 10
-502.158229434308
 20
1556.840448314201
 30
0.0
 11
28.76631245480212
 21
0.0
 31
0.0
210
0.0
220
0.0
230
1.0
 40
0.9832880435215804
 41
5.870391545941213
 42
9.837571270799234
  0
ELLIPSE
  5
2FD
330
2D4
100
AcDbEntity
  8
@__WIDOCZNE
  6
Continuous
370
    13
100
AcDbEllipse
 10
-473.3919358527785
 20
1480.410369078567
 30
0.0
 11
28.76631245480212
 21
0.0
 31
0.0
210
0.0
220
0.0
230
1.0
 40
0.9832880435215804
 41
2.728799880001602
 42
6.695979068410928
  0
ELLIPSE
  5
2FE
330
2D4
100
AcDbEntity
  8
@__WIDOCZNE
  6
Continuous
370
    13
100
AcDbEllipse
 10
-444.6243561060569
 20
1556.840448314201
 30
0.0
 11
28.76631245480212
 21
0.0
 31
0.0
210
0.0
220
0.0
230
1.0
 40
0.9832880435215804
 41
5.870391545941213
 42
9.837571270799234
  0
ELLIPSE
  5
2FF
330
2D4
100
AcDbEntity
  8
@__WIDOCZNE
  6
Continuous
370
    13
100
AcDbEllipse
 10
-415.8580625245274
 20
1480.410369078567
 30
0.0
 11
28.76631245480212
 21
0.0
 31
0.0
210
0.0
220
0.0
230
1.0
 40
0.9832880435215804
 41
2.728799880001602
 42
6.695979068410928
  0
ELLIPSE
  5
300
330
2D4
100
AcDbEntity
  8
@__WIDOCZNE
  6
Continuous
370
    13
100
AcDbEllipse
 10
-387.0904827778059
 20
1556.840448314201
 30
0.0
 11
28.76631245480212
 21
0.0
 31
0.0
210
0.0
220
0.0
230
1.0
 40
0.9832880435215804
 41
5.870391545941215
 42
9.837571270799234
  0
ELLIPSE
  5
301
330
2D4
100
AcDbEntity
  8
@__WIDOCZNE
  6
Continuous
370
    13
100
AcDbEllipse
 10
-358.3241891962764
 20
1480.410369078567
 30
0.0
 11
28.76631245480212
 21
0.0
 31
0.0
210
0.0
220
0.0
230
1.0
 40
0.9832880435215804
 41
2.728799880001602
 42
6.695979068410928
  0
ELLIPSE
  5
302
330
2D4
100
AcDbEntity
  8
@__WIDOCZNE
  6
Continuous
370
    13
100
AcDbEllipse
 10
-329.5566094495548
 20
1556.840448314201
 30
0.0
 11
28.76631245480212
 21
0.0
 31
0.0
210
0.0
220
0.0
230
1.0
 40
0.9832880435215804
 41
5.870391545941215
 42
9.837571270799234
  0
ELLIPSE
  5
303
330
2D4
100
AcDbEntity
  8
@__WIDOCZNE
  6
Continuous
370
    13
100
AcDbEllipse
 10
-300.7903158680253
 20
1480.410369078567
 30
0.0
 11
28.76631245480212
 21
0.0
 31
0.0
210
0.0
220
0.0
230
1.0
 40
0.9832880435215804
 41
2.728799880001602
 42
4.71238898038469
  0
ENDBLK
  5
2D6
330
2D4
100
AcDbEntity
  8
0
100
AcDbBlockEnd
  0
BLOCK
  5
306
330
305
100
AcDbEntity
  8
0
100
AcDbBlockBegin
  2
Symbol nachylenia 12_67
 70
     2
 10
-1616.732981407581
 20
1581.707984973847
 30
0.0
  3
Symbol nachylenia 12_67
  1

  0
LINE
  5
308
330
305
100
AcDbEntity
  8
@__WIDOCZNE
  6
Continuous
370
    13
100
AcDbLine
 10
-1616.732981407581
 20
1581.707984973847
 30
0.0
 11
-1707.564247291843
 21
1580.129525204677
 31
0.0
  0
LINE
  5
309
330
305
100
AcDbEntity
  8
@__WIDOCZNE
  6
Continuous
370
    13
100
AcDbLine
 10
-1677.829405818172
 20
1595.648520099179
 30
0.0
 11
-1707.564247291843
 21
1580.129525204677
 31
0.0
  0
ATTDEF
  5
30B
330
305
100
AcDbEntity
  8
@__WIDOCZNE
370
    13
100
AcDbText
 10
-1672.175662629025
 20
1587.701659130997
 30
0.0
 40
20.0
  1
 2%
 50
0.9955820795364223
  7
GENERATED_STYLE_1
 11
-1672.072958252423
 21
1581.791613958587
 31
0.0
100
AcDbAttributeDefinition
  3
Tekst
  2
txt
 70
     0
 74
     1
  0
ENDBLK
  5
307
330
305
100
AcDbEntity
  8
0
100
AcDbBlockEnd
  0
BLOCK
  5
310
330
30F
100
AcDbEntity
  8
0
100
AcDbBlockBegin
  2
Izolacja cieplna 12_104
 70
     0
 10
-1073.347035286875
 20
1468.97083603146
 30
0.0
  3
Izolacja cieplna 12_104
  1

  0
LINE
  5
312
330
30F
100
AcDbEntity
  8
@__WIDOCZNE
  6
Continuous
370
    13
100
AcDbLine
 10
-1047.586222992408
 20
1503.537853497727
 30
0.0
 11
-1027.813832218419
 21
1550.40487924061
 31
0.0
  0
LINE
  5
313
330
30F
100
AcDbEntity
  8
@__WIDOCZNE
  6
Continuous
370
    13
100
AcDbLine
 10
-1071.350891810205
 20
1550.40487924061
 30
0.0
 11
-1051.578518855352
 21
1503.537853497727
 31
0.0
  0
LINE
  5
314
330
30F
100
AcDbEntity
  8
@__WIDOCZNE
  6
Continuous
370
    13
100
AcDbLine
 10
-1000.055840637948
 20
1503.537853497727
 30
0.0
 11
-980.2834498639584
 21
1550.40487924061
 31
0.0
  0
LINE
  5
315
330
30F
100
AcDbEntity
  8
@__WIDOCZNE
  6
Continuous
370
    13
100
AcDbLine
 10
-1023.820509455745
 20
1550.40487924061
 30
0.0
 11
-1004.048136500892
 21
1503.537853497727
 31
0.0
  0
LINE
  5
316
330
30F
100
AcDbEntity
  8
@__WIDOCZNE
  6
Continuous
370
    13
100
AcDbLine
 10
-952.5254582834874
 20
1503.537853497727
 30
0.0
 11
-932.7530675094981
 21
1550.40487924061
 31
0.0
  0
LINE
  5
317
330
30F
100
AcDbEntity
  8
@__WIDOCZNE
  6
Continuous
370
    13
100
AcDbLine
 10
-976.2901271012848
 20
1550.40487924061
 30
0.0
 11
-956.5177541464318
 21
1503.537853497727
 31
0.0
  0
ELLIPSE
  5
318
330
30F
100
AcDbEntity
  8
@__WIDOCZNE
  6
Continuous
370
    13
100
AcDbEllipse
 10
-1073.347035286875
 20
1493.640955875492
 30
0.0
 11
1.510609306665081E-15
 21
24.67012215631195
 31
0.0
210
0.0
220
0.0
230
1.0
 40
0.9632978446331114
 41
3.141592653589793
 42
5.125182398198081
  0
ELLIPSE
  5
319
330
30F
100
AcDbEntity
  8
@__WIDOCZNE
  6
Continuous
370
    13
100
AcDbEllipse
 10
-1049.582348649866
 20
1560.301786112043
 30
0.0
 11
1.510609306665081E-15
 21
24.67012215631195
 31
0.0
210
0.0
220
0.0
230
1.0
 40
0.9632978446331114
 41
4.29959521914631
 42
8.26677494400434
  0
ELLIPSE
  5
31A
330
30F
100
AcDbEntity
  8
@__WIDOCZNE
  6
Continuous
370
    13
100
AcDbEllipse
 10
-1025.817688741607
 20
1493.640965124574
 30
0.0
 11
1.510609306665081E-15
 21
24.67012215631195
 31
0.0
210
0.0
220
0.0
230
1.0
 40
0.9632978446331114
 41
1.158003553206699
 42
5.125182741616034
  0
ELLIPSE
  5
31B
330
30F
100
AcDbEntity
  8
@__WIDOCZNE
  6
Continuous
370
    13
100
AcDbEllipse
 10
-1002.051966295406
 20
1560.301786112043
 30
0.0
 11
1.510609306665081E-15
 21
24.67012215631195
 31
0.0
210
0.0
220
0.0
230
1.0
 40
0.9632978446331114
 41
4.299595219146314
 42
8.266774944004343
  0
ELLIPSE
  5
31C
330
30F
100
AcDbEntity
  8
@__WIDOCZNE
  6
Continuous
370
    13
100
AcDbEllipse
 10
-978.2873063871469
 20
1493.640965124574
 30
0.0
 11
1.510609306665081E-15
 21
24.67012215631195
 31
0.0
210
0.0
220
0.0
230
1.0
 40
0.9632978446331114
 41
1.158003553206699
 42
5.125182741616038
  0
ELLIPSE
  5
31D
330
30F
100
AcDbEntity
  8
@__WIDOCZNE
  6
Continuous
370
    13
100
AcDbEllipse
 10
-954.5215839409459
 20
1560.301786112043
 30
0.0
 11
1.510609306665081E-15
 21
24.67012215631195
 31
0.0
210
0.0
220
0.0
230
1.0
 40
0.9632978446331114
 41
4.299595219146312
 42
8.266774944004343
  0
ELLIPSE
  5
31E
330
30F
100
AcDbEntity
  8
@__WIDOCZNE
  6
Continuous
370
    13
100
AcDbEllipse
 10
-930.7569240326867
 20
1493.640965124574
 30
0.0
 11
1.510609306665081E-15
 21
24.67012215631195
 31
0.0
210
0.0
220
0.0
230
1.0
 40
0.9632978446331114
 41
1.158003553206699
 42
3.141592653589793
  0
ENDBLK
  5
311
330
30F
100
AcDbEntity
  8
0
100
AcDbBlockEnd
  0
BLOCK
  5
379
330
378
100
AcDbEntity
  8
0
100
AcDbBlockBegin
  2
*X8
 70
     1
 10
0.0
 20
0.0
 30
0.0
  3
*X8
  1

  0
HATCH
  5
37B
330
378
100
AcDbEntity
  8
2D - Ogólne
  6
Continuous
370
    13
100
AcDbHatch
 10
0.0
 20
0.0
 30
0.0
210
0.0
220
0.0
230
1.0
  2
SOLID
 70
     1
 71
     0
 91
        1
 92
        2
 72
     0
 73
     1
 93
        4
 10
-1799.999996871528
 20
1572.846579738183
 10
-1825.000001632471
 20
1572.415211109662
 10
-1825.000001632471
 20
1555.309197027543
 10
-1799.999996871528
 20
1555.740565656064
 97
        0
 75
     0
 76
     1
 98
        0
  0
HATCH
  5
37C
330
378
100
AcDbEntity
  8
2D - Ogólne
  6
Continuous
370
    13
100
AcDbHatch
 10
0.0
 20
0.0
 30
0.0
210
0.0
220
0.0
230
1.0
  2
SOLID
 70
     1
 71
     0
 91
        1
 92
        2
 72
     0
 73
     1
 93
        4
 10
-1699.999996870205
 20
1574.572082815941
 10
-1725.000001631149
 20
1574.140704666195
 10
-1725.000001631149
 20
1557.034690584077
 10
-1699.999996870205
 20
1557.466068733823
 97
        0
 75
     0
 76
     1
 98
        0
  0
HATCH
  5
37D
330
378
100
AcDbEntity
  8
2D - Ogólne
  6
Continuous
370
    13
100
AcDbHatch
 10
0.0
 20
0.0
 30
0.0
210
0.0
220
0.0
230
1.0
  2
SOLID
 70
     1
 71
     0
 91
        1
 92
        2
 72
     0
 73
     1
 93
        4
 10
-1599.999996868883
 20
1576.297576372475
 10
-1625.000001629826
 20
1575.866198222729
 10
-1625.000001629826
 20
1558.760184140611
 10
-1599.999996868883
 20
1559.191562290357
 97
        0
 75
     0
 76
     1
 98
        0
  0
HATCH
  5
37E
330
378
100
AcDbEntity
  8
2D - Ogólne
  6
Continuous
370
    13
100
AcDbHatch
 10
0.0
 20
0.0
 30
0.0
210
0.0
220
0.0
230
1.0
  2
SOLID
 70
     1
 71
     0
 91
        1
 92
        2
 72
     0
 73
     1
 93
        4
 10
-1499.999996867561
 20
1578.023069929009
 10
-1525.000001628504
 20
1577.591701300488
 10
-1525.000001628504
 20
1560.485677697145
 10
-1499.999996867561
 20
1560.917055846891
 97
        0
 75
     0
 76
     1
 98
        0
  0
HATCH
  5
37F
330
378
100
AcDbEntity
  8
2D - Ogólne
  6
Continuous
370
    13
100
AcDbHatch
 10
0.0
 20
0.0
 30
0.0
210
0.0
220
0.0
230
1.0
  2
SOLID
 70
     1
 71
     0
 91
        1
 92
        2
 72
     0
 73
     1
 93
        4
 10
-1399.999996866238
 20
1579.748563485542
 10
-1425.000001627181
 20
1579.317194857022
 10
-1425.000001627181
 20
1562.211171253678
 10
-1399.999996866238
 20
1562.642549403424
 97
        0
 75
     0
 76
     1
 98
        0
  0
HATCH
  5
380
330
378
100
AcDbEntity
  8
2D - Ogólne
  6
Continuous
370
    13
100
AcDbHatch
 10
0.0
 20
0.0
 30
0.0
210
0.0
220
0.0
230
1.0
  2
SOLID
 70
     1
 71
     0
 91
        1
 92
        2
 72
     0
 73
     1
 93
        4
 10
-1299.999996864916
 20
1581.474066563301
 10
-1325.000001625859
 20
1581.042688413555
 10
-1325.000001625859
 20
1563.936674331437
 10
-1299.999996864916
 20
1564.368042959958
 97
        0
 75
     0
 76
     1
 98
        0
  0
HATCH
  5
381
330
378
100
AcDbEntity
  8
2D - Ogólne
  6
Continuous
370
    13
100
AcDbHatch
 10
0.0
 20
0.0
 30
0.0
210
0.0
220
0.0
230
1.0
  2
SOLID
 70
     1
 71
     0
 91
        1
 92
        2
 72
     0
 73
     1
 93
        4
 10
-1225.000004152712
 20
1582.768186038075
 10
-1225.000004152712
 20
1565.662170464899
 10
-1205.083218086358
 20
1566.005828403072
 10
-1205.378296156816
 20
1583.106757581565
 97
        0
 75
     0
 76
     1
 98
        0
  0
HATCH
  5
382
330
378
100
AcDbEntity
  8
2D - Ogólne
  6
Continuous
370
    13
100
AcDbHatch
 10
0.0
 20
0.0
 30
0.0
210
0.0
220
0.0
230
1.0
  2
SOLID
 70
     1
 71
     0
 91
        1
 92
        2
 72
     0
 73
     1
 93
        4
 10
-1775.00000163181
 20
1573.277957887929
 10
-1799.999996871528
 20
1572.846579738183
 10
-1799.999996871528
 20
1555.740575177289
 10
-1775.00000163181
 20
1556.17194380581
 97
        0
 75
     0
 76
     1
 98
        0
  0
HATCH
  5
383
330
378
100
AcDbEntity
  8
2D - Ogólne
  6
Continuous
370
    13
100
AcDbHatch
 10
0.0
 20
0.0
 30
0.0
210
0.0
220
0.0
230
1.0
  2
SOLID
 70
     1
 71
     0
 91
        1
 92
        2
 72
     0
 73
     1
 93
        4
 10
-1675.000001630488
 20
1575.003451444462
 10
-1699.999996870205
 20
1574.572082815941
 10
-1699.999996870205
 20
1557.466068733823
 10
-1675.000001630488
 20
1557.897437362344
 97
        0
 75
     0
 76
     1
 98
        0
  0
HATCH
  5
384
330
378
100
AcDbEntity
  8
2D - Ogólne
  6
Continuous
370
    13
100
AcDbHatch
 10
0.0
 20
0.0
 30
0.0
210
0.0
220
0.0
230
1.0
  2
SOLID
 70
     1
 71
     0
 91
        1
 92
        2
 72
     0
 73
     1
 93
        4
 10
-1575.000001629165
 20
1576.728945000996
 10
-1599.999996868883
 20
1576.297576372475
 10
-1599.999996868883
 20
1559.191562290357
 10
-1575.000001629165
 20
1559.622930918878
 97
        0
 75
     0
 76
     1
 98
        0
  0
HATCH
  5
385
330
378
100
AcDbEntity
  8
2D - Ogólne
  6
Continuous
370
    13
100
AcDbHatch
 10
0.0
 20
0.0
 30
0.0
210
0.0
220
0.0
230
1.0
  2
SOLID
 70
     1
 71
     0
 91
        1
 92
        2
 72
     0
 73
     1
 93
        4
 10
-1475.000001627843
 20
1578.454448078755
 10
-1499.999996867561
 20
1578.023069929009
 10
-1499.999996867561
 20
1560.917055846891
 10
-1475.000001627843
 20
1561.348424475412
 97
        0
 75
     0
 76
     1
 98
        0
  0
HATCH
  5
386
330
378
100
AcDbEntity
  8
2D - Ogólne
  6
Continuous
370
    13
100
AcDbHatch
 10
0.0
 20
0.0
 30
0.0
210
0.0
220
0.0
230
1.0
  2
SOLID
 70
     1
 71
     0
 91
        1
 92
        2
 72
     0
 73
     1
 93
        4
 10
-1375.00000162652
 20
1580.179941635289
 10
-1399.999996866238
 20
1579.748563485542
 10
-1399.999996866238
 20
1562.642549403424
 10
-1375.00000162652
 20
1563.073918031945
 97
        0
 75
     0
 76
     1
 98
        0
  0
HATCH
  5
387
330
378
100
AcDbEntity
  8
2D - Ogólne
  6
Continuous
370
    13
100
AcDbHatch
 10
0.0
 20
0.0
 30
0.0
210
0.0
220
0.0
230
1.0
  2
SOLID
 70
     1
 71
     0
 91
        1
 92
        2
 72
     0
 73
     1
 93
        4
 10
-1275.000001625198
 20
1581.905435191822
 10
-1299.999996864916
 20
1581.474066563301
 10
-1299.999996864916
 20
1564.368042959958
 10
-1275.000001625198
 20
1564.799421109704
 97
        0
 75
     0
 76
     1
 98
        0
  0
ENDBLK
  5
37A
330
378
100
AcDbEntity
  8
0
100
AcDbBlockEnd
  0
BLOCK
  5
38F
330
38E
100
AcDbEntity
  8
0
100
AcDbBlockBegin
  2
*X9
 70
     1
 10
0.0
 20
0.0
 30
0.0
  3
*X9
  1

  0
HATCH
  5
391
330
38E
100
AcDbEntity
  8
2D - Ogólne
  6
Continuous
370
    13
100
AcDbHatch
 10
0.0
 20
0.0
 30
0.0
210
0.0
220
0.0
230
1.0
  2
SOLID
 70
     1
 71
     0
 91
        1
 92
        2
 72
     0
 73
     1
 93
        4
 10
-1099.999995838039
 20
1449.999994262534
 10
-1125.000006208684
 20
1449.999994262534
 10
-1125.000006208684
 20
1435.12518224748
 10
-1099.999995838039
 20
1435.12518224748
 97
        0
 75
     0
 76
     1
 98
        0
  0
HATCH
  5
392
330
38E
100
AcDbEntity
  8
2D - Ogólne
  6
Continuous
370
    13
100
AcDbHatch
 10
0.0
 20
0.0
 30
0.0
210
0.0
220
0.0
230
1.0
  2
SOLID
 70
     1
 71
     0
 91
        1
 92
        2
 72
     0
 73
     1
 93
        4
 10
-999.9999940735916
 20
1449.999994262534
 10
-1025.000004444237
 20
1449.999994262534
 10
-1025.000004444237
 20
1435.12518224748
 10
-999.9999940735916
 20
1435.12518224748
 97
        0
 75
     0
 76
     1
 98
        0
  0
HATCH
  5
393
330
38E
100
AcDbEntity
  8
2D - Ogólne
  6
Continuous
370
    13
100
AcDbHatch
 10
0.0
 20
0.0
 30
0.0
210
0.0
220
0.0
230
1.0
  2
SOLID
 70
     1
 71
     0
 91
        1
 92
        2
 72
     0
 73
     1
 93
        4
 10
-900.0000055485225
 20
1449.999994262534
 10
-925.0000026797898
 20
1449.999994262534
 10
-925.0000026797898
 20
1435.12518224748
 10
-900.0000055485225
 20
1435.12518224748
 97
        0
 75
     0
 76
     1
 98
        0
  0
HATCH
  5
394
330
38E
100
AcDbEntity
  8
2D - Ogólne
  6
Continuous
370
    13
100
AcDbHatch
 10
0.0
 20
0.0
 30
0.0
210
0.0
220
0.0
230
1.0
  2
SOLID
 70
     1
 71
     0
 91
        1
 92
        2
 72
     0
 73
     1
 93
        4
 10
-800.0000037840754
 20
1449.999994262534
 10
-825.0000009153425
 20
1449.999994262534
 10
-825.0000009153425
 20
1435.12518224748
 10
-800.0000037840754
 20
1435.12518224748
 97
        0
 75
     0
 76
     1
 98
        0
  0
HATCH
  5
395
330
38E
100
AcDbEntity
  8
2D - Ogólne
  6
Continuous
370
    13
100
AcDbHatch
 10
0.0
 20
0.0
 30
0.0
210
0.0
220
0.0
230
1.0
  2
SOLID
 70
     1
 71
     0
 91
        1
 92
        2
 72
     0
 73
     1
 93
        4
 10
-700.0000020196281
 20
1449.999994262534
 10
-724.9999991508954
 20
1449.999994262534
 10
-724.9999991508954
 20
1435.12518224748
 10
-700.0000020196281
 20
1435.12518224748
 97
        0
 75
     0
 76
     1
 98
        0
  0
HATCH
  5
396
330
38E
100
AcDbEntity
  8
2D - Ogólne
  6
Continuous
370
    13
100
AcDbHatch
 10
0.0
 20
0.0
 30
0.0
210
0.0
220
0.0
230
1.0
  2
SOLID
 70
     1
 71
     0
 91
        1
 92
        2
 72
     0
 73
     1
 93
        4
 10
-600.000000255181
 20
1449.999994262534
 10
-624.9999973864483
 20
1449.999994262534
 10
-624.9999973864483
 20
1435.12518224748
 10
-600.000000255181
 20
1435.12518224748
 97
        0
 75
     0
 76
     1
 98
        0
  0
HATCH
  5
397
330
38E
100
AcDbEntity
  8
2D - Ogólne
  6
Continuous
370
    13
100
AcDbHatch
 10
0.0
 20
0.0
 30
0.0
210
0.0
220
0.0
230
1.0
  2
SOLID
 70
     1
 71
     0
 91
        1
 92
        2
 72
     0
 73
     1
 93
        4
 10
-499.9999984907338
 20
1449.999994262534
 10
-524.9999956220012
 20
1449.999994262534
 10
-524.9999956220012
 20
1435.12518224748
 10
-499.9999984907338
 20
1435.12518224748
 97
        0
 75
     0
 76
     1
 98
        0
  0
HATCH
  5
398
330
38E
100
AcDbEntity
  8
2D - Ogólne
  6
Continuous
370
    13
100
AcDbHatch
 10
0.0
 20
0.0
 30
0.0
210
0.0
220
0.0
230
1.0
  2
SOLID
 70
     1
 71
     0
 91
        1
 92
        2
 72
     0
 73
     1
 93
        4
 10
-399.9999967262867
 20
1449.999994262534
 10
-424.9999938575539
 20
1449.999994262534
 10
-424.9999938575539
 20
1435.12518224748
 10
-399.9999967262867
 20
1435.12518224748
 97
        0
 75
     0
 76
     1
 98
        0
  0
HATCH
  5
399
330
38E
100
AcDbEntity
  8
2D - Ogólne
  6
Continuous
370
    13
100
AcDbHatch
 10
0.0
 20
0.0
 30
0.0
210
0.0
220
0.0
230
1.0
  2
SOLID
 70
     1
 71
     0
 91
        1
 92
        2
 72
     0
 73
     1
 93
        4
 10
-299.9999949618395
 20
1449.999994262534
 10
-325.000005332485
 20
1449.999994262534
 10
-325.000005332485
 20
1435.12518224748
 10
-299.9999949618395
 20
1435.12518224748
 97
        0
 75
     0
 76
     1
 98
        0
  0
HATCH
  5
39A
330
38E
100
AcDbEntity
  8
2D - Ogólne
  6
Continuous
370
    13
100
AcDbHatch
 10
0.0
 20
0.0
 30
0.0
210
0.0
220
0.0
230
1.0
  2
SOLID
 70
     1
 71
     0
 91
        1
 92
        2
 72
     0
 73
     1
 93
        4
 10
-1125.000006208684
 20
1452.228642488775
 10
-1125.000006208684
 20
1450.000005013125
 10
-1099.999995838039
 20
1450.000005013125
 10
-1099.999995838039
 20
1452.228642488775
 97
        0
 75
     0
 76
     1
 98
        0
  0
HATCH
  5
39B
330
38E
100
AcDbEntity
  8
2D - Ogólne
  6
Continuous
370
    13
100
AcDbHatch
 10
0.0
 20
0.0
 30
0.0
210
0.0
220
0.0
230
1.0
  2
SOLID
 70
     1
 71
     0
 91
        1
 92
        2
 72
     0
 73
     1
 93
        4
 10
-1025.000004444237
 20
1452.228642488775
 10
-1025.000004444237
 20
1450.000005013125
 10
-999.9999940735916
 20
1450.000005013125
 10
-999.9999940735916
 20
1452.228642488775
 97
        0
 75
     0
 76
     1
 98
        0
  0
HATCH
  5
39C
330
38E
100
AcDbEntity
  8
2D - Ogólne
  6
Continuous
370
    13
100
AcDbHatch
 10
0.0
 20
0.0
 30
0.0
210
0.0
220
0.0
230
1.0
  2
SOLID
 70
     1
 71
     0
 91
        1
 92
        2
 72
     0
 73
     1
 93
        4
 10
-925.0000026797898
 20
1452.228642488775
 10
-925.0000026797898
 20
1450.000005013125
 10
-900.0000055485225
 20
1450.000005013125
 10
-900.0000055485225
 20
1452.228642488775
 97
        0
 75
     0
 76
     1
 98
        0
  0
HATCH
  5
39D
330
38E
100
AcDbEntity
  8
2D - Ogólne
  6
Continuous
370
    13
100
AcDbHatch
 10
0.0
 20
0.0
 30
0.0
210
0.0
220
0.0
230
1.0
  2
SOLID
 70
     1
 71
     0
 91
        1
 92
        2
 72
     0
 73
     1
 93
        4
 10
-825.0000009153425
 20
1452.228642488775
 10
-825.0000009153425
 20
1450.000005013125
 10
-800.0000037840754
 20
1450.000005013125
 10
-800.0000037840754
 20
1452.228642488775
 97
        0
 75
     0
 76
     1
 98
        0
  0
HATCH
  5
39E
330
38E
100
AcDbEntity
  8
2D - Ogólne
  6
Continuous
370
    13
100
AcDbHatch
 10
0.0
 20
0.0
 30
0.0
210
0.0
220
0.0
230
1.0
  2
SOLID
 70
     1
 71
     0
 91
        1
 92
        2
 72
     0
 73
     1
 93
        4
 10
-724.9999991508954
 20
1452.228642488775
 10
-724.9999991508954
 20
1450.000005013125
 10
-700.0000020196281
 20
1450.000005013125
 10
-700.0000020196281
 20
1452.228642488775
 97
        0
 75
     0
 76
     1
 98
        0
  0
HATCH
  5
39F
330
38E
100
AcDbEntity
  8
2D - Ogólne
  6
Continuous
370
    13
100
AcDbHatch
 10
0.0
 20
0.0
 30
0.0
210
0.0
220
0.0
230
1.0
  2
SOLID
 70
     1
 71
     0
 91
        1
 92
        2
 72
     0
 73
     1
 93
        4
 10
-624.9999973864483
 20
1452.228642488775
 10
-624.9999973864483
 20
1450.000005013125
 10
-600.000000255181
 20
1450.000005013125
 10
-600.000000255181
 20
1452.228642488775
 97
        0
 75
     0
 76
     1
 98
        0
  0
HATCH
  5
3A0
330
38E
100
AcDbEntity
  8
2D - Ogólne
  6
Continuous
370
    13
100
AcDbHatch
 10
0.0
 20
0.0
 30
0.0
210
0.0
220
0.0
230
1.0
  2
SOLID
 70
     1
 71
     0
 91
        1
 92
        2
 72
     0
 73
     1
 93
        4
 10
-524.9999956220012
 20
1452.228642488775
 10
-524.9999956220012
 20
1450.000005013125
 10
-499.9999984907338
 20
1450.000005013125
 10
-499.9999984907338
 20
1452.228642488775
 97
        0
 75
     0
 76
     1
 98
        0
  0
HATCH
  5
3A1
330
38E
100
AcDbEntity
  8
2D - Ogólne
  6
Continuous
370
    13
100
AcDbHatch
 10
0.0
 20
0.0
 30
0.0
210
0.0
220
0.0
230
1.0
  2
SOLID
 70
     1
 71
     0
 91
        1
 92
        2
 72
     0
 73
     1
 93
        4
 10
-424.9999938575539
 20
1452.228642488775
 10
-424.9999938575539
 20
1450.000005013125
 10
-399.9999967262867
 20
1450.000005013125
 10
-399.9999967262867
 20
1452.228642488775
 97
        0
 75
     0
 76
     1
 98
        0
  0
HATCH
  5
3A2
330
38E
100
AcDbEntity
  8
2D - Ogólne
  6
Continuous
370
    13
100
AcDbHatch
 10
0.0
 20
0.0
 30
0.0
210
0.0
220
0.0
230
1.0
  2
SOLID
 70
     1
 71
     0
 91
        1
 92
        2
 72
     0
 73
     1
 93
        4
 10
-325.000005332485
 20
1452.228642488775
 10
-325.000005332485
 20
1450.000005013125
 10
-299.9999949618395
 20
1450.000005013125
 10
-299.9999949618395
 20
1452.228642488775
 97
        0
 75
     0
 76
     1
 98
        0
  0
HATCH
  5
3A3
330
38E
100
AcDbEntity
  8
2D - Ogólne
  6
Continuous
370
    13
100
AcDbHatch
 10
0.0
 20
0.0
 30
0.0
210
0.0
220
0.0
230
1.0
  2
SOLID
 70
     1
 71
     0
 91
        1
 92
        2
 72
     0
 73
     1
 93
        4
 10
-1174.999993913159
 20
1449.99999876221
 10
-1188.450883847224
 20
1449.99999876221
 10
-1188.450883847224
 20
1435.125185851694
 10
-1174.999993913159
 20
1435.125185851694
 97
        0
 75
     0
 76
     1
 98
        0
  0
HATCH
  5
3A4
330
38E
100
AcDbEntity
  8
2D - Ogólne
  6
Continuous
370
    13
100
AcDbHatch
 10
0.0
 20
0.0
 30
0.0
210
0.0
220
0.0
230
1.0
  2
SOLID
 70
     1
 71
     0
 91
        1
 92
        2
 72
     0
 73
     1
 93
        4
 10
-1074.999998706771
 20
1449.999994262534
 10
-1099.999995838039
 20
1449.999994262534
 10
-1099.999995838039
 20
1435.12518224748
 10
-1074.999998706771
 20
1435.12518224748
 97
        0
 75
     0
 76
     1
 98
        0
  0
HATCH
  5
3A5
330
38E
100
AcDbEntity
  8
2D - Ogólne
  6
Continuous
370
    13
100
AcDbHatch
 10
0.0
 20
0.0
 30
0.0
210
0.0
220
0.0
230
1.0
  2
SOLID
 70
     1
 71
     0
 91
        1
 92
        2
 72
     0
 73
     1
 93
        4
 10
-974.9999969423242
 20
1449.999994262534
 10
-999.9999940735916
 20
1449.999994262534
 10
-999.9999940735916
 20
1435.12518224748
 10
-974.9999969423242
 20
1435.12518224748
 97
        0
 75
     0
 76
     1
 98
        0
  0
HATCH
  5
3A6
330
38E
100
AcDbEntity
  8
2D - Ogólne
  6
Continuous
370
    13
100
AcDbHatch
 10
0.0
 20
0.0
 30
0.0
210
0.0
220
0.0
230
1.0
  2
SOLID
 70
     1
 71
     0
 91
        1
 92
        2
 72
     0
 73
     1
 93
        4
 10
-874.999995177877
 20
1449.999994262534
 10
-900.0000055485225
 20
1449.999994262534
 10
-900.0000055485225
 20
1435.12518224748
 10
-874.999995177877
 20
1435.12518224748
 97
        0
 75
     0
 76
     1
 98
        0
  0
HATCH
  5
3A7
330
38E
100
AcDbEntity
  8
2D - Ogólne
  6
Continuous
370
    13
100
AcDbHatch
 10
0.0
 20
0.0
 30
0.0
210
0.0
220
0.0
230
1.0
  2
SOLID
 70
     1
 71
     0
 91
        1
 92
        2
 72
     0
 73
     1
 93
        4
 10
-774.9999934134299
 20
1449.999994262534
 10
-800.0000037840754
 20
1449.999994262534
 10
-800.0000037840754
 20
1435.12518224748
 10
-774.9999934134299
 20
1435.12518224748
 97
        0
 75
     0
 76
     1
 98
        0
  0
HATCH
  5
3A8
330
38E
100
AcDbEntity
  8
2D - Ogólne
  6
Continuous
370
    13
100
AcDbHatch
 10
0.0
 20
0.0
 30
0.0
210
0.0
220
0.0
230
1.0
  2
SOLID
 70
     1
 71
     0
 91
        1
 92
        2
 72
     0
 73
     1
 93
        4
 10
-675.0000048883609
 20
1449.999994262534
 10
-700.0000020196281
 20
1449.999994262534
 10
-700.0000020196281
 20
1435.12518224748
 10
-675.0000048883609
 20
1435.12518224748
 97
        0
 75
     0
 76
     1
 98
        0
  0
HATCH
  5
3A9
330
38E
100
AcDbEntity
  8
2D - Ogólne
  6
Continuous
370
    13
100
AcDbHatch
 10
0.0
 20
0.0
 30
0.0
210
0.0
220
0.0
230
1.0
  2
SOLID
 70
     1
 71
     0
 91
        1
 92
        2
 72
     0
 73
     1
 93
        4
 10
-575.0000031239138
 20
1449.999994262534
 10
-600.000000255181
 20
1449.999994262534
 10
-600.000000255181
 20
1435.12518224748
 10
-575.0000031239138
 20
1435.12518224748
 97
        0
 75
     0
 76
     1
 98
        0
  0
HATCH
  5
3AA
330
38E
100
AcDbEntity
  8
2D - Ogólne
  6
Continuous
370
    13
100
AcDbHatch
 10
0.0
 20
0.0
 30
0.0
210
0.0
220
0.0
230
1.0
  2
SOLID
 70
     1
 71
     0
 91
        1
 92
        2
 72
     0
 73
     1
 93
        4
 10
-475.0000013594666
 20
1449.999994262534
 10
-499.9999984907338
 20
1449.999994262534
 10
-499.9999984907338
 20
1435.12518224748
 10
-475.0000013594666
 20
1435.12518224748
 97
        0
 75
     0
 76
     1
 98
        0
  0
HATCH
  5
3AB
330
38E
100
AcDbEntity
  8
2D - Ogólne
  6
Continuous
370
    13
100
AcDbHatch
 10
0.0
 20
0.0
 30
0.0
210
0.0
220
0.0
230
1.0
  2
SOLID
 70
     1
 71
     0
 91
        1
 92
        2
 72
     0
 73
     1
 93
        4
 10
-374.9999995950195
 20
1449.999994262534
 10
-399.9999967262867
 20
1449.999994262534
 10
-399.9999967262867
 20
1435.12518224748
 10
-374.9999995950195
 20
1435.12518224748
 97
        0
 75
     0
 76
     1
 98
        0
  0
HATCH
  5
3AC
330
38E
100
AcDbEntity
  8
2D - Ogólne
  6
Continuous
370
    13
100
AcDbHatch
 10
0.0
 20
0.0
 30
0.0
210
0.0
220
0.0
230
1.0
  2
SOLID
 70
     1
 71
     0
 91
        1
 92
        2
 72
     0
 73
     1
 93
        4
 10
-299.999995504587
 20
1435.125175873761
 10
-299.9721055579882
 20
1435.125175873761
 10
-299.9721055579882
 20
1450.000004620666
 10
-299.999995504587
 20
1450.000004620666
 97
        0
 75
     0
 76
     1
 98
        0
  0
HATCH
  5
3AD
330
38E
100
AcDbEntity
  8
2D - Ogólne
  6
Continuous
370
    13
100
AcDbHatch
 10
0.0
 20
0.0
 30
0.0
210
0.0
220
0.0
230
1.0
  2
SOLID
 70
     1
 71
     0
 91
        1
 92
        2
 72
     0
 73
     1
 93
        4
 10
-1174.999993913159
 20
1452.228644296869
 10
-1188.450883847224
 20
1452.228644296869
 10
-1188.450883847224
 20
1450.000006080683
 10
-1174.999993913159
 20
1450.000006080683
 97
        0
 75
     0
 76
     1
 98
        0
  0
HATCH
  5
3AE
330
38E
100
AcDbEntity
  8
2D - Ogólne
  6
Continuous
370
    13
100
AcDbHatch
 10
0.0
 20
0.0
 30
0.0
210
0.0
220
0.0
230
1.0
  2
SOLID
 70
     1
 71
     0
 91
        1
 92
        2
 72
     0
 73
     1
 93
        4
 10
-1099.999995838039
 20
1452.228642488775
 10
-1099.999995838039
 20
1450.000005013125
 10
-1074.999998706771
 20
1450.000005013125
 10
-1074.999998706771
 20
1452.228642488775
 97
        0
 75
     0
 76
     1
 98
        0
  0
HATCH
  5
3AF
330
38E
100
AcDbEntity
  8
2D - Ogólne
  6
Continuous
370
    13
100
AcDbHatch
 10
0.0
 20
0.0
 30
0.0
210
0.0
220
0.0
230
1.0
  2
SOLID
 70
     1
 71
     0
 91
        1
 92
        2
 72
     0
 73
     1
 93
        4
 10
-999.9999940735916
 20
1452.228642488775
 10
-999.9999940735916
 20
1450.000005013125
 10
-974.9999969423242
 20
1450.000005013125
 10
-974.9999969423242
 20
1452.228642488775
 97
        0
 75
     0
 76
     1
 98
        0
  0
HATCH
  5
3B0
330
38E
100
AcDbEntity
  8
2D - Ogólne
  6
Continuous
370
    13
100
AcDbHatch
 10
0.0
 20
0.0
 30
0.0
210
0.0
220
0.0
230
1.0
  2
SOLID
 70
     1
 71
     0
 91
        1
 92
        2
 72
     0
 73
     1
 93
        4
 10
-900.0000055485225
 20
1452.228642488775
 10
-900.0000055485225
 20
1450.000005013125
 10
-874.999995177877
 20
1450.000005013125
 10
-874.999995177877
 20
1452.228642488775
 97
        0
 75
     0
 76
     1
 98
        0
  0
HATCH
  5
3B1
330
38E
100
AcDbEntity
  8
2D - Ogólne
  6
Continuous
370
    13
100
AcDbHatch
 10
0.0
 20
0.0
 30
0.0
210
0.0
220
0.0
230
1.0
  2
SOLID
 70
     1
 71
     0
 91
        1
 92
        2
 72
     0
 73
     1
 93
        4
 10
-800.0000037840754
 20
1452.228642488775
 10
-800.0000037840754
 20
1450.000005013125
 10
-774.9999934134299
 20
1450.000005013125
 10
-774.9999934134299
 20
1452.228642488775
 97
        0
 75
     0
 76
     1
 98
        0
  0
HATCH
  5
3B2
330
38E
100
AcDbEntity
  8
2D - Ogólne
  6
Continuous
370
    13
100
AcDbHatch
 10
0.0
 20
0.0
 30
0.0
210
0.0
220
0.0
230
1.0
  2
SOLID
 70
     1
 71
     0
 91
        1
 92
        2
 72
     0
 73
     1
 93
        4
 10
-700.0000020196281
 20
1452.228642488775
 10
-700.0000020196281
 20
1450.000005013125
 10
-675.0000048883609
 20
1450.000005013125
 10
-675.0000048883609
 20
1452.228642488775
 97
        0
 75
     0
 76
     1
 98
        0
  0
HATCH
  5
3B3
330
38E
100
AcDbEntity
  8
2D - Ogólne
  6
Continuous
370
    13
100
AcDbHatch
 10
0.0
 20
0.0
 30
0.0
210
0.0
220
0.0
230
1.0
  2
SOLID
 70
     1
 71
     0
 91
        1
 92
        2
 72
     0
 73
     1
 93
        4
 10
-600.000000255181
 20
1452.228642488775
 10
-600.000000255181
 20
1450.000005013125
 10
-575.0000031239138
 20
1450.000005013125
 10
-575.0000031239138
 20
1452.228642488775
 97
        0
 75
     0
 76
     1
 98
        0
  0
HATCH
  5
3B4
330
38E
100
AcDbEntity
  8
2D - Ogólne
  6
Continuous
370
    13
100
AcDbHatch
 10
0.0
 20
0.0
 30
0.0
210
0.0
220
0.0
230
1.0
  2
SOLID
 70
     1
 71
     0
 91
        1
 92
        2
 72
     0
 73
     1
 93
        4
 10
-499.9999984907338
 20
1452.228642488775
 10
-499.9999984907338
 20
1450.000005013125
 10
-475.0000013594666
 20
1450.000005013125
 10
-475.0000013594666
 20
1452.228642488775
 97
        0
 75
     0
 76
     1
 98
        0
  0
HATCH
  5
3B5
330
38E
100
AcDbEntity
  8
2D - Ogólne
  6
Continuous
370
    13
100
AcDbHatch
 10
0.0
 20
0.0
 30
0.0
210
0.0
220
0.0
230
1.0
  2
SOLID
 70
     1
 71
     0
 91
        1
 92
        2
 72
     0
 73
     1
 93
        4
 10
-399.9999967262867
 20
1452.228642488775
 10
-399.9999967262867
 20
1450.000005013125
 10
-374.9999995950195
 20
1450.000005013125
 10
-374.9999995950195
 20
1452.228642488775
 97
        0
 75
     0
 76
     1
 98
        0
  0
HATCH
  5
3B6
330
38E
100
AcDbEntity
  8
2D - Ogólne
  6
Continuous
370
    13
100
AcDbHatch
 10
0.0
 20
0.0
 30
0.0
210
0.0
220
0.0
230
1.0
  2
SOLID
 70
     1
 71
     0
 91
        1
 92
        2
 72
     0
 73
     1
 93
        4
 10
-299.999995504587
 20
1452.228645273051
 10
-299.999995504587
 20
1449.999994894105
 10
-299.9721055579882
 20
1449.999994894105
 10
-299.9721055579882
 20
1452.228645273051
 97
        0
 75
     0
 76
     1
 98
        0
  0
ENDBLK
  5
390
330
38E
100
AcDbEntity
  8
0
100
AcDbBlockEnd
  0
BLOCK
  5
413
330
412
100
AcDbEntity
  8
0
100
AcDbBlockBegin
  2
Bez nazwy_STORY_MARKER
 70
     0
 10
0.0
 20
0.0
 30
0.0
  3
Bez nazwy_STORY_MARKER
  1

  0
ENDBLK
  5
414
330
412
100
AcDbEntity
  8
0
100
AcDbBlockEnd
  0
ENDSEC
  0
SECTION
  2
ENTITIES
  0
WIPEOUT
  5
5D
330
1F
100
AcDbEntity
  8
@__WIDOCZNE
  6
Wipeout_Contour
 62
   254
 48
6803.643774946619
370
     0
 92
      140
310
8C00000001000000840000000600000005000000E14B4DB88DBF72C0D4661F2F80C498400000000000000000C0B7EDAACD0191C0D4661F2F80C498400000000000000000C0B7EDAACD0191C0D5661F2F806C96400000000000000000E14B4DB88DBF72C0D5661F2F806C96400000000000000000E14B4DB88DBF72C0D4661F
310
2F80C498400000000000000000
100
AcDbWipeout
 90
        0
 10
-1088.450847353306
 20
1435.125179758693
 30
0.0
 11
788.4787477611553
 21
0.0
 31
0.0
 12
0.0
 22
149.9999999999998
 32
0.0
 13
1.0
 23
1.0
340
0
 70
    15
280
     1
281
    50
282
    50
283
     0
360
0
 71
     2
 91
        5
 14
0.4999999999999999
 24
-0.5000000000000008
 14
-0.5
 24
-0.5000000000000008
 14
-0.5
 24
0.4999999999999992
 14
0.4999999999999999
 24
0.4999999999999992
 14
0.4999999999999999
 24
-0.5000000000000008
  0
WIPEOUT
  5
60
330
1F
100
AcDbEntity
  8
@__WIDOCZNE
  6
Wipeout_Contour
 62
   254
 48
12190.44283035534
370
     0
 92
      188
310
BC00000001000000B40000000600000007000000C0B7EDAACD7D92C077CE628C14799A400000000000000000C0B7EDAACD7D92C0988FFA19F6339A400000000000000000F75769C6135E91C0988FFA19F6339A400000000000000000F75769C6135E91C08DBC753E7D539A400000000000000000F8576DC6134E91C08DBC75
310
3E7D539A400000000000000000F8576DC6134E91C077CE628C14799A400000000000000000C0B7EDAACD7D92C077CE628C14799A400000000000000000
100
AcDbWipeout
 90
        0
 10
-1183.450847353306
 20
1676.99033347608
 30
0.0
 11
75.9315357264004
 21
0.0
 31
0.0
 12
0.0
 22
17.27973330386862
 32
0.0
 13
1.0
 23
1.0
340
0
 70
    15
280
     1
281
    50
282
    50
283
     0
360
0
 71
     2
 91
        7
 14
-0.5
 24
-0.4999999999999934
 14
-0.5
 24
0.5000000000000066
 14
0.4473209661555103
 24
0.5000000000000066
 14
0.4473209661555103
 24
0.0438601416205605
 14
0.5
 24
0.0438601416205605
 14
0.5
 24
-0.4999999999999934
 14
-0.5
 24
-0.4999999999999934
  0
LWPOLYLINE
  5
61
330
1F
100
AcDbEntity
  8
@__WIDOCZNE
  6
Continuous
370
    13
100
AcDbPolyline
 90
        6
 70
   129
 43
0.0
 10
-1183.450847353306
 20
1694.270066779949
 10
-1183.450847353306
 20
1676.99033347608
 10
-1111.519311567301
 20
1676.99033347608
 10
-1111.519311567301
 20
1684.872308578141
 10
-1107.519311626906
 20
1684.872308578141
 10
-1107.519311626906
 20
1694.270066779949
  0
WIPEOUT
  5
62
330
1F
100
AcDbEntity
  8
@__WIDOCZNE
  6
Wipeout_Contour
 62
   254
 48
6687.276131396361
370
     0
 92
      140
310
8C00000001000000840000000600000005000000C1B7EDAACD9192C06549C168BFAC96400000000000000000C1B7EDAACD9192C0D5661F2F806C96400000000000000000DA4B4DB88DBF72C0D5661F2F806C96400000000000000000DA4B4DB88DBF72C06549C168BFAC96400000000000000000C1B7EDAACD9192C06549C1
310
68BFAC96400000000000000000
100
AcDbWipeout
 90
        0
 10
-1188.450847353306
 20
1435.125179758693
 30
0.0
 11
888.4787477611558
 21
0.0
 31
0.0
 12
0.0
 22
16.06174328751877
 32
0.0
 13
1.0
 23
1.0
340
0
 70
    15
280
     1
281
    50
282
    50
283
     0
360
0
 71
     2
 91
        5
 14
-0.5
 24
-0.5
 14
-0.5
 24
0.5
 14
0.5000000000000001
 24
0.5
 14
0.5000000000000001
 24
-0.5
 14
-0.5
 24
-0.5
  0
LINE
  5
63
330
1F
100
AcDbEntity
  8
@__WIDOCZNE
  6
Continuous
370
    25
100
AcDbLine
 10
-1188.450847353306
 20
1655.125179758693
 30
0.0
 11
-1188.450847353306
 21
2665.423055195755
 31
0.0
  0
LWPOLYLINE
  5
64
330
1F
100
AcDbEntity
  8
@__WIDOCZNE
  6
Continuous
370
    25
100
AcDbPolyline
 90
        4
 70
   129
 43
0.0
 10
-1843.484047407642
 20
1560.879806374293
 10
-1375.319437302265
 20
1569.015540201258
 10
-1375.319437302265
 20
1625.125179758693
 10
-1843.484047407642
 20
1625.125179758693
  0
WIPEOUT
  5
65
330
1F
100
AcDbEntity
  8
@__WIDOCZNE
  6
Wipeout_Contour
 62
   254
 48
12199.79227220405
370
     0
 92
      188
310
BC00000001000000B40000000600000007000000F75769C6135E91C0D4661F2F801C9A400000000000000000C1B7EDAACD6992C0D4661F2F801C9A400000000000000000C1B7EDAACD6992C0D4661F2F80149A400000000000000000C1B749ABCDFD92C0D3661F2F80F099400000000000000000C1B749ABCDFD92C0D4661F
310
2F80DC99400000000000000000F75769C6135E91C0D4661F2F80DC99400000000000000000F75769C6135E91C0D4661F2F801C9A400000000000000000
100
AcDbWipeout
 90
        0
 10
-1215.450848724213
 20
1655.125179758693
 30
0.0
 11
103.9315371569123
 21
0.0
 31
0.0
 12
0.0
 22
16.0
 32
0.0
 13
1.0
 23
1.0
340
0
 70
    15
280
     1
281
    50
282
    50
283
     0
360
0
 71
     2
 91
        7
 14
0.5
 24
-0.5
 14
-0.1439964001009099
 24
-0.5
 14
-0.1439964001009099
 24
-0.375
 14
-0.5
 24
0.1875000000000142
 14
-0.5
 24
0.5
 14
0.5
 24
0.5
 14
0.5
 24
-0.5
  0
LWPOLYLINE
  5
66
330
1F
100
AcDbEntity
  8
@__WIDOCZNE
  6
Continuous
370
    25
100
AcDbPolyline
 90
        6
 70
   129
 43
0.0
 10
-1111.519311567301
 20
1671.125179758693
 10
-1178.450847353306
 20
1671.125179758693
 10
-1178.450847353306
 20
1669.125179758693
 10
-1215.450848724213
 20
1660.125179758693
 10
-1215.450848724213
 20
1655.125179758693
 10
-1111.519311567301
 20
1655.125179758693
  0
WIPEOUT
  5
67
330
1F
100
AcDbEntity
  8
@__WIDOCZNE
  6
Wipeout_Contour
 62
   254
 48
8342.901018694858
370
     0
 92
      140
310
8C0000000100000084000000060000000500000021582A88CD1192C015EE4963CA789B40000000000000000021582A88CD1192C003C44F37393D9B400000000000000000D98ADD7AD15991C003C44F37393D9B400000000000000000D98ADD7AD15991C016EE4963CA789B40000000000000000021582A88CD1192C015EE49
310
63CA789B400000000000000000
100
AcDbWipeout
 90
        0
 10
-1156.450714742307
 20
1743.305875059451
 30
0.0
 11
45.99614448550165
 21
0.0
 31
0.0
 12
0.0
 22
14.89176932222176
 32
0.0
 13
1.0
 23
1.0
340
0
 70
    15
280
     1
281
    50
282
    50
283
     0
360
0
 71
     2
 91
        5
 14
-0.5
 24
-0.4999999999999923
 14
-0.5
 24
0.4999999999999923
 14
0.5
 24
0.4999999999999923
 14
0.5
 24
-0.5000000000000077
 14
-0.5
 24
-0.4999999999999923
  0
LWPOLYLINE
  5
68
330
1F
100
AcDbEntity
  8
@__WIDOCZNE
  6
Continuous
370
    13
100
AcDbPolyline
 90
        4
 70
   129
 43
0.0
 10
-1156.450714742307
 20
1758.197644381672
 10
-1156.450714742307
 20
1743.305875059451
 10
-1110.454570256805
 20
1743.305875059451
 10
-1110.454570256805
 20
1758.197644381672
  0
HATCH
  5
69
330
1F
100
AcDbEntity
  8
@__WIDOCZNE
  6
Continuous
370
    13
100
AcDbHatch
 10
0.0
 20
0.0
 30
0.0
210
0.0
220
0.0
230
1.0
  2
__Beton_n_2_średnio
 70
     0
 71
     1
 91
        1
 92
        2
 72
     0
 73
     1
 93
        4
 10
-1188.450847353306
 20
1155.125179758693
 10
-1188.450847353306
 20
423.1686470062888
 10
-948.4508473535244
 20
423.1686470062888
 10
-948.4508473535244
 20
1155.125179758693
 97
        1
330
6A
 75
     0
 76
     2
 52
0.0
 41
1.0
 77
     0
 78
     2
 53
44.99999999999999
 43
0.0
 44
0.0
 45
-18.38477631085023
 46
18.38477631085023
 79
     2
 49
19.5
 49
-6.499999999999999
 53
44.99999999999999
 43
0.0000000000000018
 44
18.38477631085023
 45
-18.38477631085023
 46
18.38477631085023
 79
     2
 49
19.5
 49
-6.499999999999999
 98
        0
  0
LWPOLYLINE
  5
6A
102
{ACAD_REACTORS
330
69
102
}
330
1F
100
AcDbEntity
  8
@__WIDOCZNE
  6
Continuous
370
    50
100
AcDbPolyline
 90
        4
 70
   129
 43
0.0
 10
-1188.450847353306
 20
1155.125179758693
 10
-1188.450847353306
 20
423.1686470062888
 10
-948.4508473535244
 20
423.1686470062888
 10
-948.4508473535244
 20
1155.125179758693
  0
WIPEOUT
  5
6B
330
1F
100
AcDbEntity
  8
@__WIDOCZNE
  6
Wipeout_Contour
 62
   254
 48
8594.293321106647
370
     0
 92
      164
310
A4000000010000009C000000060000000600000059D32537D7E994C0440934C7B2727A400000000000000000EC018C5BC6D492C0440934C7B2727A400000000000000000EC018C5BC6D492C0B221D00966F29740000000000000000059D32537D7E994C0B221D00966F29740000000000000000059D32537D7E994C06E7581
310
2B2AB19540000000000000000059D32537D7E994C0440934C7B2727A400000000000000000
100
AcDbWipeout
 90
        0
 10
-1338.460171309495
 20
423.1686470062889
 30
0.0
 11
133.266462710769
 21
0.0
 31
0.0
 12
0.0
 22
1109.430999802389
 32
0.0
 13
1.0
 23
1.0
340
0
 70
    15
280
     1
281
    50
282
    50
283
     0
360
0
 71
     2
 91
        6
 14
-0.5000000000000009
 24
0.5
 14
0.4999999999999992
 24
0.5
 14
0.4999999999999992
 24
-0.5
 14
-0.5000000000000009
 24
-0.5
 14
-0.5000000000000009
 24
-0.3699256959213193
 14
-0.5000000000000009
 24
0.5
  0
HATCH
  5
6C
330
1F
100
AcDbEntity
  8
@__WIDOCZNE
  6
Continuous
370
    13
100
AcDbHatch
 10
0.0
 20
0.0
 30
0.0
210
0.0
220
0.0
230
1.0
  2
Izolacja_miękka
 70
     0
 71
     1
 91
        1
 92
        2
 72
     0
 73
     1
 93
        5
 10
-1338.460171309495
 20
423.1686470062889
 10
-1205.193708598726
 20
423.1686470062889
 10
-1205.193708598726
 20
1532.599646808678
 10
-1338.460171309495
 20
1532.599646808678
 10
-1338.460171309495
 20
1388.291181586068
 97
        1
330
6D
 75
     0
 76
     2
 52
0.0
 41
1.0
 77
     0
 78
     2
 53
60.00000000000001
 43
0.0
 44
0.0
 45
-12.99038105676658
 46
7.499999999999996
 79
     0
 53
120.0
 43
0.0
 44
0.0
 45
12.99038105676657
 46
7.500000000000008
 79
     0
 98
        0
  0
LWPOLYLINE
  5
6D
102
{ACAD_REACTORS
330
6C
102
}
330
1F
100
AcDbEntity
  8
@__WIDOCZNE
  6
Continuous
370
    25
100
AcDbPolyline
 90
        5
 70
   129
 43
0.0
 10
-1338.460171309495
 20
423.1686470062889
 10
-1205.193708598726
 20
423.1686470062889
 10
-1205.193708598726
 20
1532.599646808678
 10
-1338.460171309495
 20
1532.599646808678
 10
-1338.460171309495
 20
1388.291181586068
  0
WIPEOUT
  5
6E
330
1F
100
AcDbEntity
  8
@__WIDOCZNE
  6
Wipeout_Contour
 62
   254
 48
6712.029801090835
370
     0
 92
      140
310
8C000000010000008400000006000000050000003F9C0B2ED73995C0440934C7B2727A40000000000000000059D32537D7E994C0440934C7B2727A40000000000000000059D32537D7E994C06D75812B2AD99540000000000000000028023B36D73995C06D75812B2AD9954000000000000000003F9C0B2ED73995C0440934
310
C7B2727A400000000000000000
100
AcDbWipeout
 90
        0
 10
-1358.460167810446
 20
423.1686470062889
 30
0.0
 11
19.99999650095174
 21
0.0
 31
0.0
 12
0.0
 22
975.1225345797784
 32
0.0
 13
1.0
 23
1.0
340
0
 70
    15
280
     1
281
    50
282
    50
283
     0
360
0
 71
     2
 91
        5
 14
-0.4999984388064999
 24
0.5
 14
0.4999999999999943
 24
0.5
 14
0.4999999999999943
 24
-0.5
 14
-0.5000000000000057
 24
-0.5
 14
-0.4999984388064999
 24
0.5
  0
HATCH
  5
6F
330
1F
100
AcDbEntity
  8
@__WIDOCZNE
  6
Continuous
370
    13
100
AcDbHatch
 10
0.0
 20
0.0
 30
0.0
210
0.0
220
0.0
230
1.0
  2
Siatka_sześciokątna__1
 70
     0
 71
     1
 91
        1
 92
        2
 72
     0
 73
     1
 93
        4
 10
-1358.460136586582
 20
423.1686470062889
 10
-1338.460171309495
 20
423.1686470062889
 10
-1338.460171309495
 20
1398.291181586067
 10
-1358.460167810446
 20
1398.291181586067
 97
        1
330
70
 75
     0
 76
     2
 52
0.0
 41
1.0
 77
     0
 78
     6
 53
90.00000000000001
 43
0.0
 44
0.0
 45
-13.85640646055102
 46
0.0
 79
     2
 49
8.0
 49
-16.0
 53
90.00000000000001
 43
-6.928203105926518
 44
12.0
 45
-13.85640646055102
 46
0.0
 79
     2
 49
8.0
 49
-16.0
 53
150.0000000000001
 43
-0.0000000000000031
 44
8.0
 45
6.928203230275499
 46
12.0
 79
     2
 49
8.0
 49
-16.0
 53
150.0000000000001
 43
-13.85640621185303
 44
7.999999999999995
 45
6.928203230275499
 46
12.0
 79
     2
 49
8.0
 49
-16.0
 53
-149.9999999999999
 43
0.0
 44
0.0
 45
-6.92820323027552
 46
11.99999999999999
 79
     2
 49
7.999999999999999
 49
-16.0
 53
-149.9999999999999
 43
-13.85640621185302
 44
-0.0000000000000053
 45
-6.92820323027552
 46
11.99999999999999
 79
     2
 49
7.999999999999999
 49
-16.0
 98
        0
  0
LWPOLYLINE
  5
70
102
{ACAD_REACTORS
330
6F
102
}
330
1F
100
AcDbEntity
  8
@__WIDOCZNE
  6
Continuous
370
    25
100
AcDbPolyline
 90
        4
 70
   129
 43
0.0
 10
-1358.460136586582
 20
423.1686470062889
 10
-1338.460171309495
 20
423.1686470062889
 10
-1338.460171309495
 20
1398.291181586067
 10
-1358.460167810446
 20
1398.291181586067
  0
HATCH
  5
72
330
1F
100
AcDbEntity
  8
@__WIDOCZNE
  6
Continuous
370
    13
100
AcDbHatch
 10
0.0
 20
0.0
 30
0.0
210
0.0
220
0.0
230
1.0
  2
__Kropki_luz_n2_burzenie
 70
     0
 71
     1
 91
        1
 92
        2
 72
     0
 73
     1
 93
        4
 10
-1843.893235295971
 20
423.1686470062889
 10
-1358.460140085767
 20
423.1686470062886
 10
-1358.460140085767
 20
1398.291181586067
 10
-1843.893235295971
 20
1398.291181586067
 97
        1
330
73
 75
     0
 76
     2
 52
0.0
 41
1.0
 77
     0
 78
     2
 53
45.0
 43
0.0
 44
35.0
 45
-11.13693180368812
 46
11.13693180368812
 79
     4
 49
0.0
 49
-10.5
 49
0.0
 49
-15.75
 53
110.0
 43
35.0
 44
35.0
 45
14.80015877737805
 46
5.386817257379289
 79
     4
 49
0.0
 49
-7.699999999999999
 49
0.0
 49
-13.3
 98
        0
  0
LWPOLYLINE
  5
73
102
{ACAD_REACTORS
330
72
102
}
330
1F
100
AcDbEntity
  8
@__WIDOCZNE
  6
@ --- gęsto_burzenie
370
    13
100
AcDbPolyline
 90
        4
 70
   129
 43
0.0
 10
-1843.893235295971
 20
423.1686470062889
 10
-1358.460140085767
 20
423.1686470062886
 10
-1358.460140085767
 20
1398.291181586067
 10
-1843.893235295971
 20
1398.291181586067
  0
HATCH
  5
74
330
1F
100
AcDbEntity
  8
@__WIDOCZNE
  6
Continuous
370
    13
100
AcDbHatch
 10
0.0
 20
0.0
 30
0.0
210
0.0
220
0.0
230
1.0
  2
Beton_zbrojony
 70
     0
 71
     1
 91
        1
 92
        2
 72
     0
 73
     1
 93
        4
 10
-1338.460171309495
 20
1532.599646808678
 10
-1843.484047407642
 20
1532.599646808678
 10
-1843.484047407642
 20
1398.291181586067
 10
-1338.460171309495
 20
1398.291181586067
 97
        1
330
75
 75
     0
 76
     2
 52
0.0
 41
1.0
 77
     0
 78
     2
 53
44.99999999999999
 43
0.0
 44
0.0
 45
-18.38477563650066
 46
18.38477563650066
 79
     0
 53
44.99999999999999
 43
-9.192387818250328
 44
9.19238781825033
 45
-18.38477563650066
 46
18.38477563650066
 79
     2
 49
19.49999928474426
 49
-6.49999976158142
 98
        0
  0
LWPOLYLINE
  5
75
102
{ACAD_REACTORS
330
74
102
}
330
1F
100
AcDbEntity
  8
@__WIDOCZNE
  6
Continuous
370
    50
100
AcDbPolyline
 90
        4
 70
   129
 43
0.0
 10
-1338.460171309495
 20
1532.599646808678
 10
-1843.484047407642
 20
1532.599646808678
 10
-1843.484047407642
 20
1398.291181586067
 10
-1338.460171309495
 20
1398.291181586067
  0
HATCH
  5
76
330
1F
100
AcDbEntity
  8
@__WIDOCZNE
  6
Continuous
370
    13
100
AcDbHatch
 10
0.0
 20
0.0
 30
0.0
210
0.0
220
0.0
230
1.0
  2
__Kropki_luz_n2_burzenie
 70
     0
 71
     1
 91
        1
 92
        2
 72
     0
 73
     1
 93
        4
 10
-1843.484047407642
 20
1560.879806374294
 10
-1843.484047407642
 20
1532.599646808678
 10
-1209.198589351171
 20
1532.599646808678
 10
-1209.198589351171
 20
1571.902377379607
 97
        1
330
77
 75
     0
 76
     2
 52
0.0
 41
1.0
 77
     0
 78
     2
 53
45.0
 43
0.0
 44
35.0
 45
-11.13693180368812
 46
11.13693180368812
 79
     4
 49
0.0
 49
-10.5
 49
0.0
 49
-15.75
 53
110.0
 43
35.0
 44
35.0
 45
14.80015877737805
 46
5.386817257379289
 79
     4
 49
0.0
 49
-7.699999999999999
 49
0.0
 49
-13.3
 98
        0
  0
LWPOLYLINE
  5
77
102
{ACAD_REACTORS
330
76
102
}
330
1F
100
AcDbEntity
  8
@__WIDOCZNE
  6
Continuous
370
    25
100
AcDbPolyline
 90
        4
 70
   129
 43
0.0
 10
-1843.484047407642
 20
1560.879806374294
 10
-1843.484047407642
 20
1532.599646808678
 10
-1209.198589351171
 20
1532.599646808678
 10
-1209.198589351171
 20
1571.902377379607
  0
WIPEOUT
  5
78
330
1F
100
AcDbEntity
  8
@__WIDOCZNE
  6
Wipeout_Contour
 62
   254
 48
8802.387597138879
370
     0
 92
      140
310
8C0000000100000084000000060000000500000052FF45AC92CF9CC0183E7E3F248F9840000000000000000052FF45AC92CF9CC077F41768375098400000000000000000EC018C5BC6D492C0B67523B89A7D984000000000000000006A6A11D938D592C08D720A203DBB9840000000000000000052FF45AC92CF9CC0183E7E
310
3F248F98400000000000000000
100
AcDbWipeout
 90
        0
 10
-1843.893235295971
 20
1556.054108022972
 30
0.0
 11
638.6995266972458
 21
0.0
 31
0.0
 12
0.0
 22
26.75558451551979
 32
0.0
 13
1.0
 23
1.0
340
0
 70
    15
280
     1
281
    50
282
    50
283
     0
360
0
 71
     2
 91
        5
 14
-0.5
 24
-0.0879628764974751
 14
-0.5
 24
0.5
 14
0.5
 24
0.0759021811638902
 14
0.4998249459324433
 24
-0.5
 14
-0.5
 24
-0.0879628764974751
  0
HATCH
  5
79
330
1F
100
AcDbEntity
  8
@__WIDOCZNE
  6
Continuous
370
    13
100
AcDbHatch
 10
0.0
 20
0.0
 30
0.0
210
0.0
220
0.0
230
1.0
  2
Beton_zbrojony
 70
     0
 71
     1
 91
        1
 92
        2
 72
     0
 73
     1
 93
        6
 10
-1188.450847353306
 20
1155.125179758693
 10
-948.4508473535245
 20
1155.125179758693
 10
-948.4508473535245
 20
1195.125179758693
 10
-299.9720995921508
 20
1195.125179758693
 10
-299.9720995921508
 20
1435.125179758693
 10
-1188.450847353306
 20
1435.125179758693
 97
        1
330
7A
 75
     0
 76
     2
 52
0.0
 41
1.0
 77
     0
 78
     2
 53
44.99999999999999
 43
0.0
 44
0.0
 45
-18.38477563650066
 46
18.38477563650066
 79
     0
 53
44.99999999999999
 43
-9.192387818250328
 44
9.19238781825033
 45
-18.38477563650066
 46
18.38477563650066
 79
     2
 49
19.49999928474426
 49
-6.49999976158142
 98
        0
  0
LWPOLYLINE
  5
7A
102
{ACAD_REACTORS
330
79
102
}
330
1F
100
AcDbEntity
  8
@__WIDOCZNE
  6
Continuous
370
    50
100
AcDbPolyline
 90
        6
 70
   129
 43
0.0
 10
-1188.450847353306
 20
1155.125179758693
 10
-948.4508473535245
 20
1155.125179758693
 10
-948.4508473535245
 20
1195.125179758693
 10
-299.9720995921508
 20
1195.125179758693
 10
-299.9720995921508
 20
1435.125179758693
 10
-1188.450847353306
 20
1435.125179758693
  0
HATCH
  5
7B
330
1F
100
AcDbEntity
  8
@__WIDOCZNE
  6
Continuous
370
    25
100
AcDbHatch
 10
0.0
 20
0.0
 30
0.0
210
0.0
220
0.0
230
1.0
  2
__Kropki_luz_n2_burzenie
 70
     0
 71
     1
 91
        1
 92
        2
 72
     0
 73
     1
 93
        4
 10
-948.4508473535245
 20
423.1686470062888
 10
-938.4508473535244
 20
423.1686470062888
 10
-938.4508473535244
 20
1195.125179758693
 10
-948.4508473535245
 20
1195.125179758693
 97
        1
330
7C
 75
     0
 76
     2
 52
0.0
 41
1.0
 77
     0
 78
     2
 53
45.0
 43
0.0
 44
35.0
 45
-11.13693180368812
 46
11.13693180368812
 79
     4
 49
0.0
 49
-10.5
 49
0.0
 49
-15.75
 53
110.0
 43
35.0
 44
35.0
 45
14.80015877737805
 46
5.386817257379289
 79
     4
 49
0.0
 49
-7.699999999999999
 49
0.0
 49
-13.3
 98
        0
  0
LWPOLYLINE
  5
7C
102
{ACAD_REACTORS
330
7B
102
}
330
1F
100
AcDbEntity
  8
@__WIDOCZNE
  6
Continuous
370
    25
100
AcDbPolyline
 90
        4
 70
   129
 43
0.0
 10
-948.4508473535245
 20
423.1686470062888
 10
-938.4508473535244
 20
423.1686470062888
 10
-938.4508473535244
 20
1195.125179758693
 10
-948.4508473535245
 20
1195.125179758693
  0
INSERT
  5
C1
330
1F
100
AcDbEntity
  8
@__WIDOCZNE
  6
Continuous
370
    13
100
AcDbBlockReference
  2
*X1
 10
0.0
 20
0.0
 30
0.0
  0
LINE
  5
C2
330
1F
100
AcDbEntity
  8
@__WIDOCZNE
  6
Continuous
370
    25
100
AcDbLine
 10
-1088.450847353306
 20
1585.125179758693
 30
0.0
 11
-1088.450847353306
 21
1650.125179684187
 31
0.0
  0
LINE
  5
C3
330
1F
100
AcDbEntity
  8
@__WIDOCZNE
  6
Continuous
370
    25
100
AcDbLine
 10
-1088.450847353306
 20
1650.125179684187
 30
0.0
 11
-1188.450847353306
 21
1650.125179684187
 31
0.0
  0
LINE
  5
C4
330
1F
100
AcDbEntity
  8
@__WIDOCZNE
  6
Continuous
370
    25
100
AcDbLine
 10
-1188.450847353306
 20
1650.125179684187
 30
0.0
 11
-1188.450847353306
 21
1585.125179758693
 31
0.0
  0
LINE
  5
C5
330
1F
100
AcDbEntity
  8
@__WIDOCZNE
  6
Continuous
370
    25
100
AcDbLine
 10
-1188.450847353306
 20
1585.125179758693
 30
0.0
 11
-1088.450847353306
 21
1585.125179758693
 31
0.0
  0
HATCH
  5
C6
330
1F
100
AcDbEntity
  8
@__WIDOCZNE
  6
Continuous
370
    13
100
AcDbHatch
 10
0.0
 20
0.0
 30
0.0
210
0.0
220
0.0
230
1.0
  2
__Cegła_licówka
 70
     0
 71
     1
 91
        1
 92
        2
 72
     0
 73
     1
 93
        4
 10
-1528.320079880086
 20
1655.125179758693
 10
-1528.320079880086
 20
1625.125179758693
 10
-1375.319437302265
 20
1625.125179758693
 10
-1375.319437302265
 20
1655.125179758693
 97
        1
330
C7
 75
     0
 76
     2
 52
0.0
 41
1.0
 77
     0
 78
     1
 53
45.0
 43
0.0
 44
0.0
 45
-6.363960862091533
 46
6.363960862091534
 79
     0
 98
        0
  0
LWPOLYLINE
  5
C7
102
{ACAD_REACTORS
330
C6
102
}
330
1F
100
AcDbEntity
  8
@__WIDOCZNE
  6
Continuous
370
    25
100
AcDbPolyline
 90
        4
 70
   129
 43
0.0
 10
-1528.320079880086
 20
1655.125179758693
 10
-1528.320079880086
 20
1625.125179758693
 10
-1375.319437302265
 20
1625.125179758693
 10
-1375.319437302265
 20
1655.125179758693
  0
HATCH
  5
C8
330
1F
100
AcDbEntity
  8
@__WIDOCZNE
  6
Continuous
370
    13
100
AcDbHatch
 10
0.0
 20
0.0
 30
0.0
210
0.0
220
0.0
230
1.0
  2
__Cegła_licówka
 70
     0
 71
     1
 91
        1
 92
        2
 72
     0
 73
     1
 93
        4
 10
-1688.320079880086
 20
1655.125179758693
 10
-1688.320079880086
 20
1625.125179758693
 10
-1538.320079880086
 20
1625.125179758693
 10
-1538.320079880086
 20
1655.125179758693
 97
        1
330
C9
 75
     0
 76
     2
 52
0.0
 41
1.0
 77
     0
 78
     1
 53
45.0
 43
0.0
 44
0.0
 45
-6.363960862091533
 46
6.363960862091534
 79
     0
 98
        0
  0
LWPOLYLINE
  5
C9
102
{ACAD_REACTORS
330
C8
102
}
330
1F
100
AcDbEntity
  8
@__WIDOCZNE
  6
Continuous
370
    25
100
AcDbPolyline
 90
        4
 70
   129
 43
0.0
 10
-1688.320079880086
 20
1655.125179758693
 10
-1688.320079880086
 20
1625.125179758693
 10
-1538.320079880086
 20
1625.125179758693
 10
-1538.320079880086
 20
1655.125179758693
  0
HATCH
  5
CA
330
1F
100
AcDbEntity
  8
@__WIDOCZNE
  6
Continuous
370
    13
100
AcDbHatch
 10
0.0
 20
0.0
 30
0.0
210
0.0
220
0.0
230
1.0
  2
__Cegła_licówka
 70
     0
 71
     1
 91
        1
 92
        2
 72
     0
 73
     1
 93
        4
 10
-1843.484047407642
 20
1655.125179758693
 10
-1843.484047407642
 20
1625.125179758693
 10
-1698.320079880086
 20
1625.125179758693
 10
-1698.320079880086
 20
1655.125179758693
 97
        1
330
CB
 75
     0
 76
     2
 52
0.0
 41
1.0
 77
     0
 78
     1
 53
45.0
 43
0.0
 44
0.0
 45
-6.363960862091533
 46
6.363960862091534
 79
     0
 98
        0
  0
LWPOLYLINE
  5
CB
102
{ACAD_REACTORS
330
CA
102
}
330
1F
100
AcDbEntity
  8
@__WIDOCZNE
  6
Continuous
370
    25
100
AcDbPolyline
 90
        4
 70
   129
 43
0.0
 10
-1843.484047407642
 20
1655.125179758693
 10
-1843.484047407642
 20
1625.125179758693
 10
-1698.320079880086
 20
1625.125179758693
 10
-1698.320079880086
 20
1655.125179758693
  0
HATCH
  5
CC
330
1F
100
AcDbEntity
  8
@__WIDOCZNE
  6
Continuous
 62
   142
370
    13
100
AcDbHatch
 10
0.0
 20
0.0
 30
0.0
210
0.0
220
0.0
230
1.0
  2
SOLID
 70
     1
 71
     1
 91
        1
 92
        2
 72
     1
 73
     1
 93
        6
 10
-1440.001988959915
 20
176.8504469129687
 42
0.0
 10
-1440.001988959915
 20
201.4286692887096
 42
0.0
 10
-1464.580211335656
 20
201.4286692887096
 42
0.414213562373095
 10
-1494.074078186545
 20
171.9348024378212
 42
0.0
 10
-1494.074078186545
 20
147.3565800620803
 42
0.0
 10
-1469.495855810804
 20
147.3565800620803
 42
0.414213562373095
 97
        1
330
CD
 75
     0
 76
     1
 98
        0
  0
LWPOLYLINE
  5
CD
102
{ACAD_REACTORS
330
CC
102
}
330
1F
100
AcDbEntity
  8
@__WIDOCZNE
  6
Continuous
 62
   142
370
    13
100
AcDbPolyline
 90
        6
 70
   129
 43
0.0
 10
-1440.001988959915
 20
176.8504469129687
 10
-1440.001988959915
 20
201.4286692887096
 10
-1464.580211335656
 20
201.4286692887096
 42
0.414213562373095
 10
-1494.074078186545
 20
171.9348024378212
 10
-1494.074078186545
 20
147.3565800620803
 10
-1469.495855810804
 20
147.3565800620803
 42
0.414213562373095
  0
HATCH
  5
CE
330
1F
100
AcDbEntity
  8
@__WIDOCZNE
  6
Continuous
370
    13
100
AcDbHatch
 10
0.0
 20
0.0
 30
0.0
210
0.0
220
0.0
230
1.0
  2
SOLID
 70
     1
 71
     1
 91
        3
 92
        2
 72
     1
 73
     1
 93
        8
 10
-1894.608978596418
 20
148.1716021823817
 42
0.0723831287448308
 10
-1930.280884078957
 20
147.8674536450234
 42
0.0
 10
-1930.280884078957
 20
79.2367701648845
 42
0.0475754375093521
 10
-1910.990466674141
 20
77.13299178150012
 42
0.0
 10
-1908.221006603722
 20
77.13299178150012
 42
0.0201526900432898
 10
-1899.99792015914
 20
77.57623055987739
 42
0.1117820670402823
 10
-1882.464957955005
 20
83.1147824930748
 42
0.5989391739264164
 10
-1888.283831342266
 20
115.9908535396531
 42
0.7144612958116017
 97
        1
330
CF
 92
        2
 72
     1
 73
     1
 93
        4
 10
-1917.446624371063
 20
120.0601221925072
 42
0.018587651104709
 10
-1899.850094396254
 20
120.0770652554864
 42
0.8637728306683231
 10
-1900.363184084205
 20
138.3576140733566
 42
0.0363046036528515
 10
-1917.446624371063
 20
138.3576140733566
 42
0.0
 97
        1
330
D0
 92
        2
 72
     1
 73
     1
 93
        4
 10
-1917.248213653417
 20
88.30746993140959
 42
0.0570602598095221
 10
-1899.107299369986
 20
88.48254306997904
 42
0.9504624262000833
 10
-1899.297593656556
 20
109.8135267392325
 42
0.0333151677067815
 10
-1917.248213653417
 20
109.8135267392325
 42
0.0
 97
        1
330
D1
 75
     0
 76
     1
 98
        0
  0
LWPOLYLINE
  5
CF
102
{ACAD_REACTORS
330
CE
102
}
330
1F
100
AcDbEntity
  8
@__WIDOCZNE
  6
Continuous
370
    13
100
AcDbPolyline
 90
        8
 70
   129
 43
0.0
 10
-1894.608978596418
 20
148.1716021823817
 42
0.0723831287448308
 10
-1930.280884078957
 20
147.8674536450234
 10
-1930.280884078957
 20
79.2367701648845
 42
0.0475754375093521
 10
-1910.990466674141
 20
77.13299178150012
 10
-1908.221006603722
 20
77.13299178150012
 42
0.0201526900432898
 10
-1899.99792015914
 20
77.57623055987739
 42
0.1117820670402823
 10
-1882.464957955005
 20
83.1147824930748
 42
0.5989391739264164
 10
-1888.283831342266
 20
115.9908535396531
 42
0.7144612958116017
  0
LWPOLYLINE
  5
D0
102
{ACAD_REACTORS
330
CE
102
}
330
1F
100
AcDbEntity
  8
@__WIDOCZNE
  6
Continuous
370
    13
100
AcDbPolyline
 90
        4
 70
   129
 43
0.0
 10
-1917.446624371063
 20
120.0601221925072
 42
0.018587651104709
 10
-1899.850094396254
 20
120.0770652554864
 42
0.8637728306683231
 10
-1900.363184084205
 20
138.3576140733566
 42
0.0363046036528515
 10
-1917.446624371063
 20
138.3576140733566
  0
LWPOLYLINE
  5
D1
102
{ACAD_REACTORS
330
CE
102
}
330
1F
100
AcDbEntity
  8
@__WIDOCZNE
  6
Continuous
370
    13
100
AcDbPolyline
 90
        4
 70
   129
 43
0.0
 10
-1917.248213653417
 20
88.30746993140959
 42
0.0570602598095221
 10
-1899.107299369986
 20
88.48254306997904
 42
0.9504624262000833
 10
-1899.297593656556
 20
109.8135267392325
 42
0.0333151677067815
 10
-1917.248213653417
 20
109.8135267392325
  0
HATCH
  5
D2
330
1F
100
AcDbEntity
  8
@__WIDOCZNE
  6
Continuous
370
    13
100
AcDbHatch
 10
0.0
 20
0.0
 30
0.0
210
0.0
220
0.0
230
1.0
  2
SOLID
 70
     1
 71
     1
 91
        1
 92
        2
 72
     1
 73
     1
 93
       12
 10
-1779.402714440489
 20
132.461425542873
 42
0.0
 10
-1795.324133915959
 20
132.461425542873
 42
0.0
 10
-1795.324133915959
 20
147.9472341783427
 42
0.0
 10
-1807.603398609457
 20
145.4497566135621
 42
0.0
 10
-1807.603398609457
 20
94.39724550142603
 42
0.3686923280690939
 10
-1790.339247767994
 20
77.19259236232101
 42
0.0
 10
-1777.892755622336
 20
77.23556106479978
 42
0.0
 10
-1775.240251832524
 20
88.84026514522947
 42
0.0
 10
-1787.950667203237
 20
88.84026514522947
 42
-0.3159610186060354
 10
-1795.324133915959
 20
96.21373185795245
 42
0.0
 10
-1795.324133915959
 20
120.9952887917644
 42
0.0
 10
-1779.402714440489
 20
120.9952887917644
 42
0.0
 97
        1
330
D3
 75
     0
 76
     1
 98
        0
  0
LWPOLYLINE
  5
D3
102
{ACAD_REACTORS
330
D2
102
}
330
1F
100
AcDbEntity
  8
@__WIDOCZNE
  6
Continuous
370
    13
100
AcDbPolyline
 90
       12
 70
   129
 43
0.0
 10
-1779.402714440489
 20
132.461425542873
 10
-1795.324133915959
 20
132.461425542873
 10
-1795.324133915959
 20
147.9472341783427
 10
-1807.603398609457
 20
145.4497566135621
 10
-1807.603398609457
 20
94.39724550142603
 42
0.3686923280690939
 10
-1790.339247767994
 20
77.19259236232101
 10
-1777.892755622336
 20
77.23556106479978
 10
-1775.240251832524
 20
88.84026514522947
 10
-1787.950667203237
 20
88.84026514522947
 42
-0.3159610186060354
 10
-1795.324133915959
 20
96.21373185795245
 10
-1795.324133915959
 20
120.9952887917644
 10
-1779.402714440489
 20
120.9952887917644
  0
HATCH
  5
D4
330
1F
100
AcDbEntity
  8
@__WIDOCZNE
  6
Continuous
370
    13
100
AcDbHatch
 10
0.0
 20
0.0
 30
0.0
210
0.0
220
0.0
230
1.0
  2
SOLID
 70
     1
 71
     1
 91
        2
 92
        2
 72
     1
 73
     1
 93
       14
 10
-1745.378945529237
 20
120.6608609191749
 42
-0.387209016979461
 10
-1737.643449429657
 20
112.5444368899994
 42
0.0
 10
-1737.574328139302
 20
109.4742426602674
 42
0.1185067504646354
 10
-1755.348438172751
 20
109.6343642799108
 42
0.2642193030162518
 10
-1768.065550204987
 20
99.53992440691361
 42
0.1757337626801403
 10
-1768.080926769487
 20
88.3625534610103
 42
0.2604621029539542
 10
-1755.804478884416
 20
77.4427896891029
 42
0.0083652857947627
 10
-1752.260288367527
 20
77.13299178150012
 42
0.0
 10
-1737.288899371438
 20
77.13299178150012
 42
0.028992295246684
 10
-1725.069614284467
 20
78.71095824818208
 42
0.0
 10
-1725.696508768956
 20
113.3765513552357
 42
0.4278697545607686
 10
-1743.114318429231
 20
131.7759065504073
 42
0.0
 10
-1760.567750622603
 20
131.8491757142385
 42
0.0
 10
-1763.329565526089
 20
120.6608609191749
 42
0.0
 97
        1
330
D5
 92
        2
 72
     1
 73
     1
 93
        6
 10
-1737.464524662475
 20
100.9694597079721
 42
0.1273826308893613
 10
-1751.046762368616
 20
101.3190620453254
 42
0.2091253650713026
 10
-1756.414701844609
 20
96.22346481606836
 42
0.067218802794298
 10
-1756.351643396617
 20
92.3159262087817
 42
0.2977682718343915
 10
-1750.831290205579
 20
86.64088600744246
 42
0.0710664823309622
 10
-1737.464524662475
 20
86.66701657441133
 42
0.0
 97
        1
330
D6
 75
     0
 76
     1
 98
        0
  0
LWPOLYLINE
  5
D5
102
{ACAD_REACTORS
330
D4
102
}
330
1F
100
AcDbEntity
  8
@__WIDOCZNE
  6
Continuous
370
    13
100
AcDbPolyline
 90
       14
 70
   129
 43
0.0
 10
-1745.378945529237
 20
120.6608609191749
 42
-0.387209016979461
 10
-1737.643449429657
 20
112.5444368899994
 10
-1737.574328139302
 20
109.4742426602674
 42
0.1185067504646354
 10
-1755.348438172751
 20
109.6343642799108
 42
0.2642193030162518
 10
-1768.065550204987
 20
99.53992440691361
 42
0.1757337626801403
 10
-1768.080926769487
 20
88.3625534610103
 42
0.2604621029539542
 10
-1755.804478884416
 20
77.4427896891029
 42
0.0083652857947627
 10
-1752.260288367527
 20
77.13299178150012
 10
-1737.288899371438
 20
77.13299178150012
 42
0.028992295246684
 10
-1725.069614284467
 20
78.71095824818208
 10
-1725.696508768956
 20
113.3765513552357
 42
0.4278697545607686
 10
-1743.114318429231
 20
131.7759065504073
 10
-1760.567750622603
 20
131.8491757142385
 10
-1763.329565526089
 20
120.6608609191749
  0
LWPOLYLINE
  5
D6
102
{ACAD_REACTORS
330
D4
102
}
330
1F
100
AcDbEntity
  8
@__WIDOCZNE
  6
Continuous
370
    13
100
AcDbPolyline
 90
        6
 70
   129
 43
0.0
 10
-1737.464524662475
 20
100.9694597079721
 42
0.1273826308893613
 10
-1751.046762368616
 20
101.3190620453254
 42
0.2091253650713026
 10
-1756.414701844609
 20
96.22346481606836
 42
0.067218802794298
 10
-1756.351643396617
 20
92.3159262087817
 42
0.2977682718343915
 10
-1750.831290205579
 20
86.64088600744246
 42
0.0710664823309622
 10
-1737.464524662475
 20
86.66701657441133
  0
HATCH
  5
D7
330
1F
100
AcDbEntity
  8
@__WIDOCZNE
  6
Continuous
370
    13
100
AcDbHatch
 10
0.0
 20
0.0
 30
0.0
210
0.0
220
0.0
230
1.0
  2
SOLID
 70
     1
 71
     1
 91
        1
 92
        2
 72
     1
 73
     1
 93
       26
 10
-1704.198388356195
 20
132.0276615001531
 42
0.0863077155126181
 10
-1715.782746252502
 20
129.1891773723178
 42
0.0
 10
-1715.782746252502
 20
77.13299178150012
 42
0.0
 10
-1702.78504445301
 20
77.13299178150012
 42
0.0
 10
-1702.78504445301
 20
120.7194570941573
 42
-0.12168371550613
 10
-1693.122265044221
 20
121.671887792587
 42
-0.3861329478031837
 10
-1685.237625678684
 20
112.4892130724681
 42
0.0
 10
-1685.237625678684
 20
77.13299178150012
 42
0.0
 10
-1672.750237854787
 20
77.13299178150012
 42
0.0
 10
-1672.932143332499
 20
111.3351256737881
 42
0.0
 10
-1672.750237854788
 20
111.3388769910432
 42
0.0799288732000265
 10
-1674.003794302232
 20
118.4435360548245
 42
0.0
 10
-1672.739100694379
 20
119.22565000315
 42
-0.1916235362829357
 10
-1661.562754209956
 20
121.4010368399431
 42
-0.3589776600930252
 10
-1654.78340979552
 20
113.2931338457225
 42
0.0
 10
-1654.777166722256
 20
77.13299178150012
 42
0.0
 10
-1642.868830936786
 20
77.13299178150012
 42
0.0
 10
-1642.874123468251
 20
115.8010197971978
 42
0.3475935087177212
 10
-1657.366660587629
 20
132.461425542873
 42
0.0
 10
-1667.170892658721
 20
132.461425542873
 42
0.0002381544695914
 10
-1667.238346976976
 20
132.4566784111009
 42
0.1173548723086789
 10
-1673.239100483088
 20
130.7219842169597
 42
0.1053500657717058
 10
-1679.449964778136
 20
126.8192592530662
 42
0.1560368886834541
 10
-1688.651553086187
 20
132.1394817433087
 42
0.0158994515272265
 10
-1693.078612422362
 20
132.461425542873
 42
0.0
 10
-1698.77336181702
 20
132.461425542873
 42
0.0194967579096993
 97
        1
330
D8
 75
     0
 76
     1
 98
        0
  0
LWPOLYLINE
  5
D8
102
{ACAD_REACTORS
330
D7
102
}
330
1F
100
AcDbEntity
  8
@__WIDOCZNE
  6
Continuous
370
    13
100
AcDbPolyline
 90
       26
 70
   129
 43
0.0
 10
-1704.198388356195
 20
132.0276615001531
 42
0.0863077155126181
 10
-1715.782746252502
 20
129.1891773723178
 10
-1715.782746252502
 20
77.13299178150012
 10
-1702.78504445301
 20
77.13299178150012
 10
-1702.78504445301
 20
120.7194570941573
 42
-0.12168371550613
 10
-1693.122265044221
 20
121.671887792587
 42
-0.3861329478031837
 10
-1685.237625678684
 20
112.4892130724681
 10
-1685.237625678684
 20
77.13299178150012
 10
-1672.750237854787
 20
77.13299178150012
 10
-1672.932143332499
 20
111.3351256737881
 10
-1672.750237854788
 20
111.3388769910432
 42
0.0799288732000265
 10
-1674.003794302232
 20
118.4435360548245
 10
-1672.739100694379
 20
119.22565000315
 42
-0.1916235362829357
 10
-1661.562754209956
 20
121.4010368399431
 42
-0.3589776600930252
 10
-1654.78340979552
 20
113.2931338457225
 10
-1654.777166722256
 20
77.13299178150012
 10
-1642.868830936786
 20
77.13299178150012
 10
-1642.874123468251
 20
115.8010197971978
 42
0.3475935087177212
 10
-1657.366660587629
 20
132.461425542873
 10
-1667.170892658721
 20
132.461425542873
 42
0.0002381544695914
 10
-1667.238346976976
 20
132.4566784111009
 42
0.1173548723086789
 10
-1673.239100483088
 20
130.7219842169597
 42
0.1053500657717058
 10
-1679.449964778136
 20
126.8192592530662
 42
0.1560368886834541
 10
-1688.651553086187
 20
132.1394817433087
 42
0.0158994515272265
 10
-1693.078612422362
 20
132.461425542873
 10
-1698.77336181702
 20
132.461425542873
 42
0.0194967579096993
  0
HATCH
  5
D9
330
1F
100
AcDbEntity
  8
@__WIDOCZNE
  6
Continuous
370
    13
100
AcDbHatch
 10
0.0
 20
0.0
 30
0.0
210
0.0
220
0.0
230
1.0
  2
SOLID
 70
     1
 71
     1
 91
        2
 92
        2
 72
     1
 73
     1
 93
       14
 10
-1614.164290040023
 20
131.2162750498799
 42
0.2809658966461606
 10
-1632.559778033305
 20
112.1858372086971
 42
0.1091159824470767
 10
-1632.545983001144
 20
95.21703033515816
 42
0.2766399819923606
 10
-1614.066078512206
 20
77.8741897113856
 42
0.0392105095801167
 10
-1608.998548032178
 20
77.1551852771174
 42
0.0
 10
-1591.383049920814
 20
77.13299178150012
 42
0.0
 10
-1589.184423721429
 20
88.0074749108547
 42
0.0
 10
-1607.586468273167
 20
88.0074749108547
 42
-0.1667294674755062
 10
-1615.564314677699
 20
90.74382612453024
 42
-0.081638462027361
 10
-1619.662035927926
 20
96.01357122043008
 42
-0.0661503038161424
 10
-1620.215334957533
 20
99.5523796489478
 42
0.0
 10
-1585.042525920222
 20
99.5523796489478
 42
0.0
 10
-1585.042525920222
 20
110.7910286904551
 42
0.3105787245802772
 10
-1601.826375949016
 20
131.2437507951286
 42
0.1083142208160692
 97
        1
330
DA
 92
        2
 72
     1
 73
     1
 93
        5
 10
-1605.160813196457
 20
121.8499139829844
 42
0.1431069476368757
 10
-1611.105556534525
 20
122.0608693477291
 42
0.3279495498710064
 10
-1620.210690757235
 20
109.651053651909
 42
0.0
 10
-1596.837795763235
 20
109.651053651909
 42
0.0
 10
-1596.837795763235
 20
110.6066279412231
 42
0.3298596086471468
 97
        1
330
DB
 75
     0
 76
     1
 98
        0
  0
LWPOLYLINE
  5
DA
102
{ACAD_REACTORS
330
D9
102
}
330
1F
100
AcDbEntity
  8
@__WIDOCZNE
  6
Continuous
370
    13
100
AcDbPolyline
 90
       14
 70
   129
 43
0.0
 10
-1614.164290040023
 20
131.2162750498799
 42
0.2809658966461606
 10
-1632.559778033305
 20
112.1858372086971
 42
0.1091159824470767
 10
-1632.545983001144
 20
95.21703033515816
 42
0.2766399819923606
 10
-1614.066078512206
 20
77.8741897113856
 42
0.0392105095801167
 10
-1608.998548032178
 20
77.1551852771174
 10
-1591.383049920814
 20
77.13299178150012
 10
-1589.184423721429
 20
88.0074749108547
 10
-1607.586468273167
 20
88.0074749108547
 42
-0.1667294674755062
 10
-1615.564314677699
 20
90.74382612453024
 42
-0.081638462027361
 10
-1619.662035927926
 20
96.01357122043008
 42
-0.0661503038161424
 10
-1620.215334957533
 20
99.5523796489478
 10
-1585.042525920222
 20
99.5523796489478
 10
-1585.042525920222
 20
110.7910286904551
 42
0.3105787245802772
 10
-1601.826375949016
 20
131.2437507951286
 42
0.1083142208160692
  0
LWPOLYLINE
  5
DB
102
{ACAD_REACTORS
330
D9
102
}
330
1F
100
AcDbEntity
  8
@__WIDOCZNE
  6
Continuous
370
    13
100
AcDbPolyline
 90
        5
 70
   129
 43
0.0
 10
-1605.160813196457
 20
121.8499139829844
 42
0.1431069476368757
 10
-1611.105556534525
 20
122.0608693477291
 42
0.3279495498710064
 10
-1620.210690757235
 20
109.651053651909
 10
-1596.837795763235
 20
109.651053651909
 10
-1596.837795763235
 20
110.6066279412231
 42
0.3298596086471468
  0
HATCH
  5
DC
330
1F
100
AcDbEntity
  8
@__WIDOCZNE
  6
Continuous
370
    13
100
AcDbHatch
 10
0.0
 20
0.0
 30
0.0
210
0.0
220
0.0
230
1.0
  2
SOLID
 70
     1
 71
     1
 91
        1
 92
        2
 72
     1
 73
     1
 93
       13
 10
-1547.553218627897
 20
132.1047084902992
 42
0.0175531184166386
 10
-1553.169542088315
 20
132.461425542873
 42
0.0
 10
-1557.711161373943
 20
132.461425542873
 42
0.0177750747803509
 10
-1563.398296898193
 20
132.0976768519698
 42
0.0683229953867364
 10
-1576.039182683599
 20
129.6040901203134
 42
0.0
 10
-1576.039182683599
 20
77.13299178150012
 42
0.0
 10
-1563.542212098793
 20
77.13299178150012
 42
0.0
 10
-1563.542212098793
 20
120.7639309864382
 42
-0.0958663550348273
 10
-1551.360549851644
 20
121.3194417970501
 42
-0.3633763851128492
 10
-1544.00503724245
 20
112.5347857864049
 42
0.0
 10
-1544.00503724245
 20
77.13299178150012
 42
0.0
 10
-1531.834896717402
 20
77.13299178150012
 42
0.0
 10
-1531.834896717402
 20
114.4279683846178
 42
0.3803017440747632
 97
        1
330
DD
 75
     0
 76
     1
 98
        0
  0
LWPOLYLINE
  5
DD
102
{ACAD_REACTORS
330
DC
102
}
330
1F
100
AcDbEntity
  8
@__WIDOCZNE
  6
Continuous
370
    13
100
AcDbPolyline
 90
       13
 70
   129
 43
0.0
 10
-1547.553218627897
 20
132.1047084902992
 42
0.0175531184166386
 10
-1553.169542088315
 20
132.461425542873
 10
-1557.711161373943
 20
132.461425542873
 42
0.0177750747803509
 10
-1563.398296898193
 20
132.0976768519698
 42
0.0683229953867364
 10
-1576.039182683599
 20
129.6040901203134
 10
-1576.039182683599
 20
77.13299178150012
 10
-1563.542212098793
 20
77.13299178150012
 10
-1563.542212098793
 20
120.7639309864382
 42
-0.0958663550348273
 10
-1551.360549851644
 20
121.3194417970501
 42
-0.3633763851128492
 10
-1544.00503724245
 20
112.5347857864049
 10
-1544.00503724245
 20
77.13299178150012
 10
-1531.834896717402
 20
77.13299178150012
 10
-1531.834896717402
 20
114.4279683846178
 42
0.3803017440747632
  0
HATCH
  5
DE
330
1F
100
AcDbEntity
  8
@__WIDOCZNE
  6
Continuous
370
    13
100
AcDbHatch
 10
0.0
 20
0.0
 30
0.0
210
0.0
220
0.0
230
1.0
  2
SOLID
 70
     1
 71
     1
 91
        1
 92
        2
 72
     1
 73
     1
 93
       12
 10
-1522.352887578064
 20
94.39724550142603
 42
0.3564817226562251
 10
-1505.088736736602
 20
77.19259236232101
 42
0.0
 10
-1492.642244590944
 20
77.23556106479978
 42
0.0
 10
-1489.989740801132
 20
88.84026514522947
 42
0.0
 10
-1502.700156171843
 20
88.84026514522947
 42
-0.3014632934563285
 10
-1510.073622884566
 20
96.21373185795245
 42
0.0
 10
-1510.073622884566
 20
120.9952887917644
 42
0.0
 10
-1494.152203409097
 20
120.9952887917644
 42
0.0
 10
-1494.152203409097
 20
132.461425542873
 42
0.0
 10
-1510.073622884566
 20
132.461425542873
 42
0.0
 10
-1510.073622884566
 20
147.9472341783427
 42
0.0
 10
-1522.352887578064
 20
145.4497566135621
 42
0.0
 97
        1
330
DF
 75
     0
 76
     1
 98
        0
  0
LWPOLYLINE
  5
DF
102
{ACAD_REACTORS
330
DE
102
}
330
1F
100
AcDbEntity
  8
@__WIDOCZNE
  6
Continuous
370
    13
100
AcDbPolyline
 90
       12
 70
   129
 43
0.0
 10
-1522.352887578064
 20
94.39724550142603
 42
0.3564817226562251
 10
-1505.088736736602
 20
77.19259236232101
 10
-1492.642244590944
 20
77.23556106479978
 10
-1489.989740801132
 20
88.84026514522947
 10
-1502.700156171843
 20
88.84026514522947
 42
-0.3014632934563285
 10
-1510.073622884566
 20
96.21373185795245
 10
-1510.073622884566
 20
120.9952887917644
 10
-1494.152203409097
 20
120.9952887917644
 10
-1494.152203409097
 20
132.461425542873
 10
-1510.073622884566
 20
132.461425542873
 10
-1510.073622884566
 20
147.9472341783427
 10
-1522.352887578064
 20
145.4497566135621
  0
HATCH
  5
E0
330
1F
100
AcDbEntity
  8
@__WIDOCZNE
  6
Continuous
370
    13
100
AcDbHatch
 10
0.0
 20
0.0
 30
0.0
210
0.0
220
0.0
230
1.0
  2
SOLID
 70
     1
 71
     1
 91
        2
 92
        2
 72
     1
 73
     1
 93
        9
 10
-1848.353175529131
 20
131.9865777042571
 42
0.2820479307333718
 10
-1867.197331750688
 20
112.9341680243011
 42
0.0886832537999132
 10
-1867.163046105806
 20
95.6340267899235
 42
0.2508564250541997
 10
-1849.731031447699
 20
77.13299178150012
 42
0.0
 10
-1834.716311145267
 20
77.13299178150012
 42
0.2670900430231695
 10
-1817.07116219828
 20
97.31499222255724
 42
0.1207336614180937
 10
-1817.027114476575
 20
112.0036505578009
 42
0.3094451166888095
 10
-1835.7117200332
 20
131.9520427760955
 42
0.0268897328129527
 10
-1839.05683206555
 20
132.461425542873
 42
0.074328415179198
 97
        1
330
E1
 92
        2
 72
     1
 73
     1
 93
        8
 10
-1854.789955882416
 20
110.3227931830516
 42
0.0948073731652809
 10
-1854.886012577467
 20
99.10403397769396
 42
0.0590800675341869
 10
-1853.794519113519
 20
95.37256301273256
 42
0.6394418664691048
 10
-1830.873453923094
 20
94.6762888287792
 42
0.0835238969854629
 10
-1829.438696118692
 20
99.36979420911373
 42
0.0916297819744675
 10
-1829.6662344727
 20
110.8893034427733
 42
0.2559732989582162
 10
-1838.078277064552
 20
121.3187197214099
 42
0.1954327814670101
 10
-1846.631108014911
 20
120.9701862959011
 42
0.2505066079508973
 97
        1
330
E2
 75
     0
 76
     1
 98
        0
  0
LWPOLYLINE
  5
E1
102
{ACAD_REACTORS
330
E0
102
}
330
1F
100
AcDbEntity
  8
@__WIDOCZNE
  6
Continuous
370
    13
100
AcDbPolyline
 90
        9
 70
   129
 43
0.0
 10
-1848.353175529131
 20
131.9865777042571
 42
0.2820479307333718
 10
-1867.197331750688
 20
112.9341680243011
 42
0.0886832537999132
 10
-1867.163046105806
 20
95.6340267899235
 42
0.2508564250541997
 10
-1849.731031447699
 20
77.13299178150012
 10
-1834.716311145267
 20
77.13299178150012
 42
0.2670900430231695
 10
-1817.07116219828
 20
97.31499222255724
 42
0.1207336614180937
 10
-1817.027114476575
 20
112.0036505578009
 42
0.3094451166888095
 10
-1835.7117200332
 20
131.9520427760955
 42
0.0268897328129527
 10
-1839.05683206555
 20
132.461425542873
 42
0.074328415179198
  0
LWPOLYLINE
  5
E2
102
{ACAD_REACTORS
330
E0
102
}
330
1F
100
AcDbEntity
  8
@__WIDOCZNE
  6
Continuous
370
    13
100
AcDbPolyline
 90
        8
 70
   129
 43
0.0
 10
-1854.789955882416
 20
110.3227931830516
 42
0.0948073731652809
 10
-1854.886012577467
 20
99.10403397769396
 42
0.0590800675341869
 10
-1853.794519113519
 20
95.37256301273256
 42
0.6394418664691048
 10
-1830.873453923094
 20
94.6762888287792
 42
0.0835238969854629
 10
-1829.438696118692
 20
99.36979420911373
 42
0.0916297819744675
 10
-1829.6662344727
 20
110.8893034427733
 42
0.2559732989582162
 10
-1838.078277064552
 20
121.3187197214099
 42
0.1954327814670101
 10
-1846.631108014911
 20
120.9701862959011
 42
0.2505066079508973
  0
WIPEOUT
  5
24A
330
1F
100
AcDbEntity
  8
@__WIDOCZNE
  6
Wipeout_Contour
 62
   254
 48
24690.75016490489
370
     0
 92
      332
310
4C0100000100000044010000060000000D000000F760520DC36992C0988FFA19F64B9A4000000000000000006EC60700C73D91C0988FFA19F64B9A4000000000000000006EC60700C73D91C003C4103739059A4000000000000000006EC60700C7ED90C003C4103739059A4000000000000000006EC60700C7ED90C07F8970
310
D427679B4000000000000000006952E4F0B74691C015EE4963CA709B4000000000000000006952E4F0B74691C004C44F3739299B4000000000000000008F82AC57E72492C004C44F3739299B4000000000000000008F82AC57E72492C015EE4963CA709B4000000000000000008A0E8948D87D92C07F8970D427679B400000
310
000000000000F660520DC37D92C077CE628C14799A400000000000000000F760520DC36992C077CE628C14799A400000000000000000F760520DC36992C0988FFA19F64B9A400000000000000000
100
AcDbWipeout
 90
        0
 10
-1183.461214200508
 20
1665.305874120678
 30
0.0
 11
100.0168781471502
 21
0.0
 31
0.0
 12
0.0
 22
90.89177026099469
 32
0.0
 13
1.0
 23
1.0
340
0
 70
    15
280
     1
281
    50
282
    50
283
     0
360
0
 71
     2
 91
       13
 14
-0.449801135694138
 24
0.3054338769657374
 14
0.3000337505978249
 24
0.3054338769657374
 14
0.3000337505978249
 24
0.5
 14
0.5
 24
0.5
 14
0.5
 24
-0.4734987222220243
 14
0.2776845845854798
 24
-0.5
 14
0.2776845845854798
 24
-0.3031530327680351
 14
-0.2776845845854798
 24
-0.3031530327680351
 14
-0.2776845845854798
 24
-0.5
 14
-0.5
 24
-0.4734987222220243
 14
-0.4997926980446795
 24
0.1813331660710217
 14
-0.449801135694138
 24
0.1813331660710217
 14
-0.449801135694138
 24
0.3054338769657374
  0
INSERT
  5
24B
330
1F
100
AcDbEntity
  8
@__WIDOCZNE
  6
Continuous
370
    13
100
AcDbBlockReference
  2
*X2
 10
0.0
 20
0.0
 30
0.0
  0
LINE
  5
24C
330
1F
100
AcDbEntity
  8
@__WIDOCZNE
  6
Continuous
370
    25
100
AcDbLine
 10
-1178.440480506104
 20
1682.99033347608
 30
0.0
 11
-1103.444336053358
 21
1682.99033347608
 31
0.0
  0
LINE
  5
24D
330
1F
100
AcDbEntity
  8
@__WIDOCZNE
  6
Continuous
370
    25
100
AcDbLine
 10
-1103.444336053358
 20
1682.99033347608
 30
0.0
 11
-1103.444336053358
 21
1665.305874120678
 31
0.0
  0
LINE
  5
24E
330
1F
100
AcDbEntity
  8
@__WIDOCZNE
  6
Continuous
370
    25
100
AcDbLine
 10
-1103.444336053358
 20
1665.305874120678
 30
0.0
 11
-1083.444336053358
 21
1665.305874120678
 31
0.0
  0
LINE
  5
24F
330
1F
100
AcDbEntity
  8
@__WIDOCZNE
  6
Continuous
370
    25
100
AcDbLine
 10
-1083.444336053358
 20
1665.305874120678
 30
0.0
 11
-1083.444336053358
 21
1753.788896330254
 31
0.0
  0
LINE
  5
250
330
1F
100
AcDbEntity
  8
@__WIDOCZNE
  6
Continuous
370
    25
100
AcDbLine
 10
-1083.444336053358
 20
1753.788896330254
 30
0.0
 11
-1105.679629867105
 21
1756.197644381672
 31
0.0
  0
LINE
  5
251
330
1F
100
AcDbEntity
  8
@__WIDOCZNE
  6
Continuous
370
    25
100
AcDbLine
 10
-1105.679629867105
 20
1756.197644381672
 30
0.0
 11
-1105.679629867105
 21
1738.305875059451
 31
0.0
  0
LINE
  5
252
330
1F
100
AcDbEntity
  8
@__WIDOCZNE
  6
Continuous
370
    25
100
AcDbLine
 10
-1105.679629867105
 20
1738.305875059451
 30
0.0
 11
-1161.225920386761
 21
1738.305875059451
 31
0.0
  0
LINE
  5
253
330
1F
100
AcDbEntity
  8
@__WIDOCZNE
  6
Continuous
370
    25
100
AcDbLine
 10
-1161.225920386761
 20
1738.305875059451
 30
0.0
 11
-1161.225920386761
 21
1756.197644381672
 31
0.0
  0
LINE
  5
254
330
1F
100
AcDbEntity
  8
@__WIDOCZNE
  6
Continuous
370
    25
100
AcDbLine
 10
-1161.225920386761
 20
1756.197644381672
 30
0.0
 11
-1183.461214200508
 21
1753.788896330254
 31
0.0
  0
LINE
  5
255
330
1F
100
AcDbEntity
  8
@__WIDOCZNE
  6
Continuous
370
    25
100
AcDbLine
 10
-1183.461214200508
 20
1753.788896330254
 30
0.0
 11
-1183.440480506104
 21
1694.270066779949
 31
0.0
  0
LINE
  5
256
330
1F
100
AcDbEntity
  8
@__WIDOCZNE
  6
Continuous
370
    25
100
AcDbLine
 10
-1183.440480506104
 20
1694.270066779949
 30
0.0
 11
-1178.440480506104
 21
1694.270066779949
 31
0.0
  0
LINE
  5
257
330
1F
100
AcDbEntity
  8
@__WIDOCZNE
  6
Continuous
370
    25
100
AcDbLine
 10
-1178.440480506104
 20
1694.270066779949
 30
0.0
 11
-1178.440480506104
 21
1682.99033347608
 31
0.0
  0
WIPEOUT
  5
258
330
1F
100
AcDbEntity
  8
@__WIDOCZNE
  6
Wipeout_Contour
 62
   254
 48
9991.346696989616
370
     0
 92
      140
310
8C0000000100000084000000060000000500000021582A88CD1192C057CCB09AD8D2A440000000000000000021582A88CD1192C003C44F37393D9B40000000000000000098DE7D88CD0192C003C44F37393D9B40000000000000000098DE7D88CD0192C057CCB09AD8D2A440000000000000000021582A88CD1192C057CCB0
310
9AD8D2A4400000000000000000
100
AcDbWipeout
 90
        0
 10
-1156.450714742307
 20
1743.305875059451
 30
0.0
 11
3.999998755376737
 21
0.0
 31
0.0
 12
0.0
 22
922.1171801363041
 32
0.0
 13
1.0
 23
1.0
340
0
 70
    15
280
     1
281
    50
282
    50
283
     0
360
0
 71
     2
 91
        5
 14
-0.5000000000000284
 24
-0.5000000000000001
 14
-0.5000000000000284
 24
0.4999999999999999
 14
0.4999999999999716
 24
0.4999999999999999
 14
0.4999999999999716
 24
-0.5000000000000001
 14
-0.5000000000000284
 24
-0.5000000000000001
  0
LWPOLYLINE
  5
259
330
1F
100
AcDbEntity
  8
@__WIDOCZNE
  6
Continuous
370
    13
100
AcDbPolyline
 90
        4
 70
   129
 43
0.0
 10
-1156.450714742307
 20
2665.423055195755
 10
-1156.450714742307
 20
1743.305875059451
 10
-1152.45071598693
 20
1743.305875059451
 10
-1152.45071598693
 20
2665.423055195755
  0
WIPEOUT
  5
25A
330
1F
100
AcDbEntity
  8
@__WIDOCZNE
  6
Wipeout_Contour
 62
   254
 48
9912.69505515857
370
     0
 92
      140
310
8C000000010000008400000006000000050000004248E27AD16991C057CCB09AD8D2A44000000000000000004248E27AD16991C003C44F37393D9B400000000000000000D98ADD7AD15991C003C44F37393D9B400000000000000000D98ADD7AD15991C057CCB09AD8D2A44000000000000000004248E27AD16991C057CCB0
310
9AD8D2A4400000000000000000
100
AcDbWipeout
 90
        0
 10
-1114.454570327435
 20
1743.305875059451
 30
0.0
 11
4.000000070629767
 21
0.0
 31
0.0
 12
0.0
 22
922.1171801363041
 32
0.0
 13
1.0
 23
1.0
340
0
 70
    15
280
     1
281
    50
282
    50
283
     0
360
0
 71
     2
 91
        5
 14
-0.4999999999999716
 24
-0.5000000000000001
 14
-0.4999999999999716
 24
0.4999999999999999
 14
0.5000000000000284
 24
0.4999999999999999
 14
0.5000000000000284
 24
-0.5000000000000001
 14
-0.4999999999999716
 24
-0.5000000000000001
  0
LWPOLYLINE
  5
25B
330
1F
100
AcDbEntity
  8
@__WIDOCZNE
  6
Continuous
370
    13
100
AcDbPolyline
 90
        4
 70
   129
 43
0.0
 10
-1114.454570327435
 20
2665.423055195755
 10
-1114.454570327435
 20
1743.305875059451
 10
-1110.454570256805
 20
1743.305875059451
 10
-1110.454570256805
 20
2665.423055195755
  0
WIPEOUT
  5
25C
330
1F
100
AcDbEntity
  8
@__WIDOCZNE
  6
Wipeout_Contour
 62
   254
 48
9951.640642451664
370
     0
 92
      140
310
8C00000001000000840000000600000005000000D2A2978F97BD91C057CCB09AD8D2A4400000000000000000D2A2978F97BD91C003C44F37393D9B40000000000000000076B9909397AD91C003C44F37393D9B40000000000000000076B9909397AD91C057CCB09AD8D2A4400000000000000000D2A2978F97BD91C057CCB0
310
9AD8D2A4400000000000000000
100
AcDbWipeout
 90
        0
 10
-1135.398008698762
 20
1743.305875059451
 30
0.0
 11
3.999984844201208
 21
0.0
 31
0.0
 12
0.0
 22
922.1171801363041
 32
0.0
 13
1.0
 23
1.0
340
0
 70
    15
280
     1
281
    50
282
    50
283
     0
360
0
 71
     2
 91
        5
 14
-0.5
 24
-0.5000000000000001
 14
-0.5
 24
0.4999999999999999
 14
0.5
 24
0.4999999999999999
 14
0.5
 24
-0.5000000000000001
 14
-0.5
 24
-0.5000000000000001
  0
LWPOLYLINE
  5
25D
330
1F
100
AcDbEntity
  8
@__WIDOCZNE
  6
Continuous
370
    13
100
AcDbPolyline
 90
        4
 70
   129
 43
0.0
 10
-1135.398008698762
 20
2665.423055195755
 10
-1135.398008698762
 20
1743.305875059451
 10
-1131.398023854561
 20
1743.305875059451
 10
-1131.398023854561
 20
2665.423055195755
  0
LWPOLYLINE
  5
25E
330
1F
100
AcDbEntity
  8
@__WIDOCZNE
  6
Continuous
370
    13
100
AcDbPolyline
 90
        8
 70
   129
 43
0.0
 10
-1109.937332907589
 20
1675.844432854369
 10
-1109.937332907589
 20
1660.274465868851
 42
0.414213562373095
 10
-1107.937332907589
 20
1658.274465868851
 10
-1106.937332907589
 20
1658.274465868851
 42
0.414213562373095
 10
-1104.937332907589
 20
1660.274465868851
 10
-1104.937332907589
 20
1675.844432854369
 42
0.414213562373095
 10
-1106.937332907589
 20
1677.844432854369
 10
-1107.937332907589
 20
1677.844432854369
 42
0.414213562373095
  0
WIPEOUT
  5
295
330
1F
100
AcDbEntity
  8
2D - Ogólne
  6
Wipeout_Contour
 62
   254
 48
6624.654199356351
370
     0
 92
      140
310
8C00000001000000840000000600000005000000C0B7EDAACD9192C0480934C7B2727A400000000000000000C0B7EDAACD9192C0D4661F2F80DC99400000000000000000C1B7EDAACDD592C0D4661F2F80DC99400000000000000000C1B7EDAACDD592C0480934C7B2727A400000000000000000C0B7EDAACD9192C0480934
310
C7B2727A400000000000000000
100
AcDbWipeout
 90
        0
 10
-1205.450847353306
 20
423.1686470062891
 30
0.0
 11
17.00000000000023
 21
0.0
 31
0.0
 12
0.0
 22
1231.956532752404
 32
0.0
 13
1.0
 23
1.0
340
0
 70
    15
280
     1
281
    50
282
    50
283
     0
360
0
 71
     2
 91
        5
 14
0.4999999999999933
 24
0.5
 14
0.4999999999999933
 24
-0.5
 14
-0.5000000000000067
 24
-0.5
 14
-0.5000000000000067
 24
0.5
 14
0.4999999999999933
 24
0.5
  0
INSERT
  5
296
330
1F
100
AcDbEntity
  8
2D - Ogólne
  6
Continuous
370
    13
100
AcDbBlockReference
  2
*X3
 10
0.0
 20
0.0
 30
0.0
  0
LINE
  5
297
330
1F
100
AcDbEntity
  8
2D - Ogólne
  6
Continuous
370
    13
100
AcDbLine
 10
-1188.450847353306
 20
423.1686470062891
 30
0.0
 11
-1188.450847353306
 21
1655.125179758693
 31
0.0
  0
LINE
  5
298
330
1F
100
AcDbEntity
  8
2D - Ogólne
  6
Continuous
370
    13
100
AcDbLine
 10
-1188.450847353306
 20
1655.125179758693
 30
0.0
 11
-1205.450847353306
 21
1655.125179758693
 31
0.0
  0
LINE
  5
299
330
1F
100
AcDbEntity
  8
2D - Ogólne
  6
Continuous
370
    13
100
AcDbLine
 10
-1205.450847353306
 20
1655.125179758693
 30
0.0
 11
-1205.450847353306
 21
423.1686470062891
 31
0.0
  0
LINE
  5
29A
330
1F
100
AcDbEntity
  8
2D - Ogólne
  6
Continuous
370
    13
100
AcDbLine
 10
-1205.450847353306
 20
423.1686470062891
 30
0.0
 11
-1188.450847353306
 21
423.1686470062891
 31
0.0
  0
WIPEOUT
  5
29B
330
1F
100
AcDbEntity
  8
@__WIDOCZNE
  6
Wipeout_Contour
 62
   254
 48
7568.610097085218
370
     0
 92
      140
310
8C00000001000000840000000600000005000000C1B7EDAACD9192C0D5661F2F806C96400000000000000000C0B7EDAACD0191C0D5661F2F806C96400000000000000000C0B7EDAACD0191C0D4661F2F80C498400000000000000000C1B7EDAACD9192C0D4661F2F80C498400000000000000000C1B7EDAACD9192C0D5661F
310
2F806C96400000000000000000
100
AcDbWipeout
 90
        0
 10
-1188.450847353306
 20
1435.125179758693
 30
0.0
 11
100.0000000000002
 21
0.0
 31
0.0
 12
0.0
 22
149.9999999999998
 32
0.0
 13
1.0
 23
1.0
340
0
 70
    15
280
     1
281
    50
282
    50
283
     0
360
0
 71
     2
 91
        5
 14
-0.5000000000000011
 24
0.4999999999999992
 14
0.4999999999999989
 24
0.4999999999999992
 14
0.4999999999999989
 24
-0.5000000000000008
 14
-0.5000000000000011
 24
-0.5000000000000008
 14
-0.5000000000000011
 24
0.4999999999999992
  0
HATCH
  5
29C
330
1F
100
AcDbEntity
  8
@__WIDOCZNE
  6
Continuous
370
    13
100
AcDbHatch
 10
0.0
 20
0.0
 30
0.0
210
0.0
220
0.0
230
1.0
  2
Izolacja_miękka
 70
     0
 71
     1
 91
        1
 92
        2
 72
     0
 73
     1
 93
        4
 10
-1188.450847353306
 20
1435.125179758693
 10
-1088.450847353306
 20
1435.125179758693
 10
-1088.450847353306
 20
1585.125179758693
 10
-1188.450847353306
 20
1585.125179758693
 97
        1
330
29D
 75
     0
 76
     2
 52
0.0
 41
1.0
 77
     0
 78
     2
 53
60.00000000000001
 43
0.0
 44
0.0
 45
-12.99038105676658
 46
7.499999999999996
 79
     0
 53
120.0
 43
0.0
 44
0.0
 45
12.99038105676657
 46
7.500000000000008
 79
     0
 98
        0
  0
LWPOLYLINE
  5
29D
102
{ACAD_REACTORS
330
29C
102
}
330
1F
100
AcDbEntity
  8
@__WIDOCZNE
  6
Continuous
370
    25
100
AcDbPolyline
 90
        4
 70
   129
 43
0.0
 10
-1188.450847353306
 20
1435.125179758693
 10
-1088.450847353306
 20
1435.125179758693
 10
-1088.450847353306
 20
1585.125179758693
 10
-1188.450847353306
 20
1585.125179758693
  0
WIPEOUT
  5
29E
330
1F
100
AcDbEntity
  8
@__WIDOCZNE
  6
Wipeout_Contour
 62
   254
 48
7107.305223149242
370
     0
 92
      140
310
8C000000010000008400000006000000050000008FF7281825A48EC0DA84DB78CFF3964000000000000000001715791BCA4990C0DA84DB78CFF3964000000000000000001715791BCA4990C0C838FD22EAB0964000000000000000008FF7281825A48EC0C838FD22EAB0964000000000000000008FF7281825A48EC0DA84DB
310
78CFF396400000000000000000
100
AcDbWipeout
 90
        0
 10
-1042.447370426094
 20
1452.228649098006
 30
0.0
 11
61.92925793824895
 21
0.0
 31
0.0
 12
0.0
 22
16.72396037425324
 32
0.0
 13
1.0
 23
1.0
340
0
 70
    15
280
     1
281
    50
282
    50
283
     0
360
0
 71
     2
 91
        5
 14
0.4999999999999991
 24
-0.5
 14
-0.5000000000000009
 24
-0.5
 14
-0.5000000000000009
 24
0.5
 14
0.4999999999999991
 24
0.5
 14
0.4999999999999991
 24
-0.5
  0
INSERT
  5
2D3
330
1F
100
AcDbEntity
  8
@__WIDOCZNE
  6
Continuous
 62
     4
370
    13
100
AcDbBlockReference
  2
Izolacja cieplna 12_62
 10
-1077.483622645485
 20
1585.125179758693
 30
0.0
  0
INSERT
  5
304
330
1F
100
AcDbEntity
  8
@__WIDOCZNE
  6
Continuous
 62
     4
370
    13
100
AcDbBlockReference
  2
Izolacja cieplna 12_60
 10
-933.6616686678157
 20
1452.124790032153
 30
0.0
  0
INSERT
  5
30C
330
1F
100
AcDbEntity
  8
@__WIDOCZNE
  6
Continuous
 62
     4
370
    13
100
AcDbBlockReference
 66
     1
  2
Symbol nachylenia 12_67
 10
-1616.732981407581
 20
1581.707984973847
 30
0.0
  0
ATTRIB
  5
30D
330
30C
100
AcDbEntity
  8
@__WIDOCZNE
  6
Continuous
370
    13
100
AcDbText
 10
-1672.175662629025
 20
1587.701659130997
 30
0.0
 40
20.0
  1
 2%
 50
0.9955820795364223
  7
GENERATED_STYLE_1
 11
-1672.072958252423
 21
1581.791613958587
 31
0.0
100
AcDbAttribute
  2
txt
 70
     0
 74
     1
  0
SEQEND
  5
30E
330
30C
100
AcDbEntity
  8
@__WIDOCZNE
  6
Continuous
 62
     4
370
    13
  0
INSERT
  5
31F
330
1F
100
AcDbEntity
  8
@__WIDOCZNE
  6
Continuous
 62
     4
370
    13
100
AcDbBlockReference
  2
Izolacja cieplna 12_104
 10
-1073.347035286875
 20
1468.97083603146
 30
0.0
  0
LINE
  5
320
330
1F
100
AcDbEntity
  8
@__WIDOCZNE
  6
Continuous
370
    13
100
AcDbLine
 10
-299.9720995921508
 20
1435.125179758693
 30
0.0
 11
-1188.450798361555
 21
1435.125179758693
 31
0.0
  0
LINE
  5
321
330
1F
100
AcDbEntity
  8
@__WIDOCZNE
  6
Continuous
370
    13
100
AcDbLine
 10
-1188.316988398992
 20
1435.125179758693
 30
0.0
 11
-948.4508473535244
 21
1435.125179758693
 31
0.0
  0
LINE
  5
322
330
1F
100
AcDbEntity
  8
@__WIDOCZNE
  6
Continuous
370
    13
100
AcDbLine
 10
-1188.450847353306
 20
1435.125179758693
 30
0.0
 11
-948.4508473535244
 21
1435.125179758693
 31
0.0
  0
LINE
  5
323
330
1F
100
AcDbEntity
  8
@__WIDOCZNE
  6
Continuous
370
    13
100
AcDbLine
 10
-1161.506108920958
 20
1435.125179758693
 30
0.0
 11
-914.3672433105622
 21
1435.125179758693
 31
0.0
  0
LINE
  5
324
330
1F
100
AcDbEntity
  8
@__WIDOCZNE
  6
Continuous
370
    25
100
AcDbLine
 10
-934.3289242775719
 20
1655.125179758693
 30
0.0
 11
-948.4508473535244
 21
1655.125179758693
 31
0.0
  0
LINE
  5
325
330
1F
100
AcDbEntity
  8
@__WIDOCZNE
  6
Continuous
370
    25
100
AcDbLine
 10
-933.3289242775719
 20
1585.125179758693
 30
0.0
 11
-1088.450847353306
 21
1585.125179758693
 31
0.0
  0
LINE
  5
326
330
1F
100
AcDbEntity
  8
@__WIDOCZNE
  6
Continuous
370
    25
100
AcDbLine
 10
-938.4508473535244
 20
1655.125179758693
 30
0.0
 11
-938.4508473535244
 21
2665.423055195755
 31
0.0
  0
LINE
  5
327
330
1F
100
AcDbEntity
  8
@__WIDOCZNE
  6
Continuous
370
    25
100
AcDbLine
 10
-1357.608448332071
 20
1641.88830833231
 30
0.0
 11
-1230.608446439624
 21
1641.88830833231
 31
0.0
  0
LINE
  5
328
330
1F
100
AcDbEntity
  8
@__WIDOCZNE
  6
Continuous
370
    25
100
AcDbLine
 10
-1230.608446439624
 20
1649.388313883657
 30
0.0
 11
-1357.608448332071
 21
1649.388313883657
 31
0.0
  0
LINE
  5
329
330
1F
100
AcDbEntity
  8
@__WIDOCZNE
  6
Continuous
370
    25
100
AcDbLine
 10
-1368.460171309495
 20
1965.288599993625
 30
0.0
 11
-1188.450847353306
 21
1965.288599993625
 31
0.0
  0
LINE
  5
32B
330
1F
100
AcDbEntity
  8
@__WIDOCZNE
  6
Przerywana gęsta
 62
   255
370
     0
100
AcDbLine
 10
-1930.000000000318
 20
269.9999999999989
 30
0.0
 11
-1930.000000000318
 21
2920.0
 31
0.0
  0
LINE
  5
32C
330
1F
100
AcDbEntity
  8
@__WIDOCZNE
  6
Continuous
370
    13
100
AcDbLine
 10
-1183.450847353306
 20
2665.19441453528
 30
0.0
 11
-1183.450847353306
 21
1752.423014205286
 31
0.0
  0
LINE
  5
32D
330
1F
100
AcDbEntity
  8
@__WIDOCZNE
  6
Continuous
370
    13
100
AcDbLine
 10
-1161.225920386761
 20
2665.423055195755
 30
0.0
 11
-1161.225920386761
 21
1756.065061537556
 31
0.0
  0
LINE
  5
32E
330
1F
100
AcDbEntity
  8
@__WIDOCZNE
  6
Continuous
370
    13
100
AcDbLine
 10
-1105.679629867106
 20
2665.555765744829
 30
0.0
 11
-1105.679629867105
 21
1756.197644381672
 31
0.0
  0
LINE
  5
32F
330
1F
100
AcDbEntity
  8
@__WIDOCZNE
  6
Continuous
370
    13
100
AcDbLine
 10
-1083.519311567301
 20
2665.423055195755
 30
0.0
 11
-1083.519311567301
 21
1753.788896330254
 31
0.0
  0
LINE
  5
330
330
1F
100
AcDbEntity
  8
@__WIDOCZNE
  6
Continuous
370
    13
100
AcDbLine
 10
-1110.454570256805
 20
1743.305875059451
 30
0.0
 11
-1110.454570256805
 21
1738.305875059451
 31
0.0
  0
LINE
  5
331
330
1F
100
AcDbEntity
  8
@__WIDOCZNE
  6
Continuous
370
    13
100
AcDbLine
 10
-1156.450714742307
 20
1743.305875059451
 30
0.0
 11
-1156.450714742307
 21
1738.305875059451
 31
0.0
  0
LWPOLYLINE
  5
332
330
1F
100
AcDbEntity
  8
@__WIDOCZNE
  6
Continuous
370
    13
100
AcDbPolyline
 90
        2
 70
   129
 43
0.0
 10
-150.0000000001365
 20
60.0000000000009
 10
-1414.269721801408
 20
60.0000000000009
  0
LWPOLYLINE
  5
333
330
1F
100
AcDbEntity
  8
@__WIDOCZNE
  6
Continuous
370
    13
100
AcDbPolyline
 90
        4
 70
   129
 43
0.0
 10
-1950.000000000318
 20
220.0000000000005
 10
-1950.000000000318
 20
0.0000000000008465
 10
-150.0000000001365
 20
0.0000000000017347
 10
-150.0000000001365
 20
220.000000000001
  0
LWPOLYLINE
  5
334
330
1F
100
AcDbEntity
  8
@__WIDOCZNE
  6
Continuous
370
    13
100
AcDbPolyline
 90
        2
 70
   128
 43
0.0
 10
-290.0000000000092
 20
170.0000000000016
 10
-290.0000000000092
 20
220.000000000001
  0
LWPOLYLINE
  5
335
330
1F
100
AcDbEntity
  8
@__WIDOCZNE
  6
Continuous
370
    13
100
AcDbPolyline
 90
        2
 70
   128
 43
0.0
 10
-150.0000000001365
 20
170.0000000000016
 10
-460.0000000000819
 20
170.0000000000016
  0
LWPOLYLINE
  5
336
330
1F
100
AcDbEntity
  8
@__WIDOCZNE
  6
Continuous
370
    13
100
AcDbPolyline
 90
        2
 70
   128
 43
0.0
 10
-460.0000000000819
 20
60.00000000000134
 10
-460.0000000000819
 20
220.000000000001
  0
LWPOLYLINE
  5
337
330
1F
100
AcDbEntity
  8
@__WIDOCZNE
  6
Continuous
370
    13
100
AcDbPolyline
 90
        4
 70
   129
 43
0.0
 10
-1950.000000000318
 20
2870.000000000001
 10
-149.9999999999091
 20
2870.000000000001
 10
-149.9999999999091
 20
220.000000000001
 10
-1950.000000000318
 20
220.000000000001
  0
LWPOLYLINE
  5
338
330
1F
100
AcDbEntity
  8
@__WIDOCZNE
  6
Continuous
370
    13
100
AcDbPolyline
 90
        4
 70
   129
 43
0.0
 10
-100.0
 20
-49.99999999999825
 10
-2200.000000000363
 20
-49.99999999999825
 10
-2200.000000000363
 20
2920.000000000002
 10
-100.0
 20
2920.000000000002
  0
LWPOLYLINE
  5
339
330
1F
100
AcDbEntity
  8
@__WIDOCZNE
  6
Continuous
370
    25
100
AcDbPolyline
 90
        4
 70
   128
 43
0.0
 10
-1368.460171309495
 20
1655.125179758693
 10
-1368.460171309495
 20
1965.288599993625
 10
-1398.450847353306
 20
1965.288599993625
 10
-1398.450847353306
 20
2665.423055195755
  0
LWPOLYLINE
  5
33A
330
1F
100
AcDbEntity
  8
@__WIDOCZNE
  6
Continuous
370
    25
100
AcDbPolyline
 90
        4
 70
   129
 43
0.0
 10
-1357.608448332071
 20
1634.38830833231
 10
-1357.608448332071
 20
1655.125179758693
 10
-1230.608446439624
 20
1655.125179758693
 10
-1230.608446439624
 20
1634.388313883657
  0
LWPOLYLINE
  5
33B
330
1F
100
AcDbEntity
  8
@__WIDOCZNE
  6
Continuous
370
    25
100
AcDbPolyline
 90
       24
 70
   129
 43
0.0
 10
-1225.608446365118
 20
1633.125179430867
 10
-1362.608448406577
 20
1633.125179430867
 10
-1362.608448406577
 20
1655.125179758693
 10
-1367.608448481083
 20
1655.125179758693
 10
-1367.608448481083
 20
1598.125178909326
 10
-1342.608448406577
 20
1598.125178909326
 10
-1342.608448406577
 20
1603.125178983832
 10
-1332.608448406577
 20
1603.125178983832
 10
-1332.608448406577
 20
1598.125178909326
 10
-1317.608448406577
 20
1598.125178909326
 10
-1317.608448406577
 20
1603.125178983832
 10
-1303.108447385848
 20
1603.125178983832
 10
-1303.108447385848
 20
1598.125178909326
 10
-1288.108447385848
 20
1598.125178909326
 10
-1288.108447385848
 20
1603.125178983832
 10
-1270.608446365118
 20
1603.125178983832
 10
-1270.608446365118
 20
1598.125178909326
 10
-1255.608446365118
 20
1598.125178909326
 10
-1255.608446365118
 20
1603.125178983832
 10
-1245.608446365118
 20
1603.125178983832
 10
-1245.608446365118
 20
1598.125178909326
 10
-1220.608446290612
 20
1598.125178909326
 10
-1220.608446290612
 20
1655.125179758693
 10
-1225.608446365118
 20
1655.125179758693
  0
LWPOLYLINE
  5
33C
330
1F
100
AcDbEntity
  8
@__WIDOCZNE
  6
Continuous
370
    25
100
AcDbPolyline
 90
        8
 70
   129
 43
0.0
 10
-1362.608448406577
 20
1603.125178983832
 10
-1225.608446365118
 20
1603.125178983832
 10
-1225.608446365118
 20
1628.125179430867
 10
-1255.608446365118
 20
1628.125179430867
 10
-1255.608446365118
 20
1633.125179430867
 10
-1332.608448406577
 20
1633.125179430867
 10
-1332.608448406577
 20
1628.125179430867
 10
-1362.608448406577
 20
1628.125179430867
  0
LWPOLYLINE
  5
33D
330
1F
100
AcDbEntity
  8
@__WIDOCZNE
  6
Continuous
370
    25
100
AcDbPolyline
 90
        4
 70
   129
 43
0.0
 10
-1303.108447385848
 20
1603.125178983832
 10
-1288.108447385848
 20
1603.125178983832
 10
-1288.108447385848
 20
1598.125178909326
 10
-1303.108447385848
 20
1598.125178909326
  0
LWPOLYLINE
  5
33E
330
1F
100
AcDbEntity
  8
@__WIDOCZNE
  6
Continuous
370
    25
100
AcDbPolyline
 90
        4
 70
   129
 43
0.0
 10
-1332.608448406577
 20
1603.125178983832
 10
-1317.608448406577
 20
1603.125178983832
 10
-1317.608448406577
 20
1598.125178909326
 10
-1332.608448406577
 20
1598.125178909326
  0
LWPOLYLINE
  5
33F
330
1F
100
AcDbEntity
  8
@__WIDOCZNE
  6
Continuous
370
    25
100
AcDbPolyline
 90
        4
 70
   129
 43
0.0
 10
-1270.608446365118
 20
1603.125178983832
 10
-1255.608446365118
 20
1603.125178983832
 10
-1255.608446365118
 20
1598.125178909326
 10
-1270.608446365118
 20
1598.125178909326
  0
LWPOLYLINE
  5
340
330
1F
100
AcDbEntity
  8
@__WIDOCZNE
  6
Continuous
370
    25
100
AcDbPolyline
 90
        6
 70
   129
 43
0.0
 10
-1220.608446290612
 20
1655.125179758693
 10
-1188.450847353306
 20
1655.125179758693
 10
-1188.450847353306
 20
1650.125179684187
 10
-1215.513317265388
 20
1650.125179684187
 10
-1215.513317265388
 20
1609.770638864156
 10
-1220.608446290612
 20
1609.770638864156
  0
LWPOLYLINE
  5
341
330
1F
100
AcDbEntity
  8
@__WIDOCZNE
  6
Continuous
370
    25
100
AcDbPolyline
 90
        4
 70
   129
 43
0.0
 10
-1205.703575017813
 20
1598.169075058303
 10
-1210.608446141601
 20
1598.169075058303
 10
-1210.608446141601
 20
1650.125179684187
 10
-1205.703575017813
 20
1650.125179684187
  0
LWPOLYLINE
  5
342
330
1F
100
AcDbEntity
  8
@__WIDOCZNE
  6
Continuous
370
    25
100
AcDbPolyline
 90
        4
 70
   129
 43
0.0
 10
-1188.450847353306
 20
1650.125179684187
 10
-1128.450847353306
 20
1650.125179684187
 10
-1128.450847353306
 20
1655.125179758693
 10
-1188.450847353306
 20
1655.125179758693
  0
LWPOLYLINE
  5
343
330
1F
100
AcDbEntity
  8
@__WIDOCZNE
  6
Continuous
370
    25
100
AcDbPolyline
 90
        4
 70
   129
 43
0.0
 10
-1128.450847353306
 20
1650.125179684187
 10
-1088.450847353306
 20
1650.125179684187
 10
-1088.450847353306
 20
1655.125179758693
 10
-1128.450847353306
 20
1655.125179758693
  0
LWPOLYLINE
  5
344
330
1F
100
AcDbEntity
  8
@__WIDOCZNE
  6
Przerywana gęsta
370
    13
100
AcDbPolyline
 90
        2
 70
   128
 43
0.0
 10
-1368.460171309495
 20
1815.340216099462
 10
-1188.450889420273
 20
1815.423055195755
  0
LWPOLYLINE
  5
345
330
1F
100
AcDbEntity
  8
@__WIDOCZNE
  6
Przerywana gęsta
370
    13
100
AcDbPolyline
 90
        2
 70
   128
 43
0.0
 10
-1367.608448481083
 20
1715.340216099462
 10
-1188.450889420273
 20
1715.423055195755
  0
LWPOLYLINE
  5
346
330
1F
100
AcDbEntity
  8
@__WIDOCZNE
  6
Continuous
370
    13
100
AcDbPolyline
 90
        2
 70
   128
 43
0.0
 10
-1414.269721801408
 20
220.0000000000005
 10
-1414.269721801408
 20
-0.000000000000111
  0
LWPOLYLINE
  5
347
330
1F
100
AcDbEntity
  8
@__WIDOCZNE
  6
Continuous
370
    25
100
AcDbPolyline
 90
        2
 70
   128
 43
0.0
 10
-1398.450847353306
 20
1965.288599993625
 10
-1398.450847353306
 20
1955.288599993625
  0
LINE
  5
348
330
1F
100
AcDbEntity
  8
@__WIDOCZNE
  6
Continuous
 62
   104
370
    13
100
AcDbLine
 10
-1481.414141950012
 20
1578.043076141508
 30
0.0
 11
-1488.914141950012
 21
1606.033451141508
 31
0.0
  0
LINE
  5
349
330
1F
100
AcDbEntity
  8
@__WIDOCZNE
  6
Continuous
 62
   104
370
    13
100
AcDbLine
 10
-1481.414141950012
 20
1578.043076141508
 30
0.0
 11
-1473.914141950012
 21
1606.033451141508
 31
0.0
  0
LINE
  5
34A
330
1F
100
AcDbEntity
  8
@__WIDOCZNE
  6
Continuous
 62
   104
370
    13
100
AcDbLine
 10
-1488.914141950012
 20
1606.033451141508
 30
0.0
 11
-1473.914141950012
 21
1606.033451141508
 31
0.0
  0
HATCH
  5
34B
330
1F
100
AcDbEntity
  8
@__WIDOCZNE
  6
Continuous
 62
   104
370
    13
100
AcDbHatch
 10
0.0
 20
0.0
 30
0.0
210
0.0
220
0.0
230
1.0
  2
SOLID
 70
     1
 71
     0
 91
        1
 92
        2
 72
     0
 73
     1
 93
        3
 10
-1481.414141950012
 20
1578.043076141508
 10
-1488.914141950012
 20
1606.033451141508
 10
-1473.914141950012
 20
1606.033451141508
 97
        0
 75
     0
 76
     1
 98
        0
  0
LWPOLYLINE
  5
34C
330
1F
100
AcDbEntity
  8
@__WIDOCZNE
  6
Continuous
 62
   104
370
    25
100
AcDbPolyline
 90
        3
 70
   128
 43
0.0
 10
-1930.000000000318
 20
1880.195826969182
 10
-1481.414141950012
 20
1880.195826969182
 10
-1481.414141950012
 20
1606.033451141508
  0
LINE
  5
34D
330
1F
100
AcDbEntity
  8
@__WIDOCZNE
  6
Continuous
370
    13
100
AcDbLine
 10
-1297.444008094824
 20
1815.372897274128
 30
0.0
 11
-1304.944008094825
 21
1843.363272274128
 31
0.0
  0
LINE
  5
34E
330
1F
100
AcDbEntity
  8
@__WIDOCZNE
  6
Continuous
370
    13
100
AcDbLine
 10
-1297.444008094824
 20
1815.372897274128
 30
0.0
 11
-1289.944008094824
 21
1843.363272274128
 31
0.0
  0
LINE
  5
34F
330
1F
100
AcDbEntity
  8
@__WIDOCZNE
  6
Continuous
370
    13
100
AcDbLine
 10
-1304.944008094825
 20
1843.363272274128
 30
0.0
 11
-1289.944008094824
 21
1843.363272274128
 31
0.0
  0
HATCH
  5
350
330
1F
100
AcDbEntity
  8
@__WIDOCZNE
  6
Continuous
370
    13
100
AcDbHatch
 10
0.0
 20
0.0
 30
0.0
210
0.0
220
0.0
230
1.0
  2
SOLID
 70
     1
 71
     0
 91
        1
 92
        2
 72
     0
 73
     1
 93
        3
 10
-1297.444008094824
 20
1815.372897274128
 10
-1304.944008094825
 20
1843.363272274128
 10
-1289.944008094824
 20
1843.363272274128
 97
        0
 75
     0
 76
     1
 98
        0
  0
LWPOLYLINE
  5
351
330
1F
100
AcDbEntity
  8
@__WIDOCZNE
  6
Continuous
370
    25
100
AcDbPolyline
 90
        3
 70
   128
 43
0.0
 10
-1930.000000000318
 20
1939.925364570268
 10
-1297.444008094824
 20
1939.925364570268
 10
-1297.444008094824
 20
1843.363272274128
  0
LINE
  5
352
330
1F
100
AcDbEntity
  8
@__WIDOCZNE
  6
Continuous
370
    13
100
AcDbLine
 10
-1177.837432375124
 20
1640.241717737005
 30
0.0
 11
-1202.672138069186
 21
1655.173177335114
 31
0.0
  0
LINE
  5
353
330
1F
100
AcDbEntity
  8
@__WIDOCZNE
  6
Continuous
370
    13
100
AcDbLine
 10
-1177.837432375124
 20
1640.241717737005
 30
0.0
 11
-1191.879185860101
 21
1665.590095430809
 31
0.0
  0
LINE
  5
354
330
1F
100
AcDbEntity
  8
@__WIDOCZNE
  6
Continuous
370
    13
100
AcDbLine
 10
-1202.672138069186
 20
1655.173177335114
 30
0.0
 11
-1191.879185860101
 21
1665.590095430809
 31
0.0
  0
HATCH
  5
355
330
1F
100
AcDbEntity
  8
@__WIDOCZNE
  6
Continuous
370
    13
100
AcDbHatch
 10
0.0
 20
0.0
 30
0.0
210
0.0
220
0.0
230
1.0
  2
SOLID
 70
     1
 71
     0
 91
        1
 92
        2
 72
     0
 73
     1
 93
        3
 10
-1177.837432375124
 20
1640.241717737005
 10
-1202.672138069186
 20
1655.173177335114
 10
-1191.879185860101
 20
1665.590095430809
 97
        0
 75
     0
 76
     1
 98
        0
  0
LWPOLYLINE
  5
356
330
1F
100
AcDbEntity
  8
@__WIDOCZNE
  6
Continuous
370
    25
100
AcDbPolyline
 90
        3
 70
   128
 43
0.0
 10
-1930.000000000318
 20
1764.165899896837
 10
-1297.444008094824
 20
1764.165899896837
 10
-1197.275661964644
 20
1660.381636382961
  0
ARC
  5
357
330
1F
100
AcDbEntity
  8
@__WIDOCZNE
  6
Continuous
370
    13
100
AcDbCircle
 10
-1105.142682351701
 20
1764.179604502195
 30
0.0
 40
7.999999999994818
100
AcDbArc
 50
228.3954198804913
 51
266.15150349108
  0
ARC
  5
358
330
1F
100
AcDbEntity
  8
@__WIDOCZNE
  6
Continuous
370
    13
100
AcDbCircle
 10
-1161.762580911942
 20
1764.179623802878
 30
0.0
 40
7.999999999990339
100
AcDbArc
 50
273.8464364499275
 51
311.6043719354944
  0
MTEXT
  5
359
330
1F
100
AcDbEntity
  8
@__WIDOCZNE
  6
Continuous
370
    13
100
AcDbMText
 10
-459.8744154123032
 20
166.0000130984733
 30
0.0
 40
15.0
 41
0.0
 71
     1
 72
     1
  1
{ nr rys:}
  7
GENERATED_STYLE_1
 73
     1
 44
1.0
  0
MTEXT
  5
35B
330
1F
100
AcDbEntity
  8
@__WIDOCZNE
  6
Continuous
370
    13
100
AcDbMText
 10
-1394.078343412799
 20
133.2149102086181
 30
0.0
 40
29.99999999999999
 41
0.0
 71
     4
 72
     1
  1
{IZOLACJA LEKKA I ŚREDNIA, ŚCIANA ZEWN.\P2-WARSTWOWA Z PIWNICĄ, PRZEJŚCIE\PBEZPROGOWE, UŻYTO BOTAMENT\A1{\H0.7x;\S  ^  ;}RD1 / RD2}
  7
GENERATED_STYLE_2
 73
     1
 44
0.8001998074670765
  0
MTEXT
  5
35C
330
1F
100
AcDbEntity
  8
@__WIDOCZNE
  6
Continuous
370
    13
100
AcDbMText
 10
-434.2857142860794
 20
206.5714285714293
 30
0.0
 40
15.0
 41
0.0
 71
     2
 72
     1
  1
{ data:}
  7
GENERATED_STYLE_1
 73
     1
 44
1.0
  0
MTEXT
  5
35D
330
1F
100
AcDbEntity
  8
@__WIDOCZNE
  6
Continuous
370
    13
100
AcDbMText
 10
-260.4285714287926
 20
206.5714285714298
 30
0.0
 40
15.0
 41
0.0
 71
     2
 72
     1
  1
{ skala:}
  7
GENERATED_STYLE_1
 73
     1
 44
1.0
  0
MTEXT
  5
35E
330
1F
100
AcDbEntity
  8
@__WIDOCZNE
  6
Continuous
370
    13
100
AcDbMText
 10
-228.5716592712769
 20
176.43715867616
 30
0.0
 40
20.0
 41
0.0
 71
     7
 72
     1
  1
{1:10  }
  7
GENERATED_STYLE_1
 73
     1
 44
1.0
  0
WIPEOUT
  5
35F
330
1F
100
AcDbEntity
  8
@__WIDOCZNE
  6
Wipeout_Contour
 48
8180.000397623253
370
    13
 92
      140
310
8C000000010000008400000006000000050000007705000000289EC0A7496E243E7190400000000000000000BDC7B4C964DD98C0A7496E243E7190400000000000000000BDC7B4C964DD98C0CAEE03720EE78F4000000000000000007705000000289EC0CAEE03720EE78F4000000000000000007705000000289EC0A7496E
310
243E7190400000000000000000
100
AcDbWipeout
 90
        0
 10
-1930.000000000318
 20
1020.882053404546
 30
0.0
 11
338.6515743023324
 21
0.0
 31
0.0
 12
0.0
 22
31.42863244297087
 32
0.0
 13
1.0
 23
1.0
340
0
 70
    15
280
     1
281
    50
282
    50
283
     0
360
0
 71
     2
 91
        5
 14
-0.5
 24
-0.5
 14
0.5
 24
-0.5
 14
0.5
 24
0.5
 14
-0.5
 24
0.5
 14
-0.5
 24
-0.5
  0
MTEXT
  5
360
330
1F
100
AcDbEntity
  8
@__WIDOCZNE
  6
Continuous
370
    13
100
AcDbMText
 10
-1930.000000000318
 20
1026.948971561802
 30
0.0
 40
19.99999999999999
 41
0.0
 71
     7
 72
     1
  1
{TERMOIZOLACJA ŚCIANY}
  7
GENERATED_STYLE_1
 73
     1
 44
1.0
  0
MTEXT
  5
361
330
1F
100
AcDbEntity
  8
@__WIDOCZNE
  6
Continuous
 62
    20
370
     0
100
AcDbMText
 10
-159.9995194823301
 20
75.79206560593035
 30
0.0
 40
30.00000000000001
 41
0.0
 71
     9
 72
     1
  1
{\P\C256;\H1.333333x; 02.04.2-22.}
  7
GENERATED_STYLE_2
 73
     1
 44
1.068159463616948
  0
WIPEOUT
  5
362
330
1F
100
AcDbEntity
  8
@__WIDOCZNE
  6
Wipeout_Contour
 62
   104
 48
8458.668352080644
370
    13
 92
      140
310
8C000000010000008400000006000000050000007705000000289EC075AF58223EF192400000000000000000241AA3B78C3998C075AF58223EF192400000000000000000241AA3B78C3998C064F701398773924000000000000000007705000000289EC064F701398773924000000000000000007705000000289EC075AF58
310
223EF192400000000000000000
100
AcDbWipeout
 90
        0
 10
-1930.000000000318
 20
1180.882053404545
 30
0.0
 11
379.6125807303076
 21
0.0
 31
0.0
 12
0.0
 22
31.42862449167683
 32
0.0
 13
1.0
 23
1.0
340
0
 70
    15
280
     1
281
    50
282
    50
283
     0
360
0
 71
     2
 91
        5
 14
-0.4999999999999997
 24
-0.5000000000000037
 14
0.5000000000000003
 24
-0.5000000000000037
 14
0.5000000000000003
 24
0.4999999999999964
 14
-0.4999999999999997
 24
0.4999999999999964
 14
-0.4999999999999997
 24
-0.5000000000000037
  0
MTEXT
  5
363
330
1F
100
AcDbEntity
  8
@__WIDOCZNE
  6
Continuous
 62
   104
370
    13
100
AcDbMText
 10
-1930.000000000318
 20
1195.349249324793
 30
0.0
 40
20.0
 41
0.0
 71
     4
 72
     1
  1
{BOTAMENT RD1 / RD2, 2mm }
  7
GENERATED_STYLE_2
 73
     1
 44
1.0
  0
WIPEOUT
  5
364
330
1F
100
AcDbEntity
  8
@__WIDOCZNE
  6
Wipeout_Contour
 62
   104
 48
8524.474383991692
370
    13
 92
      140
310
8C000000010000008400000006000000050000007705000000289EC0A022692B99D2944000000000000000001D1AF38254C296C0A022692B99D2944000000000000000001D1AF38254C296C079D798877459934000000000000000007705000000289EC079D798877459934000000000000000007705000000289EC0A02269
310
2B99D294400000000000000000
100
AcDbWipeout
 90
        0
 10
-1930.000000000318
 20
1238.36379851165
 30
0.0
 11
473.4174692171714
 21
0.0
 31
0.0
 12
0.0
 22
94.28578114947027
 32
0.0
 13
1.0
 23
1.0
340
0
 70
    15
280
     1
281
    50
282
    50
283
     0
360
0
 71
     2
 91
        5
 14
-0.5
 24
-0.5000000000000012
 14
0.5
 24
-0.5000000000000012
 14
0.5
 24
0.4999999999999988
 14
-0.5
 24
0.4999999999999988
 14
-0.5
 24
-0.5000000000000012
  0
MTEXT
  5
365
330
1F
100
AcDbEntity
  8
@__WIDOCZNE
  6
Continuous
 62
   104
370
    13
100
AcDbMText
 10
-1930.000000000318
 20
1286.461932742506
 30
0.0
 40
20.0
 41
0.0
 71
     4
 72
     1
  1
\A1;{\fArial|b1|i0|c238|p38;BOTAMENT PB Portalband\P\fArial|b0|i0|c238|p38;TAŚMA USZCZELNIAJĄCA\P\C102;WKLEJONA\C104; W BOTAMENT RD1/ RD2}
  7
GENERATED_STYLE_2
 73
     1
 44
0.8684621903142782
  0
WIPEOUT
  5
367
330
1F
100
AcDbEntity
  8
@__WIDOCZNE
  6
Wipeout_Contour
 48
8779.96068557216
370
    13
 92
      140
310
8C00000001000000840000000600000005000000969D5F138E1795C012B33A4CD3E09A400000000000000000969D5F138E1795C04E5D2A4A38969B40000000000000000059D32537D79994C04E5D2A4A38969B40000000000000000059D32537D79994C012B33A4CD3E09A400000000000000000969D5F138E1795C012B33A
310
4CD3E09A400000000000000000
100
AcDbWipeout
 90
        0
 10
-1349.888745779031
 20
1720.206345479183
 30
0.0
 11
31.42857446953644
 21
0.0
 31
0.0
 12
0.0
 22
45.34862493969467
 32
0.0
 13
1.0
 23
1.0
340
0
 70
    15
280
     1
281
    50
282
    50
283
     0
360
0
 71
     2
 91
        5
 14
-0.4999999999999964
 24
0.5
 14
-0.4999999999999964
 24
-0.5
 14
0.5000000000000037
 24
-0.5
 14
0.5000000000000037
 24
0.5
 14
-0.4999999999999964
 24
0.5
  0
MTEXT
  5
368
330
1F
100
AcDbEntity
  8
@__WIDOCZNE
  6
Continuous
370
    13
100
AcDbMText
 10
-1324.897317207603
 20
1742.88065794903
 30
0.0
 40
20.0
 41
0.0
 71
     8
 72
     1
  1
{\U+226515}
  7
GENERATED_STYLE_3
 11
6.123233995736766E-17
 21
1.0
 31
0.0
 73
     1
 44
1.0
  0
WIPEOUT
  5
369
330
1F
100
AcDbEntity
  8
@__WIDOCZNE
  6
Wipeout_Contour
 48
8496.311327418292
370
    13
 92
      140
310
8C00000001000000840000000600000005000000EC34C7B05A6994C0F749796A381D9A400000000000000000EC34C7B05A6994C02FA8BB724B9A9A400000000000000000CDE9EED0A3EB93C02FA8BB724B9A9A400000000000000000CDE9EED0A3EB93C0F749796A381D9A400000000000000000EC34C7B05A6994C0F74979
310
6A381D9A400000000000000000
100
AcDbWipeout
 90
        0
 10
-1306.33856498013
 20
1671.305093665256
 30
0.0
 11
31.42858827551368
 21
0.0
 31
0.0
 12
0.0
 22
31.26858619403902
 32
0.0
 13
1.0
 23
1.0
340
0
 70
    15
280
     1
281
    50
282
    50
283
     0
360
0
 71
     2
 91
        5
 14
-0.5000000000000037
 24
0.5
 14
-0.5000000000000037
 24
-0.5
 14
0.4999999999999964
 24
-0.5
 14
0.4999999999999964
 24
0.5
 14
-0.5000000000000037
 24
0.5
  0
MTEXT
  5
36A
330
1F
100
AcDbEntity
  8
@__WIDOCZNE
  6
Continuous
370
    13
100
AcDbMText
 10
-1281.427136408702
 20
1686.939386762275
 30
0.0
 40
20.0
 41
0.0
 71
     8
 72
     1
  1
{=5}
  7
GENERATED_STYLE_3
 11
6.123233995736766E-17
 21
1.0
 31
0.0
 73
     1
 44
1.0
  0
WIPEOUT
  5
36B
330
1F
100
AcDbEntity
  8
@__WIDOCZNE
  6
Wipeout_Contour
 48
8182.627843390705
370
    13
 92
      140
310
8C000000010000008400000006000000050000007705000000289EC0461A5B1A3EB191400000000000000000D54D0A1FFC4597C0461A5B1A3EB191400000000000000000D54D0A1FFC4597C05077DF318733914000000000000000007705000000289EC05077DF318733914000000000000000007705000000289EC0461A5B
310
1A3EB191400000000000000000
100
AcDbWipeout
 90
        0
 10
-1930.000000000318
 20
1100.88202618757
 30
0.0
 11
440.5037878411608
 21
0.0
 31
0.0
 12
0.0
 22
31.42862122709403
 32
0.0
 13
1.0
 23
1.0
340
0
 70
    15
280
     1
281
    50
282
    50
283
     0
360
0
 71
     2
 91
        5
 14
-0.5
 24
-0.5
 14
0.5
 24
-0.5
 14
0.5
 24
0.5
 14
-0.5
 24
0.5
 14
-0.5
 24
-0.5
  0
MTEXT
  5
36C
330
1F
100
AcDbEntity
  8
@__WIDOCZNE
  6
Continuous
370
    13
100
AcDbMText
 10
-1930.000000000318
 20
1106.968361700378
 30
0.0
 40
20.0
 41
0.0
 71
     7
 72
     1
  1
{PŁYTA OCHRONNO-DRENAŻOWA}
  7
GENERATED_STYLE_1
 73
     1
 44
1.0
  0
MTEXT
  5
36D
330
1F
100
AcDbEntity
  8
@__WIDOCZNE
  6
Continuous
370
    13
100
AcDbMText
 10
-404.1029845902109
 20
176.437178595888
 30
0.0
 40
20.0
 41
0.0
 71
     7
 72
     1
  1
{2020.05. }
  7
GENERATED_STYLE_1
 73
     1
 44
1.0
  0
MTEXT
  5
36E
330
1F
100
AcDbEntity
  8
@__WIDOCZNE
  6
Continuous
370
    13
100
AcDbMText
 10
-1404.000000000042
 20
28.41451671597678
 30
0.0
 40
15.0
 41
0.0
 71
     4
 72
     1
  1
{Rysunek nie wyczerpuje wszystkich aspektów technicznych zagadnienia, a jego integralną częścią są karty techniczne \Pposzczególnych produktów. Szczegółowych informacji udzielają technicy zastosowań i doradcy handlowo-techniczni Botament. }
  7
GENERATED_STYLE_1
 73
     1
 44
0.9278263558916978
  0
MTEXT
  5
36F
330
1F
100
AcDbEntity
  8
@__WIDOCZNE
  6
Continuous
370
    13
100
AcDbMText
 10
-1682.384354501804
 20
30.26957004651224
 30
0.0
 40
15.0
 41
0.0
 71
     5
 72
     1
  1
{ ul. Prądzyńskiego 20, 63-000 Środa Wlkp., botament.pl\P +48 606-318-643, 61-286-45-17, technik@botament.pl  }
  7
GENERATED_STYLE_1
 73
     1
 44
0.9181612291118316
  0
MTEXT
  5
370
330
1F
100
AcDbEntity
  8
@__WIDOCZNE
  6
Continuous
 62
   104
370
    13
100
AcDbMText
 10
-1930.000000000318
 20
1836.72300634904
 30
0.0
 40
19.99999999999999
 41
0.0
 71
     4
 72
     1
  1
{BOTAMENT M54 FM}
  7
GENERATED_STYLE_2
 73
     1
 44
1.0
  0
MTEXT
  5
371
330
1F
100
AcDbEntity
  8
@__WIDOCZNE
  6
Continuous
 62
   104
370
    13
100
AcDbMText
 10
-1930.000000000318
 20
1886.393058913551
 30
0.0
 40
20.0
 41
0.0
 71
     7
 72
     1
  1
{BOTAMENT RD1 / RD2}
  7
GENERATED_STYLE_2
 73
     1
 44
1.0
  0
MTEXT
  5
372
330
1F
100
AcDbEntity
  8
@__WIDOCZNE
  6
Continuous
370
    13
100
AcDbMText
 10
-1930.000000000318
 20
1713.585807936426
 30
0.0
 40
19.99999999999999
 41
0.0
 71
     4
 72
     1
  1
{WYS. USZCZELNIENIA\PTYNKU ZEWNĘTRZNEGO}
  7
GENERATED_STYLE_1
 73
     1
 44
0.9212987520589628
  0
MTEXT
  5
373
330
1F
100
AcDbEntity
  8
@__WIDOCZNE
  6
Continuous
370
    13
100
AcDbMText
 10
-1930.000000000318
 20
1945.992346824472
 30
0.0
 40
19.99999999999999
 41
0.0
 71
     7
 72
     1
  1
{WYS. USZCZELNIENIA OŚCIEŻA}
  7
GENERATED_STYLE_1
 73
     1
 44
1.0
  0
MTEXT
  5
374
330
1F
100
AcDbEntity
  8
@__WIDOCZNE
  6
Continuous
370
    13
100
AcDbMText
 10
-1930.000000000318
 20
2075.305637337812
 30
0.0
 40
20.0
 41
0.0
 71
     7
 72
     1
  1
{SYTEM OCIEPLEŃ \PZ TERMOIZOLACJĄ}
  7
GENERATED_STYLE_1
 73
     1
 44
0.91832986408718
  0
MTEXT
  5
375
330
1F
100
AcDbEntity
  8
@__WIDOCZNE
  6
Continuous
370
    13
100
AcDbMText
 10
-1930.000000000318
 20
1782.922844255862
 30
0.0
 40
19.99999999999999
 41
0.0
 71
     4
 72
     1
  1
{CIEPŁY PRÓG}
  7
GENERATED_STYLE_1
 73
     1
 44
1.0
  0
MTEXT
  5
376
330
1F
100
AcDbEntity
  8
@__WIDOCZNE
  6
Continuous
370
    13
100
AcDbMText
 10
490.3010467956677
 20
221.2371520844711
 30
0.0
 40
20.0
 41
0.0
 71
     9
 72
     1
  1
{s.14_druk:2020-05-26  }
  7
GENERATED_STYLE_1
 73
     1
 44
1.0
  0
MTEXT
  5
377
330
1F
100
AcDbEntity
  8
@__WIDOCZNE
  6
Continuous
370
    13
100
AcDbMText
 10
-1950.917152084788
 20
450.4759531694547
 30
0.0
 40
20.0
 41
0.0
 71
     9
 72
     1
  1
{druk:2020-05-26, rys. od 181200 DE }
  7
GENERATED_STYLE_1
 11
6.123233995736766E-17
 21
1.0
 31
0.0
 73
     1
 44
1.0
  0
WIPEOUT
  5
388
330
1F
100
AcDbEntity
  8
2D - Ogólne
  6
Wipeout_Contour
 62
   254
 48
8800.99707018182
370
     0
 92
      140
310
8C00000001000000840000000600000005000000FD3DC70BFCCE9CC09041FD63F14B984000000000000000004439DF3655D492C0FCF225F80578984000000000000000003EE1295F83D592C06C9EB5506DBC98400000000000000000F8E511342AD09CC000ED8CBC589098400000000000000000FD3DC70BFCCE9CC09041FD
310
63F14B98400000000000000000
100
AcDbWipeout
 90
        0
 10
-1844.041214255963
 20
1554.985732991339
 30
0.0
 11
638.9579971235189
 21
0.0
 31
0.0
 12
0.0
 22
28.12102020327347
 32
0.0
 13
1.0
 23
1.0
340
0
 70
    15
280
     1
281
    50
282
    50
283
     0
360
0
 71
     2
 91
        5
 14
-0.4995381925311481
 24
0.5
 14
0.5
 24
0.1081188964016939
 14
0.4995381925311485
 24
-0.5
 14
-0.5
 24
-0.1081188964016939
 14
-0.4995381925311481
 24
0.5
  0
INSERT
  5
389
330
1F
100
AcDbEntity
  8
2D - Ogólne
  6
Continuous
370
    13
100
AcDbBlockReference
  2
*X8
 10
0.0
 20
0.0
 30
0.0
  0
LINE
  5
38A
330
1F
100
AcDbEntity
  8
2D - Ogólne
  6
Continuous
370
    13
100
AcDbLine
 10
-1843.746138680609
 20
1554.985732991339
 30
0.0
 11
-1205.083217132445
 21
1566.005829422908
 31
0.0
  0
LINE
  5
38B
330
1F
100
AcDbEntity
  8
2D - Ogólne
  6
Continuous
370
    13
100
AcDbLine
 10
-1205.083217132445
 20
1566.005829422908
 30
0.0
 11
-1205.378292707799
 21
1583.106753194613
 31
0.0
  0
LINE
  5
38C
330
1F
100
AcDbEntity
  8
2D - Ogólne
  6
Continuous
370
    13
100
AcDbLine
 10
-1205.378292707799
 20
1583.106753194613
 30
0.0
 11
-1844.041214255963
 21
1572.086656763044
 31
0.0
  0
LINE
  5
38D
330
1F
100
AcDbEntity
  8
2D - Ogólne
  6
Continuous
370
    13
100
AcDbLine
 10
-1844.041214255963
 20
1572.086656763044
 30
0.0
 11
-1843.746138680609
 21
1554.985732991339
 31
0.0
  0
WIPEOUT
  5
3B7
330
1F
100
AcDbEntity
  8
2D - Ogólne
  6
Wipeout_Contour
 62
   254
 48
6689.102516417057
370
     0
 92
      140
310
8C00000001000000840000000600000005000000AE04DFB2CD9192C0D5661F2F806C96400000000000000000E14B4DB88DBF72C0D5661F2F806C96400000000000000000E14B4DB88DBF72C0C838FD22EAB096400000000000000000AE04DFB2CD9192C0C838FD22EAB096400000000000000000AE04DFB2CD9192C0D5661F
310
2F806C96400000000000000000
100
AcDbWipeout
 90
        0
 10
-1188.450877651845
 20
1435.125179758693
 30
0.0
 11
888.4787780596939
 21
0.0
 31
0.0
 12
0.0
 22
17.10346933931282
 32
0.0
 13
1.0
 23
1.0
340
0
 70
    15
280
     1
281
    50
282
    50
283
     0
360
0
 71
     2
 91
        5
 14
-0.5
 24
0.4999999999999933
 14
0.4999999999999999
 24
0.4999999999999933
 14
0.4999999999999999
 24
-0.5000000000000067
 14
-0.5
 24
-0.5000000000000067
 14
-0.5
 24
0.4999999999999933
  0
INSERT
  5
3B8
330
1F
100
AcDbEntity
  8
2D - Ogólne
  6
Continuous
370
    13
100
AcDbBlockReference
  2
*X9
 10
0.0
 20
0.0
 30
0.0
  0
LINE
  5
3B9
330
1F
100
AcDbEntity
  8
2D - Ogólne
  6
Continuous
370
    13
100
AcDbLine
 10
-1188.450877651845
 20
1435.125179758693
 30
0.0
 11
-299.9720995921508
 21
1435.125179758693
 31
0.0
  0
LINE
  5
3BA
330
1F
100
AcDbEntity
  8
2D - Ogólne
  6
Continuous
370
    13
100
AcDbLine
 10
-299.9720995921508
 20
1435.125179758693
 30
0.0
 11
-299.9720995921508
 21
1452.228649098006
 31
0.0
  0
LINE
  5
3BB
330
1F
100
AcDbEntity
  8
2D - Ogólne
  6
Continuous
370
    13
100
AcDbLine
 10
-299.9720995921508
 20
1452.228649098006
 30
0.0
 11
-1188.450877651845
 21
1452.228649098006
 31
0.0
  0
LINE
  5
3BC
330
1F
100
AcDbEntity
  8
2D - Ogólne
  6
Continuous
370
    13
100
AcDbLine
 10
-1188.450877651845
 20
1452.228649098006
 30
0.0
 11
-1188.450877651845
 21
1435.125179758693
 31
0.0
  0
WIPEOUT
  5
3BD
330
1F
100
AcDbEntity
  8
@__WIDOCZNE
  6
Wipeout_Contour
 62
   254
 48
7149.561380996827
370
     0
 92
      140
310
8C00000001000000840000000600000005000000C0B7EDAACDD190C0D5661F2F808C99400000000000000000C0B7EDAACDD190C0D4661F2F80C498400000000000000000E14B4DB88DBF72C0D4661F2F80C498400000000000000000E14B4DB88DBF72C0D5661F2F808C99400000000000000000C0B7EDAACDD190C0D5661F
310
2F808C99400000000000000000
100
AcDbWipeout
 90
        0
 10
-1076.450847353306
 20
1585.125179758693
 30
0.0
 11
776.4787477611553
 21
0.0
 31
0.0
 12
0.0
 22
50.00000000000023
 32
0.0
 13
1.0
 23
1.0
340
0
 70
    15
280
     1
281
    50
282
    50
283
     0
360
0
 71
     2
 91
        5
 14
-0.5
 24
-0.5000000000000022
 14
-0.5
 24
0.4999999999999977
 14
0.4999999999999999
 24
0.4999999999999977
 14
0.4999999999999999
 24
-0.5000000000000022
 14
-0.5
 24
-0.5000000000000022
  0
HATCH
  5
3BE
330
1F
100
AcDbEntity
  8
@__WIDOCZNE
  6
Continuous
370
    13
100
AcDbHatch
 10
0.0
 20
0.0
 30
0.0
210
0.0
220
0.0
230
1.0
  2
__Beton_n_2_średnio
 70
     0
 71
     1
 91
        1
 92
        2
 72
     0
 73
     1
 93
        4
 10
-1076.450847353306
 20
1635.125179758693
 10
-1076.450847353306
 20
1585.125179758693
 10
-299.9720995921508
 20
1585.125179758693
 10
-299.9720995921508
 20
1635.125179758693
 97
        1
330
3BF
 75
     0
 76
     2
 52
0.0
 41
1.0
 77
     0
 78
     2
 53
44.99999999999999
 43
0.0
 44
0.0
 45
-18.38477631085023
 46
18.38477631085023
 79
     2
 49
19.5
 49
-6.499999999999999
 53
44.99999999999999
 43
0.0000000000000018
 44
18.38477631085023
 45
-18.38477631085023
 46
18.38477631085023
 79
     2
 49
19.5
 49
-6.499999999999999
 98
        0
  0
LWPOLYLINE
  5
3BF
102
{ACAD_REACTORS
330
3BE
102
}
330
1F
100
AcDbEntity
  8
@__WIDOCZNE
  6
Continuous
370
    25
100
AcDbPolyline
 90
        4
 70
   129
 43
0.0
 10
-1076.450847353306
 20
1635.125179758693
 10
-1076.450847353306
 20
1585.125179758693
 10
-299.9720995921508
 20
1585.125179758693
 10
-299.9720995921508
 20
1635.125179758693
  0
HATCH
  5
3C0
330
1F
100
AcDbEntity
  8
@__WIDOCZNE
  6
Continuous
370
    13
100
AcDbHatch
 10
0.0
 20
0.0
 30
0.0
210
0.0
220
0.0
230
1.0
  2
__Cegła_licówka
 70
     0
 71
     1
 91
        1
 92
        2
 72
     0
 73
     1
 93
        4
 10
-1076.450847353306
 20
1655.125179758693
 10
-1076.450847353306
 20
1635.125179758693
 10
-299.9720995921508
 20
1635.125179758693
 10
-299.9720995921508
 20
1655.125179758693
 97
        1
330
3C1
 75
     0
 76
     2
 52
0.0
 41
1.0
 77
     0
 78
     1
 53
45.0
 43
0.0
 44
0.0
 45
-6.363960862091533
 46
6.363960862091534
 79
     0
 98
        0
  0
LWPOLYLINE
  5
3C1
102
{ACAD_REACTORS
330
3C0
102
}
330
1F
100
AcDbEntity
  8
@__WIDOCZNE
  6
Continuous
370
    13
100
AcDbPolyline
 90
        4
 70
   129
 43
0.0
 10
-1076.450847353306
 20
1655.125179758693
 10
-1076.450847353306
 20
1635.125179758693
 10
-299.9720995921508
 20
1635.125179758693
 10
-299.9720995921508
 20
1655.125179758693
  0
WIPEOUT
  5
3C2
330
1F
100
AcDbEntity
  8
@__WIDOCZNE
  6
Wipeout_Contour
 62
   254
 48
5832.486548507669
370
     0
 92
      140
310
8C000000010000008400000006000000050000005B91FEAD06E072C05D465053AA80924000000000000000005B91FEAD06A072C05D465053AA80924000000000000000005B91FEAD06A072C0DB04142B730F9A4000000000000000005B91FEAD06E072C0DB04142B730F9A4000000000000000005B91FEAD06E072C05D4650
310
53AA8092400000000000000000
100
AcDbWipeout
 90
        0
 10
-302.0016307777457
 20
1184.166333441062
 30
0.0
 11
4.0
 21
0.0
 31
0.0
 12
0.0
 22
483.6961355767266
 32
0.0
 13
1.0
 23
1.0
340
0
 70
    15
280
     1
281
    50
282
    50
283
     0
360
0
 71
     2
 91
        5
 14
-0.5
 24
0.5
 14
0.5
 24
0.5
 14
0.5
 24
-0.5
 14
-0.5
 24
-0.5
 14
-0.5
 24
0.5
  0
WIPEOUT
  5
3C3
330
1F
100
AcDbEntity
  8
@__WIDOCZNE
  6
Wipeout_Contour
 62
   254
 48
4923.747612935918
370
     0
 92
      140
310
8C00000001000000840000000600000005000000C43E86AACD6195C0D0C382D139927A400000000000000000C43E86AACD6195C0D0C382D139527A4000000000000000004273DB559B538DC0D0C382D139527A4000000000000000004273DB559B538DC0D0C382D139927A400000000000000000C43E86AACD6195C0D0C382
310
D139927A400000000000000000
100
AcDbWipeout
 90
        0
 10
-1368.450845811444
 20
421.1391158206943
 30
0.0
 11
429.9999984580288
 21
0.0
 31
0.0
 12
0.0
 22
4.0
 32
0.0
 13
1.0
 23
1.0
340
0
 70
    15
280
     1
281
    50
282
    50
283
     0
360
0
 71
     2
 91
        5
 14
-0.5000000000000002
 24
-0.5
 14
-0.5000000000000002
 24
0.5
 14
0.4999999999999997
 24
0.5
 14
0.4999999999999997
 24
-0.5
 14
-0.5000000000000002
 24
-0.5
  0
WIPEOUT
  5
3C4
330
1F
100
AcDbEntity
  8
@__WIDOCZNE
  6
Wipeout_Contour
 62
   254
 48
11870.58456835641
370
     0
 92
      164
310
A4000000010000009C0000000600000006000000C9580E3A5BD89CC0A78C63A47876954000000000000000007CC7B59011C49CC0A78C63A47876954000000000000000006D65DC5017C49CC0DC04142B730F9A400000000000000000BAF634FA60D89CC0DC04142B730F9A400000000000000000C9580E3A5BD89CC0A78C63
310
A4787695400000000000000000C9580E3A5BD89CC0A78C63A4787695400000000000000000
100
AcDbWipeout
 90
        0
 10
-1846.094704463538
 20
1373.617814593754
 30
0.0
 11
5.077550875910219
 21
0.0
 31
0.0
 12
0.0
 22
294.2446544240349
 32
0.0
 13
1.0
 23
1.0
340
0
 70
    15
280
     1
281
    50
282
    50
283
     0
360
0
 71
     2
 91
        6
 14
-0.4988939924089843
 24
0.5000000000000003
 14
0.5
 24
0.5000000000000003
 14
0.4988939924089843
 24
-0.4999999999999996
 14
-0.5
 24
-0.4999999999999996
 14
-0.4988939924089843
 24
0.5000000000000003
 14
-0.4988939924089843
 24
0.5000000000000003
  0
WIPEOUT
  5
3C5
330
1F
100
AcDbEntity
  8
@__WIDOCZNE
  6
Wipeout_Contour
 62
   254
 48
11674.39317590431
370
     0
 92
      140
310
8C00000001000000840000000600000005000000C1B7EDAACD0196C058CCB09AD8D8A4400000000000000000C1B7EDAACD0196C057CCB09AD8CCA44000000000000000000177DB559B038DC057CCB09AD8CCA44000000000000000000177DB559B038DC058CCB09AD8D8A4400000000000000000C1B7EDAACD0196C058CCB0
310
9AD8D8A4400000000000000000
100
AcDbWipeout
 90
        0
 10
-1408.450847353306
 20
2662.423055195755
 30
0.0
 11
479.9999999997818
 21
0.0
 31
0.0
 12
0.0
 22
6.000000000000455
 32
0.0
 13
1.0
 23
1.0
340
0
 70
    15
280
     1
281
    50
282
    50
283
     0
360
0
 71
     2
 91
        5
 14
-0.4999999999999999
 24
-0.4999999999999621
 14
-0.4999999999999999
 24
0.5000000000000379
 14
0.5000000000000001
 24
0.5000000000000379
 14
0.5000000000000001
 24
-0.4999999999999621
 14
-0.4999999999999999
 24
-0.4999999999999621
  0
HATCH
  5
3C6
330
1F
100
AcDbEntity
  8
@__WIDOCZNE
  6
Continuous
370
    13
100
AcDbHatch
 10
0.0
 20
0.0
 30
0.0
210
0.0
220
0.0
230
1.0
  2
SOLID
 70
     1
 71
     1
 91
        1
 92
        2
 72
     0
 73
     1
 93
        4
 10
-1071.770476897949
 20
1525.227985010755
 10
-1071.770476897949
 20
1574.028263249223
 10
-1088.450847353306
 20
1574.028263249223
 10
-1088.450847353306
 20
1525.227985010755
 97
        1
330
3C7
 75
     0
 76
     1
 98
        0
  0
LWPOLYLINE
  5
3C7
102
{ACAD_REACTORS
330
3C6
102
}
330
1F
100
AcDbEntity
  8
@__WIDOCZNE
  6
Continuous
370
    25
100
AcDbPolyline
 90
        4
 70
   129
 43
0.0
 10
-1071.770476897949
 20
1525.227985010755
 10
-1071.770476897949
 20
1574.028263249223
 10
-1088.450847353306
 20
1574.028263249223
 10
-1088.450847353306
 20
1525.227985010755
  0
HATCH
  5
3C8
330
1F
100
AcDbEntity
  8
@__WIDOCZNE
  6
Continuous
370
    13
100
AcDbHatch
 10
0.0
 20
0.0
 30
0.0
210
0.0
220
0.0
230
1.0
  2
SOLID
 70
     1
 71
     1
 91
        1
 92
        2
 72
     1
 73
     1
 93
        7
 10
-952.6945806633374
 20
1442.49440820854
 42
0.0
 10
-937.0323862058981
 20
1436.783470669821
 42
0.0739198488957654
 10
-931.5538179303056
 20
1435.77276387722
 42
0.0
 10
-901.0744778518524
 20
1435.723116431451
 42
0.0
 10
-901.0472224166078
 20
1452.455652555966
 42
0.0
 10
-931.2478258443472
 20
1452.4402126887
 42
0.0
 10
-947.3375742602141
 20
1458.283479712483
 42
0.0
 97
        1
330
3C9
 75
     0
 76
     1
 98
        0
  0
LWPOLYLINE
  5
3C9
102
{ACAD_REACTORS
330
3C8
102
}
330
1F
100
AcDbEntity
  8
@__WIDOCZNE
  6
Continuous
370
    25
100
AcDbPolyline
 90
        7
 70
   129
 43
0.0
 10
-952.6945806633374
 20
1442.49440820854
 10
-937.0323862058981
 20
1436.783470669821
 42
0.0739198488957654
 10
-931.5538179303056
 20
1435.77276387722
 10
-901.0744778518524
 20
1435.723116431451
 10
-901.0472224166078
 20
1452.455652555966
 10
-931.2478258443472
 20
1452.4402126887
 10
-947.3375742602141
 20
1458.283479712483
  0
HATCH
  5
3CA
330
1F
100
AcDbEntity
  8
@__WIDOCZNE
  6
Continuous
370
    13
100
AcDbHatch
 10
0.0
 20
0.0
 30
0.0
210
0.0
220
0.0
230
1.0
  2
SOLID
 70
     1
 71
     1
 91
        1
 92
        2
 72
     0
 73
     1
 93
        4
 10
-1016.39427857134
 20
1468.952609472259
 10
-1016.39427857134
 20
1452.228649098006
 10
-980.5181124878453
 20
1452.228649098006
 10
-980.5181124878453
 20
1468.952609472259
 97
        1
330
3CB
 75
     0
 76
     1
 98
        0
  0
LWPOLYLINE
  5
3CB
102
{ACAD_REACTORS
330
3CA
102
}
330
1F
100
AcDbEntity
  8
@__WIDOCZNE
  6
Continuous
370
    25
100
AcDbPolyline
 90
        4
 70
   129
 43
0.0
 10
-1016.39427857134
 20
1468.952609472259
 10
-1016.39427857134
 20
1452.228649098006
 10
-980.5181124878453
 20
1452.228649098006
 10
-980.5181124878453
 20
1468.952609472259
  0
HATCH
  5
3CC
330
1F
100
AcDbEntity
  8
@__WIDOCZNE
  6
Continuous
370
    13
100
AcDbHatch
 10
0.0
 20
0.0
 30
0.0
210
0.0
220
0.0
230
1.0
  2
SOLID
 70
     1
 71
     1
 91
        1
 92
        2
 72
     1
 73
     1
 93
        6
 10
-1071.770476897949
 20
1483.952609472259
 42
0.0
 10
-1088.387377171953
 20
1480.27821775667
 42
0.3800040791126613
 10
-1059.937613256119
 20
1452.228649098006
 42
0.0
 10
-1038.622724007775
 20
1452.228649098006
 42
0.0
 10
-1038.622724007775
 20
1468.952609472259
 42
0.0
 10
-1056.770476897949
 20
1468.952609472259
 42
-0.414213562373095
 97
        1
330
3CD
 75
     0
 76
     1
 98
        0
  0
LWPOLYLINE
  5
3CD
102
{ACAD_REACTORS
330
3CC
102
}
330
1F
100
AcDbEntity
  8
@__WIDOCZNE
  6
Continuous
370
    25
100
AcDbPolyline
 90
        6
 70
   129
 43
0.0
 10
-1071.770476897949
 20
1483.952609472259
 10
-1088.387377171953
 20
1480.27821775667
 42
0.3800040791126613
 10
-1059.937613256119
 20
1452.228649098006
 10
-1038.622724007775
 20
1452.228649098006
 10
-1038.622724007775
 20
1468.952609472259
 10
-1056.770476897949
 20
1468.952609472259
 42
-0.414213562373095
  0
WIPEOUT
  5
3CE
330
1F
100
AcDbEntity
  8
@__WIDOCZNE
  6
Wipeout_Contour
 62
   254
 48
12227.6956535462
370
     0
 92
      212
310
D400000001000000CC0000000600000008000000A1867EE585948DC0CFEAED1D03C8964000000000000000002E8EBFD904688EC08B85525359EE96400000000000000000B56F63235D8D8EC0834EA99A64EE964000000000000000008FE8F31163918EC0A1ABDF17BFAF96400000000000000000FC5F10D9777A8EC06549C1
310
68BFAC96400000000000000000D9E7BAA01CCB8DC0F5205A9C698F96400000000000000000BCE29BF99BA78DC0551804501CB696400000000000000000A1867EE585948DC0CFEAED1D03C896400000000000000000
100
AcDbWipeout
 90
        0
 10
-978.1733740859362
 20
1443.853135498296
 30
0.0
 11
31.6079949541579
 21
0.0
 31
0.0
 12
0.0
 22
23.74511073794883
 32
0.0
 13
1.0
 23
1.0
340
0
 70
    15
280
     1
281
    50
282
    50
283
     0
360
0
 71
     2
 91
        8
 14
0.5
 24
-0.0959082910509759
 14
-0.3364019721407929
 24
-0.4995361434896979
 14
-0.4840895813747494
 24
-0.5
 14
-0.5
 24
0.1595729074755981
 14
-0.4093629758962865
 24
0.1911453634033852
 14
0.2841179321416908
 24
0.5
 14
0.4245197122854427
 24
0.0925681882357219
 14
0.5
 24
-0.0959082910509759
  0
LINE
  5
3D0
330
1F
100
AcDbEntity
  8
@__WIDOCZNE
  6
Kropki i Kreski
370
    25
100
AcDbLine
 10
-1068.450847353415
 20
355.7365207523558
 30
0.0
 11
-1068.450847353415
 21
2702.722589183493
 31
0.0
  0
LINE
  5
3D1
330
1F
100
AcDbEntity
  8
@__WIDOCZNE
  6
Continuous
370
    25
100
AcDbLine
 10
-1930.000000000318
 20
1020.882053404546
 30
0.0
 11
-1366.450546309494
 21
1020.882053404546
 31
0.0
  0
LINE
  5
3D2
330
1F
100
AcDbEntity
  8
@__WIDOCZNE
  6
Continuous
370
    25
100
AcDbLine
 10
-1338.460171309495
 20
1020.882053404546
 30
0.0
 11
-1366.450546309494
 21
1013.382053404545
 31
0.0
  0
LINE
  5
3D3
330
1F
100
AcDbEntity
  8
@__WIDOCZNE
  6
Continuous
370
    25
100
AcDbLine
 10
-1338.460171309495
 20
1020.882053404546
 30
0.0
 11
-1366.450546309494
 21
1028.382053404546
 31
0.0
  0
LINE
  5
3D4
330
1F
100
AcDbEntity
  8
@__WIDOCZNE
  6
Continuous
370
    25
100
AcDbLine
 10
-1366.450546309494
 20
1013.382053404545
 30
0.0
 11
-1366.450546309494
 21
1028.382053404546
 31
0.0
  0
HATCH
  5
3D5
330
1F
100
AcDbEntity
  8
@__WIDOCZNE
  6
Continuous
370
    25
100
AcDbHatch
 10
0.0
 20
0.0
 30
0.0
210
0.0
220
0.0
230
1.0
  2
SOLID
 70
     1
 71
     0
 91
        1
 92
        2
 72
     0
 73
     1
 93
        3
 10
-1338.460171309495
 20
1020.882053404546
 10
-1366.450546309494
 20
1013.382053404545
 10
-1366.450546309494
 20
1028.382053404546
 97
        0
 75
     0
 76
     1
 98
        0
  0
LINE
  5
3D6
330
1F
100
AcDbEntity
  8
@__WIDOCZNE
  6
Continuous
 62
   104
370
    25
100
AcDbLine
 10
-1930.000000000318
 20
1180.882053404546
 30
0.0
 11
-1233.184083598725
 21
1180.882053404546
 31
0.0
  0
LINE
  5
3D7
330
1F
100
AcDbEntity
  8
@__WIDOCZNE
  6
Continuous
 62
   104
370
    13
100
AcDbLine
 10
-1205.193708598726
 20
1180.882053404546
 30
0.0
 11
-1233.184083598725
 21
1173.382053404546
 31
0.0
  0
LINE
  5
3D8
330
1F
100
AcDbEntity
  8
@__WIDOCZNE
  6
Continuous
 62
   104
370
    13
100
AcDbLine
 10
-1205.193708598726
 20
1180.882053404546
 30
0.0
 11
-1233.184083598725
 21
1188.382053404546
 31
0.0
  0
LINE
  5
3D9
330
1F
100
AcDbEntity
  8
@__WIDOCZNE
  6
Continuous
 62
   104
370
    13
100
AcDbLine
 10
-1233.184083598725
 20
1173.382053404546
 30
0.0
 11
-1233.184083598725
 21
1188.382053404546
 31
0.0
  0
HATCH
  5
3DA
330
1F
100
AcDbEntity
  8
@__WIDOCZNE
  6
Continuous
 62
   104
370
    13
100
AcDbHatch
 10
0.0
 20
0.0
 30
0.0
210
0.0
220
0.0
230
1.0
  2
SOLID
 70
     1
 71
     0
 91
        1
 92
        2
 72
     0
 73
     1
 93
        3
 10
-1205.193708598726
 20
1180.882053404546
 10
-1233.184083598725
 20
1173.382053404546
 10
-1233.184083598725
 20
1188.382053404546
 97
        0
 75
     0
 76
     1
 98
        0
  0
LINE
  5
3DB
330
1F
100
AcDbEntity
  8
@__WIDOCZNE
  6
Continuous
 62
   104
370
    25
100
AcDbLine
 10
-1930.000000000318
 20
1300.882053404546
 30
0.0
 11
-1224.881078821918
 21
1300.882053404546
 31
0.0
  0
LINE
  5
3DC
330
1F
100
AcDbEntity
  8
@__WIDOCZNE
  6
Continuous
 62
   104
370
    13
100
AcDbLine
 10
-1196.890703821919
 20
1300.882053404546
 30
0.0
 11
-1224.881078821918
 21
1293.382053404546
 31
0.0
  0
LINE
  5
3DD
330
1F
100
AcDbEntity
  8
@__WIDOCZNE
  6
Continuous
 62
   104
370
    13
100
AcDbLine
 10
-1196.890703821919
 20
1300.882053404546
 30
0.0
 11
-1224.881078821918
 21
1308.382053404546
 31
0.0
  0
LINE
  5
3DE
330
1F
100
AcDbEntity
  8
@__WIDOCZNE
  6
Continuous
 62
   104
370
    13
100
AcDbLine
 10
-1224.881078821918
 20
1293.382053404546
 30
0.0
 11
-1224.881078821918
 21
1308.382053404546
 31
0.0
  0
HATCH
  5
3DF
330
1F
100
AcDbEntity
  8
@__WIDOCZNE
  6
Continuous
 62
   104
370
    13
100
AcDbHatch
 10
0.0
 20
0.0
 30
0.0
210
0.0
220
0.0
230
1.0
  2
SOLID
 70
     1
 71
     0
 91
        1
 92
        2
 72
     0
 73
     1
 93
        3
 10
-1196.890703821919
 20
1300.882053404546
 10
-1224.881078821918
 20
1293.382053404546
 10
-1224.881078821918
 20
1308.382053404546
 97
        0
 75
     0
 76
     1
 98
        0
  0
LINE
  5
3E0
330
1F
100
AcDbEntity
  8
@__WIDOCZNE
  6
Przerywana gęsta
370
    50
100
AcDbLine
 10
-300.0311619633401
 20
1667.862469017788
 30
0.0
 11
-300.0311619633405
 21
1184.166333441062
 31
0.0
  0
LINE
  5
3E1
330
1F
100
AcDbEntity
  8
@__WIDOCZNE
  6
Przerywana gęsta
370
    50
100
AcDbLine
 10
-931.8463688987619
 20
423.1686470062888
 30
0.0
 11
-1368.450845811444
 21
423.1686470062892
 31
0.0
  0
LINE
  5
3E2
330
1F
100
AcDbEntity
  8
@__WIDOCZNE
  6
Przerywana gęsta
370
    50
100
AcDbLine
 10
-1843.533549774011
 20
1667.862469017788
 30
0.0
 11
-1843.533549774012
 21
1374.545552776001
 31
0.0
  0
LINE
  5
3E3
330
1F
100
AcDbEntity
  8
@__WIDOCZNE
  6
Continuous
370
    13
100
AcDbLine
 10
-1318.460171309495
 20
1673.785429758693
 30
0.0
 11
-1318.460171309495
 21
1796.395308793465
 31
0.0
  0
LINE
  5
3E4
330
1F
100
AcDbEntity
  8
@__WIDOCZNE
  6
Continuous
370
    13
100
AcDbLine
 10
-1318.460171309495
 20
1655.125179758693
 30
0.0
 11
-1323.460171309494
 21
1673.785429758693
 31
0.0
  0
LINE
  5
3E5
330
1F
100
AcDbEntity
  8
@__WIDOCZNE
  6
Continuous
370
    13
100
AcDbLine
 10
-1318.460171309495
 20
1655.125179758693
 30
0.0
 11
-1313.460171309495
 21
1673.785429758693
 31
0.0
  0
LINE
  5
3E6
330
1F
100
AcDbEntity
  8
@__WIDOCZNE
  6
Continuous
370
    13
100
AcDbLine
 10
-1323.460171309494
 20
1673.785429758693
 30
0.0
 11
-1313.460171309495
 21
1673.785429758693
 31
0.0
  0
HATCH
  5
3E7
330
1F
100
AcDbEntity
  8
@__WIDOCZNE
  6
Continuous
370
    13
100
AcDbHatch
 10
0.0
 20
0.0
 30
0.0
210
0.0
220
0.0
230
1.0
  2
SOLID
 70
     1
 71
     0
 91
        1
 92
        2
 72
     0
 73
     1
 93
        3
 10
-1318.460171309495
 20
1655.125179758693
 10
-1323.460171309494
 20
1673.785429758693
 10
-1313.460171309495
 20
1673.785429758693
 97
        0
 75
     0
 76
     1
 98
        0
  0
LINE
  5
3E8
330
1F
100
AcDbEntity
  8
@__WIDOCZNE
  6
Continuous
370
    13
100
AcDbLine
 10
-1318.460171309495
 20
1815.055558793465
 30
0.0
 11
-1313.460171309495
 21
1796.395308793465
 31
0.0
  0
LINE
  5
3E9
330
1F
100
AcDbEntity
  8
@__WIDOCZNE
  6
Continuous
370
    13
100
AcDbLine
 10
-1318.460171309495
 20
1815.055558793465
 30
0.0
 11
-1323.460171309494
 21
1796.395308793465
 31
0.0
  0
LINE
  5
3EA
330
1F
100
AcDbEntity
  8
@__WIDOCZNE
  6
Continuous
370
    13
100
AcDbLine
 10
-1313.460171309495
 20
1796.395308793465
 30
0.0
 11
-1323.460171309494
 21
1796.395308793465
 31
0.0
  0
HATCH
  5
3EB
330
1F
100
AcDbEntity
  8
@__WIDOCZNE
  6
Continuous
370
    13
100
AcDbHatch
 10
0.0
 20
0.0
 30
0.0
210
0.0
220
0.0
230
1.0
  2
SOLID
 70
     1
 71
     0
 91
        1
 92
        2
 72
     0
 73
     1
 93
        3
 10
-1318.460171309495
 20
1815.055558793465
 10
-1313.460171309495
 20
1796.395308793465
 10
-1323.460171309494
 20
1796.395308793465
 97
        0
 75
     0
 76
     1
 98
        0
  0
LINE
  5
3EC
330
1F
100
AcDbEntity
  8
@__WIDOCZNE
  6
Continuous
370
    13
100
AcDbLine
 10
-1268.460171309494
 20
1673.785429758693
 30
0.0
 11
-1268.460171309494
 21
1696.726068862437
 31
0.0
  0
LINE
  5
3ED
330
1F
100
AcDbEntity
  8
@__WIDOCZNE
  6
Continuous
370
    13
100
AcDbLine
 10
-1268.460171309494
 20
1655.125179758693
 30
0.0
 11
-1273.460171309494
 21
1673.785429758693
 31
0.0
  0
LINE
  5
3EE
330
1F
100
AcDbEntity
  8
@__WIDOCZNE
  6
Continuous
370
    13
100
AcDbLine
 10
-1268.460171309494
 20
1655.125179758693
 30
0.0
 11
-1263.460171309495
 21
1673.785429758693
 31
0.0
  0
LINE
  5
3EF
330
1F
100
AcDbEntity
  8
@__WIDOCZNE
  6
Continuous
370
    13
100
AcDbLine
 10
-1273.460171309494
 20
1673.785429758693
 30
0.0
 11
-1263.460171309495
 21
1673.785429758693
 31
0.0
  0
HATCH
  5
3F0
330
1F
100
AcDbEntity
  8
@__WIDOCZNE
  6
Continuous
370
    13
100
AcDbHatch
 10
0.0
 20
0.0
 30
0.0
210
0.0
220
0.0
230
1.0
  2
SOLID
 70
     1
 71
     0
 91
        1
 92
        2
 72
     0
 73
     1
 93
        3
 10
-1268.460171309494
 20
1655.125179758693
 10
-1273.460171309494
 20
1673.785429758693
 10
-1263.460171309495
 20
1673.785429758693
 97
        0
 75
     0
 76
     1
 98
        0
  0
LINE
  5
3F1
330
1F
100
AcDbEntity
  8
@__WIDOCZNE
  6
Continuous
370
    13
100
AcDbLine
 10
-1268.460171309494
 20
1715.386318862437
 30
0.0
 11
-1263.460171309495
 21
1696.726068862437
 31
0.0
  0
LINE
  5
3F2
330
1F
100
AcDbEntity
  8
@__WIDOCZNE
  6
Continuous
370
    13
100
AcDbLine
 10
-1268.460171309494
 20
1715.386318862437
 30
0.0
 11
-1273.460171309494
 21
1696.726068862437
 31
0.0
  0
LINE
  5
3F3
330
1F
100
AcDbEntity
  8
@__WIDOCZNE
  6
Continuous
370
    13
100
AcDbLine
 10
-1263.460171309495
 20
1696.726068862437
 30
0.0
 11
-1273.460171309494
 21
1696.726068862437
 31
0.0
  0
HATCH
  5
3F4
330
1F
100
AcDbEntity
  8
@__WIDOCZNE
  6
Continuous
370
    13
100
AcDbHatch
 10
0.0
 20
0.0
 30
0.0
210
0.0
220
0.0
230
1.0
  2
SOLID
 70
     1
 71
     0
 91
        1
 92
        2
 72
     0
 73
     1
 93
        3
 10
-1268.460171309494
 20
1715.386318862437
 10
-1263.460171309495
 20
1696.726068862437
 10
-1273.460171309494
 20
1696.726068862437
 97
        0
 75
     0
 76
     1
 98
        0
  0
LINE
  5
3F5
330
1F
100
AcDbEntity
  8
@__WIDOCZNE
  6
Continuous
 62
   102
370
    50
100
AcDbLine
 10
-1196.890703821919
 20
1653.580296306665
 30
0.0
 11
-1196.890703821919
 21
1261.636819616788
 31
0.0
  0
LINE
  5
3F6
330
1F
100
AcDbEntity
  8
@__WIDOCZNE
  6
Przerywana gęsta
370
    50
100
AcDbLine
 10
-928.4508473535244
 20
2665.423055195755
 30
0.0
 11
-1408.450847353306
 21
2665.423055195755
 31
0.0
  0
LINE
  5
3F7
330
1F
100
AcDbEntity
  8
@__WIDOCZNE
  6
Continuous
370
    50
100
AcDbLine
 10
-859.999999999909
 20
1953.125827165308
 30
0.0
 11
-859.999999999909
 21
1150.974005676574
 31
0.0
  0
LINE
  5
3F8
330
1F
100
AcDbEntity
  8
@__WIDOCZNE
  6
Continuous
370
    25
100
AcDbLine
 10
-1930.000000000318
 20
1715.340216099462
 30
0.0
 11
-1395.598823481083
 21
1715.340216099462
 31
0.0
  0
LINE
  5
3F9
330
1F
100
AcDbEntity
  8
@__WIDOCZNE
  6
Continuous
370
    13
100
AcDbLine
 10
-1367.608448481083
 20
1715.340216099462
 30
0.0
 11
-1395.598823481083
 21
1707.840216099462
 31
0.0
  0
LINE
  5
3FA
330
1F
100
AcDbEntity
  8
@__WIDOCZNE
  6
Continuous
370
    13
100
AcDbLine
 10
-1367.608448481083
 20
1715.340216099462
 30
0.0
 11
-1395.598823481083
 21
1722.840216099462
 31
0.0
  0
LINE
  5
3FB
330
1F
100
AcDbEntity
  8
@__WIDOCZNE
  6
Continuous
370
    13
100
AcDbLine
 10
-1395.598823481083
 20
1707.840216099462
 30
0.0
 11
-1395.598823481083
 21
1722.840216099462
 31
0.0
  0
HATCH
  5
3FC
330
1F
100
AcDbEntity
  8
@__WIDOCZNE
  6
Continuous
370
    13
100
AcDbHatch
 10
0.0
 20
0.0
 30
0.0
210
0.0
220
0.0
230
1.0
  2
SOLID
 70
     1
 71
     0
 91
        1
 92
        2
 72
     0
 73
     1
 93
        3
 10
-1367.608448481083
 20
1715.340216099462
 10
-1395.598823481083
 20
1707.840216099462
 10
-1395.598823481083
 20
1722.840216099462
 97
        0
 75
     0
 76
     1
 98
        0
  0
LINE
  5
3FD
330
1F
100
AcDbEntity
  8
@__WIDOCZNE
  6
Continuous
370
    25
100
AcDbLine
 10
-1930.000000000318
 20
2105.2981562324
 30
0.0
 11
-1426.441222353306
 21
2105.2981562324
 31
0.0
  0
LINE
  5
3FE
330
1F
100
AcDbEntity
  8
@__WIDOCZNE
  6
Continuous
370
    25
100
AcDbLine
 10
-1398.450847353306
 20
2105.2981562324
 30
0.0
 11
-1426.441222353306
 21
2097.7981562324
 31
0.0
  0
LINE
  5
3FF
330
1F
100
AcDbEntity
  8
@__WIDOCZNE
  6
Continuous
370
    25
100
AcDbLine
 10
-1398.450847353306
 20
2105.2981562324
 30
0.0
 11
-1426.441222353306
 21
2112.7981562324
 31
0.0
  0
LINE
  5
400
330
1F
100
AcDbEntity
  8
@__WIDOCZNE
  6
Continuous
370
    25
100
AcDbLine
 10
-1426.441222353306
 20
2097.7981562324
 30
0.0
 11
-1426.441222353306
 21
2112.7981562324
 31
0.0
  0
HATCH
  5
401
330
1F
100
AcDbEntity
  8
@__WIDOCZNE
  6
Continuous
370
    25
100
AcDbHatch
 10
0.0
 20
0.0
 30
0.0
210
0.0
220
0.0
230
1.0
  2
SOLID
 70
     1
 71
     0
 91
        1
 92
        2
 72
     0
 73
     1
 93
        3
 10
-1398.450847353306
 20
2105.2981562324
 10
-1426.441222353306
 20
2097.7981562324
 10
-1426.441222353306
 20
2112.7981562324
 97
        0
 75
     0
 76
     1
 98
        0
  0
LWPOLYLINE
  5
402
330
1F
100
AcDbEntity
  8
@__WIDOCZNE
  6
Continuous
370
    25
100
AcDbPolyline
 90
        7
 70
   128
 43
0.0
 10
-299.9720995921508
 20
1585.125179758693
 10
-1076.450847353306
 20
1585.125179758693
 10
-1076.450847353306
 20
1635.125179758693
 10
-299.9720995921508
 20
1635.125179758693
 10
-1088.450847353306
 20
1635.125179758693
 10
-1088.450847353306
 20
1655.125179758693
 10
-299.9720995921508
 20
1655.125179758693
  0
LWPOLYLINE
  5
403
330
1F
100
AcDbEntity
  8
@__WIDOCZNE
  6
Continuous
370
    25
100
AcDbPolyline
 90
        2
 70
   128
 43
0.0
 10
-299.9720995921508
 20
1435.125179758693
 10
-1188.450847353306
 20
1435.125179758694
  0
LINE
  5
404
330
1F
100
AcDbEntity
  8
@__WIDOCZNE
  6
Continuous
370
    13
100
AcDbLine
 10
-1358.460424499458
 20
1100.882053404546
 30
0.0
 11
-1386.450799499458
 21
1093.382053404546
 31
0.0
  0
LINE
  5
405
330
1F
100
AcDbEntity
  8
@__WIDOCZNE
  6
Continuous
370
    13
100
AcDbLine
 10
-1358.460424499458
 20
1100.882053404546
 30
0.0
 11
-1386.450799499458
 21
1108.382053404546
 31
0.0
  0
LINE
  5
406
330
1F
100
AcDbEntity
  8
@__WIDOCZNE
  6
Continuous
370
    13
100
AcDbLine
 10
-1386.450799499458
 20
1093.382053404546
 30
0.0
 11
-1386.450799499458
 21
1108.382053404546
 31
0.0
  0
HATCH
  5
407
330
1F
100
AcDbEntity
  8
@__WIDOCZNE
  6
Continuous
370
    13
100
AcDbHatch
 10
0.0
 20
0.0
 30
0.0
210
0.0
220
0.0
230
1.0
  2
SOLID
 70
     1
 71
     0
 91
        1
 92
        2
 72
     0
 73
     1
 93
        3
 10
-1358.460424499458
 20
1100.882053404546
 10
-1386.450799499458
 20
1093.382053404546
 10
-1386.450799499458
 20
1108.382053404546
 97
        0
 75
     0
 76
     1
 98
        0
  0
LINE
  5
408
330
1F
100
AcDbEntity
  8
@__WIDOCZNE
  6
Continuous
370
    25
100
AcDbLine
 10
-1930.000000000318
 20
1100.882053404546
 30
0.0
 11
-1386.450799499458
 21
1100.882053404546
 31
0.0
  0
LWPOLYLINE
  5
409
330
1F
100
AcDbEntity
  8
@__WIDOCZNE
  6
Continuous
 62
   102
370
    50
100
AcDbPolyline
 90
        4
 70
   128
 43
0.0
 10
-1297.971884251004
 20
1573.723294140758
 10
-1212.914207208555
 20
1574.613993571074
 42
0.4357015829198343
 10
-1200.304406495818
 20
1588.855080715075
 10
-1200.304406495818
 20
1653.580296306665
  0
LWPOLYLINE
  5
40A
330
1F
100
AcDbEntity
  8
@__WIDOCZNE
  6
Continuous
370
    13
100
AcDbPolyline
 90
        8
 70
   128
 43
0.0
 10
-976.2648541675064
 20
1452.228649098006
 10
-1058.450847353306
 20
1452.228649098006
 42
-0.414213562373095
 10
-1088.450847353306
 20
1482.228649098006
 10
-1088.450847353306
 20
1585.124024924953
 10
-1071.770476897949
 20
1585.124024236563
 10
-1071.770476897949
 20
1483.952609472259
 42
0.414213562373095
 10
-1056.770476897949
 20
1468.952609472259
 10
-1010.637962252135
 20
1468.952609472259
  0
LWPOLYLINE
  5
40B
330
1F
100
AcDbEntity
  8
@__WIDOCZNE
  6
Continuous
370
    13
100
AcDbPolyline
 90
        7
 70
   128
 43
0.0
 10
-1041.327578107809
 20
1468.952609472259
 10
-979.4028537474518
 20
1468.952609472259
 42
-0.0872201078475092
 10
-974.2875814301414
 20
1468.053460124605
 10
-931.2478258443472
 20
1452.4402126887
 10
-937.0323862058981
 20
1436.783470669821
 10
-979.3906481080828
 20
1452.228649098006
 10
-1041.327578107809
 20
1452.228649098006
  0
LINE
  5
40C
330
1F
100
AcDbEntity
  8
@__WIDOCZNE
  6
Continuous
 62
   104
370
    13
100
AcDbLine
 10
-1551.414141950012
 20
1560.029906819679
 30
0.0
 11
-1558.914141950012
 21
1588.020281819679
 31
0.0
  0
LINE
  5
40D
330
1F
100
AcDbEntity
  8
@__WIDOCZNE
  6
Continuous
 62
   104
370
    13
100
AcDbLine
 10
-1551.414141950012
 20
1560.029906819679
 30
0.0
 11
-1543.914141950012
 21
1588.020281819679
 31
0.0
  0
LINE
  5
40E
330
1F
100
AcDbEntity
  8
@__WIDOCZNE
  6
Continuous
 62
   104
370
    13
100
AcDbLine
 10
-1558.914141950012
 20
1588.020281819679
 30
0.0
 11
-1543.914141950012
 21
1588.020281819679
 31
0.0
  0
HATCH
  5
40F
330
1F
100
AcDbEntity
  8
@__WIDOCZNE
  6
Continuous
 62
   104
370
    13
100
AcDbHatch
 10
0.0
 20
0.0
 30
0.0
210
0.0
220
0.0
230
1.0
  2
SOLID
 70
     1
 71
     0
 91
        1
 92
        2
 72
     0
 73
     1
 93
        3
 10
-1551.414141950012
 20
1560.029906819679
 10
-1558.914141950012
 20
1588.020281819679
 10
-1543.914141950012
 20
1588.020281819679
 97
        0
 75
     0
 76
     1
 98
        0
  0
LWPOLYLINE
  5
410
330
1F
100
AcDbEntity
  8
@__WIDOCZNE
  6
Continuous
 62
   104
370
    25
100
AcDbPolyline
 90
        3
 70
   128
 43
0.0
 10
-1930.000000000318
 20
1820.195826969182
 10
-1551.414141950012
 20
1820.195826969182
 10
-1551.414141950012
 20
1588.020281819679
  0
MTEXT
  5
411
330
1F
100
AcDbEntity
  8
@__WIDOCZNE
  6
Continuous
370
    13
100
AcDbMText
 10
-849.999999999909
 20
1739.202951231434
 30
0.0
 40
20.0
 41
0.0
 71
     7
 72
     1
  1
\A1;{\fArial|b1|i0|c238|p38;PODŁOGA NAD POMIESZCZENIEM \P\fArial|b0|i0|c238|p38;• POSADZKA\P• JASTRYCH CEMENTOWY\P• WARSTWA ROZDZIELAJĄCA -FOLIA PE\P• IZOLACJA TERMO-AKUST. -STYROPIAN EPS\P• PAROIZOLACJA\P• WARSTWA NOŚNA -STROP. ŻELBETOWY}
  7
GENERATED_STYLE_2
 73
     1
 44
0.9106613609144143
  0
ENDSEC
  0
SECTION
  2
OBJECTS
  0
DICTIONARY
  5
C
330
0
100
AcDbDictionary
281
     1
  3
ACAD_GROUP
350
D
  3
ACAD_LAYOUT
350
1A
  3
ACAD_MLEADERSTYLE
350
41A
  3
ACAD_MLINESTYLE
350
17
  3
ACAD_PLOTSETTINGS
350
19
  3
ACAD_PLOTSTYLENAME
350
E
  3
ACAD_SCALELIST
350
3B
  3
ACAD_TABLESTYLE
350
419
  3
ACAD_VISUALSTYLE
350
2A
  3
AcDbVariableDictionary
350
417
  3
WATERMARKS
350
415
  0
DICTIONARY
  5
D
102
{ACAD_REACTORS
330
C
102
}
330
C
100
AcDbDictionary
281
     1
  0
DICTIONARY
  5
1A
102
{ACAD_REACTORS
330
C
102
}
330
C
100
AcDbDictionary
281
     1
  3
Layout1
350
1E
  3
Layout2
350
26
  3
Model
350
22
  0
DICTIONARY
  5
41A
102
{ACAD_REACTORS
330
C
102
}
330
C
100
AcDbDictionary
281
     1
  0
DICTIONARY
  5
17
102
{ACAD_REACTORS
330
C
102
}
330
C
100
AcDbDictionary
281
     1
  3
Standard
350
18
  0
DICTIONARY
  5
19
102
{ACAD_REACTORS
330
C
102
}
330
C
100
AcDbDictionary
281
     1
  0
ACDBDICTIONARYWDFLT
  5
E
102
{ACAD_REACTORS
330
C
102
}
330
C
100
AcDbDictionary
281
     1
  3
Normal
350
F
100
AcDbDictionaryWithDefault
340
F
  0
DICTIONARY
  5
3B
102
{ACAD_REACTORS
330
C
102
}
330
C
100
AcDbDictionary
281
     1
  3
A0
350
3C
  3
A1
350
3D
  3
A2
350
3E
  3
A3
350
3F
  3
A4
350
40
  3
A5
350
41
  3
A6
350
42
  3
A7
350
43
  3
A8
350
44
  3
A9
350
45
  3
B0
350
46
  3
B1
350
47
  3
B2
350
48
  3
B3
350
49
  3
B4
350
4A
  3
B5
350
4B
  3
B6
350
4C
  3
B7
350
4D
  3
B8
350
4E
  3
B9
350
4F
  3
C0
350
50
  3
C1
350
51
  3
C2
350
52
  3
C3
350
53
  3
C4
350
54
  3
C5
350
55
  3
C6
350
56
  3
C7
350
57
  3
C8
350
58
  3
C9
350
59
  3
D0
350
5A
  3
D1
350
5B
  3
D2
350
5C
  0
DICTIONARY
  5
419
102
{ACAD_REACTORS
330
C
102
}
330
C
100
AcDbDictionary
281
     1
  0
DICTIONARY
  5
2A
102
{ACAD_REACTORS
330
C
102
}
330
C
100
AcDbDictionary
281
     1
  3
2dWireframe
350
2F
  3
3D Hidden
350
31
  3
3dWireframe
350
30
  3
Basic
350
32
  3
Brighten
350
36
  3
ColorChange
350
3A
  3
Conceptual
350
34
  3
Dim
350
35
  3
Facepattern
350
39
  3
Flat
350
2B
  3
FlatWithEdges
350
2C
  3
Gouraud
350
2D
  3
GouraudWithEdges
350
2E
  3
Linepattern
350
38
  3
Realistic
350
33
  3
Thicken
350
37
  0
DICTIONARY
  5
417
102
{ACAD_REACTORS
330
C
102
}
330
C
100
AcDbDictionary
281
     1
  3
CANNOSCALE
350
418
  0
DICTIONARY
  5
415
102
{ACAD_REACTORS
330
C
102
}
330
C
100
AcDbDictionary
281
     1
  3
AC_WATERMARK
350
416
  0
LAYOUT
  5
1E
102
{ACAD_REACTORS
330
1A
102
}
330
1A
100
AcDbPlotSettings
  1

  2
none_device
  4

  6

 40
0.0
 41
0.0
 42
0.0
 43
0.0
 44
0.0
 45
0.0
 46
0.0
 47
0.0
 48
0.0
 49
0.0
140
0.0
141
0.0
142
1.0
143
1.0
 70
   688
 72
     0
 73
     0
 74
     5
  7

 75
    16
147
1.0
148
0.0
149
0.0
100
AcDbLayout
  1
Layout1
 70
     1
 71
     1
 10
0.0
 20
0.0
 11
12.0
 21
9.0
 12
0.0
 22
0.0
 32
0.0
 14
1.000000000000000E+20
 24
1.000000000000000E+20
 34
1.000000000000000E+20
 15
-1.000000000000000E+20
 25
-1.000000000000000E+20
 35
-1.000000000000000E+20
146
0.0
 13
0.0
 23
0.0
 33
0.0
 16
1.0
 26
0.0
 36
0.0
 17
0.0
 27
1.0
 37
0.0
 76
     0
330
1B
  0
LAYOUT
  5
26
102
{ACAD_REACTORS
330
1A
102
}
330
1A
100
AcDbPlotSettings
  1

  2
none_device
  4

  6

 40
0.0
 41
0.0
 42
0.0
 43
0.0
 44
0.0
 45
0.0
 46
0.0
 47
0.0
 48
0.0
 49
0.0
140
0.0
141
0.0
142
1.0
143
1.0
 70
   688
 72
     0
 73
     0
 74
     5
  7

 75
    16
147
1.0
148
0.0
149
0.0
100
AcDbLayout
  1
Layout2
 70
     1
 71
     2
 10
0.0
 20
0.0
 11
0.0
 21
0.0
 12
0.0
 22
0.0
 32
0.0
 14
0.0
 24
0.0
 34
0.0
 15
0.0
 25
0.0
 35
0.0
146
0.0
 13
0.0
 23
0.0
 33
0.0
 16
1.0
 26
0.0
 36
0.0
 17
0.0
 27
1.0
 37
0.0
 76
     0
330
23
  0
LAYOUT
  5
22
102
{ACAD_REACTORS
330
1A
102
}
330
1A
100
AcDbPlotSettings
  1

  2
none_device
  4

  6

 40
0.0
 41
0.0
 42
0.0
 43
0.0
 44
0.0
 45
0.0
 46
0.0
 47
0.0
 48
0.0
 49
0.0
140
0.0
141
0.0
142
1.0
143
1.0
 70
  1712
 72
     0
 73
     0
 74
     0
  7

 75
     0
147
1.0
148
0.0
149
0.0
100
AcDbLayout
  1
Model
 70
     1
 71
     0
 10
0.0
 20
0.0
 11
12.0
 21
9.0
 12
0.0
 22
0.0
 32
0.0
 14
1.000000000000000E+20
 24
1.000000000000000E+20
 34
1.000000000000000E+20
 15
-1.000000000000000E+20
 25
-1.000000000000000E+20
 35
-1.000000000000000E+20
146
0.0
 13
0.0
 23
0.0
 33
0.0
 16
1.0
 26
0.0
 36
0.0
 17
0.0
 27
1.0
 37
0.0
 76
     0
330
1F
331
29
  0
MLINESTYLE
  5
18
102
{ACAD_REACTORS
330
17
102
}
330
17
100
AcDbMlineStyle
  2
Standard
 70
     0
  3

 62
   256
 51
90.0
 52
90.0
 71
     2
 49
0.5
 62
   256
  6
BYLAYER
 49
-0.5
 62
   256
  6
BYLAYER
  0
ACDBPLACEHOLDER
  5
F
102
{ACAD_REACTORS
330
E
102
}
330
E
  0
SCALE
  5
3C
102
{ACAD_REACTORS
330
3B
102
}
330
3B
100
AcDbScale
 70
     0
300
1:1
140
1.0
141
1.0
290
     1
  0
SCALE
  5
3D
102
{ACAD_REACTORS
330
3B
102
}
330
3B
100
AcDbScale
 70
     0
300
1:2
140
1.0
141
2.0
290
     0
  0
SCALE
  5
3E
102
{ACAD_REACTORS
330
3B
102
}
330
3B
100
AcDbScale
 70
     0
300
1:4
140
1.0
141
4.0
290
     0
  0
SCALE
  5
3F
102
{ACAD_REACTORS
330
3B
102
}
330
3B
100
AcDbScale
 70
     0
300
1:5
140
1.0
141
5.0
290
     0
  0
SCALE
  5
40
102
{ACAD_REACTORS
330
3B
102
}
330
3B
100
AcDbScale
 70
     0
300
1:8
140
1.0
141
8.0
290
     0
  0
SCALE
  5
41
102
{ACAD_REACTORS
330
3B
102
}
330
3B
100
AcDbScale
 70
     0
300
1:10
140
1.0
141
10.0
290
     0
  0
SCALE
  5
42
102
{ACAD_REACTORS
330
3B
102
}
330
3B
100
AcDbScale
 70
     0
300
1:16
140
1.0
141
16.0
290
     0
  0
SCALE
  5
43
102
{ACAD_REACTORS
330
3B
102
}
330
3B
100
AcDbScale
 70
     0
300
1:20
140
1.0
141
20.0
290
     0
  0
SCALE
  5
44
102
{ACAD_REACTORS
330
3B
102
}
330
3B
100
AcDbScale
 70
     0
300
1:30
140
1.0
141
30.0
290
     0
  0
SCALE
  5
45
102
{ACAD_REACTORS
330
3B
102
}
330
3B
100
AcDbScale
 70
     0
300
1:40
140
1.0
141
40.0
290
     0
  0
SCALE
  5
46
102
{ACAD_REACTORS
330
3B
102
}
330
3B
100
AcDbScale
 70
     0
300
1:50
140
1.0
141
50.0
290
     0
  0
SCALE
  5
47
102
{ACAD_REACTORS
330
3B
102
}
330
3B
100
AcDbScale
 70
     0
300
1:100
140
1.0
141
100.0
290
     0
  0
SCALE
  5
48
102
{ACAD_REACTORS
330
3B
102
}
330
3B
100
AcDbScale
 70
     0
300
2:1
140
2.0
141
1.0
290
     0
  0
SCALE
  5
49
102
{ACAD_REACTORS
330
3B
102
}
330
3B
100
AcDbScale
 70
     0
300
4:1
140
4.0
141
1.0
290
     0
  0
SCALE
  5
4A
102
{ACAD_REACTORS
330
3B
102
}
330
3B
100
AcDbScale
 70
     0
300
8:1
140
8.0
141
1.0
290
     0
  0
SCALE
  5
4B
102
{ACAD_REACTORS
330
3B
102
}
330
3B
100
AcDbScale
 70
     0
300
10:1
140
10.0
141
1.0
290
     0
  0
SCALE
  5
4C
102
{ACAD_REACTORS
330
3B
102
}
330
3B
100
AcDbScale
 70
     0
300
100:1
140
100.0
141
1.0
290
     0
  0
SCALE
  5
4D
102
{ACAD_REACTORS
330
3B
102
}
330
3B
100
AcDbScale
 70
     0
300
1/128" = 1'-0"
140
0.0078125
141
12.0
290
     0
  0
SCALE
  5
4E
102
{ACAD_REACTORS
330
3B
102
}
330
3B
100
AcDbScale
 70
     0
300
1/64" = 1'-0"
140
0.015625
141
12.0
290
     0
  0
SCALE
  5
4F
102
{ACAD_REACTORS
330
3B
102
}
330
3B
100
AcDbScale
 70
     0
300
1/32" = 1'-0"
140
0.03125
141
12.0
290
     0
  0
SCALE
  5
50
102
{ACAD_REACTORS
330
3B
102
}
330
3B
100
AcDbScale
 70
     0
300
1/16" = 1'-0"
140
0.0625
141
12.0
290
     0
  0
SCALE
  5
51
102
{ACAD_REACTORS
330
3B
102
}
330
3B
100
AcDbScale
 70
     0
300
3/32" = 1'-0"
140
0.09375
141
12.0
290
     0
  0
SCALE
  5
52
102
{ACAD_REACTORS
330
3B
102
}
330
3B
100
AcDbScale
 70
     0
300
1/8" = 1'-0"
140
0.125
141
12.0
290
     0
  0
SCALE
  5
53
102
{ACAD_REACTORS
330
3B
102
}
330
3B
100
AcDbScale
 70
     0
300
3/16" = 1'-0"
140
0.1875
141
12.0
290
     0
  0
SCALE
  5
54
102
{ACAD_REACTORS
330
3B
102
}
330
3B
100
AcDbScale
 70
     0
300
1/4" = 1'-0"
140
0.25
141
12.0
290
     0
  0
SCALE
  5
55
102
{ACAD_REACTORS
330
3B
102
}
330
3B
100
AcDbScale
 70
     0
300
3/8" = 1'-0"
140
0.375
141
12.0
290
     0
  0
SCALE
  5
56
102
{ACAD_REACTORS
330
3B
102
}
330
3B
100
AcDbScale
 70
     0
300
1/2" = 1'-0"
140
0.5
141
12.0
290
     0
  0
SCALE
  5
57
102
{ACAD_REACTORS
330
3B
102
}
330
3B
100
AcDbScale
 70
     0
300
3/4" = 1'-0"
140
0.75
141
12.0
290
     0
  0
SCALE
  5
58
102
{ACAD_REACTORS
330
3B
102
}
330
3B
100
AcDbScale
 70
     0
300
1" = 1'-0"
140
1.0
141
12.0
290
     0
  0
SCALE
  5
59
102
{ACAD_REACTORS
330
3B
102
}
330
3B
100
AcDbScale
 70
     0
300
1-1/2" = 1'-0"
140
1.5
141
12.0
290
     0
  0
SCALE
  5
5A
102
{ACAD_REACTORS
330
3B
102
}
330
3B
100
AcDbScale
 70
     0
300
3" = 1'-0"
140
3.0
141
12.0
290
     0
  0
SCALE
  5
5B
102
{ACAD_REACTORS
330
3B
102
}
330
3B
100
AcDbScale
 70
     0
300
6" = 1'-0"
140
6.0
141
12.0
290
     0
  0
SCALE
  5
5C
102
{ACAD_REACTORS
330
3B
102
}
330
3B
100
AcDbScale
 70
     0
300
1'-0" = 1'-0"
140
12.0
141
12.0
290
     0
  0
VISUALSTYLE
  5
2F
102
{ACAD_REACTORS
330
2A
102
}
330
2A
100
AcDbVisualStyle
  2
2dWireframe
 70
     4
 71
     0
 72
     2
 73
     0
 90
        0
 40
-0.6
 41
-30.0
 62
     5
 63
     7
 74
     1
 91
        4
 64
     7
 65
   257
 75
     1
175
     1
 42
1.0
 92
        0
 66
   257
 43
1.0
 76
     1
 77
     6
 78
     2
 67
     7
 79
     5
170
     0
171
     0
290
     0
174
     0
 93
        1
 44
0.0
173
     0
291
     0
 45
0.0
1001
ACAD
1000
AcDbSavedByObjectVersion
1070
     0
  0
VISUALSTYLE
  5
31
102
{ACAD_REACTORS
330
2A
102
}
330
2A
100
AcDbVisualStyle
  2
3D Hidden
 70
     6
 71
     1
 72
     2
 73
     2
 90
        0
 40
-0.6
 41
-30.0
 62
     5
 63
     7
 74
     2
 91
        2
 64
     7
 65
   257
 75
     2
175
     1
 42
40.0
 92
        0
 66
   257
 43
1.0
 76
     1
 77
     6
 78
     2
 67
     7
 79
     3
170
     0
171
     0
290
     0
174
     0
 93
        1
 44
0.0
173
     0
291
     0
 45
0.0
1001
ACAD
1000
AcDbSavedByObjectVersion
1070
     0
  0
VISUALSTYLE
  5
30
102
{ACAD_REACTORS
330
2A
102
}
330
2A
100
AcDbVisualStyle
  2
3dWireframe
 70
     5
 71
     0
 72
     2
 73
     0
 90
        0
 40
-0.6
 41
-30.0
 62
     5
 63
     7
 74
     1
 91
        4
 64
     7
 65
   257
 75
     1
175
     1
 42
1.0
 92
        0
 66
   257
 43
1.0
 76
     1
 77
     6
 78
     2
 67
     7
 79
     5
170
     0
171
     0
290
     0
174
     0
 93
        1
 44
0.0
173
     0
291
     0
 45
0.0
1001
ACAD
1000
AcDbSavedByObjectVersion
1070
     0
  0
VISUALSTYLE
  5
32
102
{ACAD_REACTORS
330
2A
102
}
330
2A
100
AcDbVisualStyle
  2
Basic
 70
     7
 71
     1
 72
     0
 73
     1
 90
        0
 40
-0.6
 41
-30.0
 62
     5
 63
     7
 74
     0
 91
        4
 64
     7
 65
   257
 75
     1
175
     1
 42
1.0
 92
        8
 66
     7
 43
1.0
 76
     1
 77
     6
 78
     2
 67
     7
 79
     5
170
     0
171
     0
290
     0
174
     0
 93
        1
 44
0.0
173
     0
291
     1
 45
0.0
1001
ACAD
1000
AcDbSavedByObjectVersion
1070
     0
  0
VISUALSTYLE
  5
36
102
{ACAD_REACTORS
330
2A
102
}
330
2A
100
AcDbVisualStyle
  2
Brighten
 70
    12
 71
     2
 72
     2
 73
     0
 90
        0
 40
-0.6
 41
-30.0
 62
     5
 63
     7
 74
     1
 91
        4
 64
     7
 65
   257
 75
     1
175
     1
 42
1.0
 92
        8
 66
     7
 43
1.0
 76
     1
 77
     6
 78
     2
 67
     7
 79
     5
170
     0
171
     0
290
     0
174
     0
 93
        1
 44
50.0
173
     0
291
     1
 45
0.0
1001
ACAD
1000
AcDbSavedByObjectVersion
1070
     0
  0
VISUALSTYLE
  5
3A
102
{ACAD_REACTORS
330
2A
102
}
330
2A
100
AcDbVisualStyle
  2
ColorChange
 70
    16
 71
     2
 72
     2
 73
     3
 90
        0
 40
-0.6
 41
-30.0
 62
     5
 63
     8
 74
     1
 91
        4
 64
     7
 65
   257
 75
     1
175
     1
 42
1.0
 92
        8
 66
     8
 43
1.0
 76
     1
 77
     6
 78
     2
 67
     7
 79
     5
170
     0
171
     0
290
     0
174
     0
 93
        1
 44
0.0
173
     0
291
     1
 45
0.0
1001
ACAD
1000
AcDbSavedByObjectVersion
1070
     0
  0
VISUALSTYLE
  5
34
102
{ACAD_REACTORS
330
2A
102
}
330
2A
100
AcDbVisualStyle
  2
Conceptual
 70
     9
 71
     3
 72
     2
 73
     0
 90
        0
 40
-0.6
 41
-30.0
 62
     5
 63
     7
 74
     2
 91
        2
 64
     7
 65
   257
 75
     1
175
     1
 42
40.0
 92
        8
 66
     7
 43
1.0
 76
     1
 77
     6
 78
     2
 67
     7
 79
     3
170
     0
171
     0
290
     0
174
     0
 93
        1
 44
0.0
173
     0
291
     0
 45
0.0
1001
ACAD
1000
AcDbSavedByObjectVersion
1070
     0
  0
VISUALSTYLE
  5
35
102
{ACAD_REACTORS
330
2A
102
}
330
2A
100
AcDbVisualStyle
  2
Dim
 70
    11
 71
     2
 72
     2
 73
     0
 90
        0
 40
-0.6
 41
-30.0
 62
     5
 63
     7
 74
     1
 91
        4
 64
     7
 65
   257
 75
     1
175
     1
 42
1.0
 92
        8
 66
     7
 43
1.0
 76
     1
 77
     6
 78
     2
 67
     7
 79
     5
170
     0
171
     0
290
     0
174
     0
 93
        1
 44
-50.0
173
     0
291
     1
 45
0.0
1001
ACAD
1000
AcDbSavedByObjectVersion
1070
     0
  0
VISUALSTYLE
  5
39
102
{ACAD_REACTORS
330
2A
102
}
330
2A
100
AcDbVisualStyle
  2
Facepattern
 70
    15
 71
     2
 72
     2
 73
     0
 90
        0
 40
-0.6
 41
-30.0
 62
     5
 63
     7
 74
     1
 91
        4
 64
     7
 65
   257
 75
     1
175
     1
 42
1.0
 92
        8
 66
     7
 43
1.0
 76
     1
 77
     6
 78
     2
 67
     7
 79
     5
170
     0
171
     0
290
     0
174
     0
 93
        1
 44
0.0
173
     0
291
     1
 45
0.0
1001
ACAD
1000
AcDbSavedByObjectVersion
1070
     0
  0
VISUALSTYLE
  5
2B
102
{ACAD_REACTORS
330
2A
102
}
330
2A
100
AcDbVisualStyle
  2
Flat
 70
     0
 71
     2
 72
     1
 73
     1
 90
        2
 40
-0.6
 41
30.0
 62
     5
 63
     7
 74
     0
 91
        4
 64
     7
 65
   257
 75
     1
175
     1
 42
1.0
 92
        8
 66
     7
 43
1.0
 76
     1
 77
     6
 78
     2
 67
     7
 79
     5
170
     0
171
     0
290
     0
174
     0
 93
       13
 44
0.0
173
     0
291
     1
 45
0.0
1001
ACAD
1000
AcDbSavedByObjectVersion
1070
     0
  0
VISUALSTYLE
  5
2C
102
{ACAD_REACTORS
330
2A
102
}
330
2A
100
AcDbVisualStyle
  2
FlatWithEdges
 70
     1
 71
     2
 72
     1
 73
     1
 90
        2
 40
-0.6
 41
30.0
 62
     5
 63
     7
 74
     1
 91
        4
 64
     7
 65
   257
 75
     1
175
     1
 42
1.0
 92
        0
 66
   257
 43
1.0
 76
     1
 77
     6
 78
     2
 67
     7
 79
     5
170
     0
171
     0
290
     0
174
     0
 93
       13
 44
0.0
173
     0
291
     1
 45
0.0
1001
ACAD
1000
AcDbSavedByObjectVersion
1070
     0
  0
VISUALSTYLE
  5
2D
102
{ACAD_REACTORS
330
2A
102
}
330
2A
100
AcDbVisualStyle
  2
Gouraud
 70
     2
 71
     2
 72
     2
 73
     1
 90
        2
 40
-0.6
 41
30.0
 62
     5
 63
     7
 74
     0
 91
        4
 64
     7
 65
   257
 75
     1
175
     1
 42
1.0
 92
        0
 66
     7
 43
1.0
 76
     1
 77
     6
 78
     2
 67
     7
 79
     5
170
     0
171
     0
290
     0
174
     0
 93
       13
 44
0.0
173
     0
291
     1
 45
0.0
1001
ACAD
1000
AcDbSavedByObjectVersion
1070
     0
  0
VISUALSTYLE
  5
2E
102
{ACAD_REACTORS
330
2A
102
}
330
2A
100
AcDbVisualStyle
  2
GouraudWithEdges
 70
     3
 71
     2
 72
     2
 73
     1
 90
        2
 40
-0.6
 41
30.0
 62
     5
 63
     7
 74
     1
 91
        4
 64
     7
 65
   257
 75
     1
175
     1
 42
1.0
 92
        0
 66
   257
 43
1.0
 76
     1
 77
     6
 78
     2
 67
     7
 79
     5
170
     0
171
     0
290
     0
174
     0
 93
       13
 44
0.0
173
     0
291
     1
 45
0.0
1001
ACAD
1000
AcDbSavedByObjectVersion
1070
     0
  0
VISUALSTYLE
  5
38
102
{ACAD_REACTORS
330
2A
102
}
330
2A
100
AcDbVisualStyle
  2
Linepattern
 70
    14
 71
     2
 72
     2
 73
     0
 90
        0
 40
-0.6
 41
-30.0
 62
     5
 63
     7
 74
     1
 91
        4
 64
     7
 65
   257
 75
     7
175
     7
 42
1.0
 92
        8
 66
     7
 43
1.0
 76
     1
 77
     6
 78
     2
 67
     7
 79
     5
170
     0
171
     0
290
     0
174
     0
 93
        1
 44
0.0
173
     0
291
     1
 45
0.0
1001
ACAD
1000
AcDbSavedByObjectVersion
1070
     0
  0
VISUALSTYLE
  5
33
102
{ACAD_REACTORS
330
2A
102
}
330
2A
100
AcDbVisualStyle
  2
Realistic
 70
     8
 71
     2
 72
     2
 73
     0
 90
        0
 40
-0.6
 41
-30.0
 62
     5
 63
     7
 74
     1
 91
        0
 64
     7
 65
   257
 75
     1
175
     1
 42
1.0
 92
        8
 66
     8
 43
1.0
 76
     1
 77
     6
 78
     2
 67
     7
 79
     5
170
     0
171
     0
290
     0
174
     0
 93
       13
 44
0.0
173
     0
291
     0
 45
0.0
1001
ACAD
1000
AcDbSavedByObjectVersion
1070
     0
  0
VISUALSTYLE
  5
37
102
{ACAD_REACTORS
330
2A
102
}
330
2A
100
AcDbVisualStyle
  2
Thicken
 70
    13
 71
     2
 72
     2
 73
     0
 90
        0
 40
-0.6
 41
-30.0
 62
     5
 63
     7
 74
     1
 91
        4
 64
     7
 65
   257
 75
     1
175
     1
 42
1.0
 92
       12
 66
     7
 43
1.0
 76
     1
 77
     6
 78
     2
 67
     7
 79
     5
170
     0
171
     0
290
     0
174
     0
 93
        1
 44
0.0
173
     0
291
     1
 45
0.0
1001
ACAD
1000
AcDbSavedByObjectVersion
1070
     0
  0
DICTIONARYVAR
  5
418
102
{ACAD_REACTORS
330
417
102
}
330
417
100
DictionaryVariables
280
     0
  1
1:1
  0
XRECORD
  5
416
102
{ACAD_REACTORS
330
415
102
}
330
415
100
AcDbXrecord
280
     1
1000
Ten plik DWG został utworzony w programie ArchiCAD(TM)®
  0
ENDSEC
  0
EOF
