  0
SECTION
  2
HEADER
  9
$ACADVER
  1
AC1018
  9
$ACADMAINTVER
 70
     0
  9
$DWGCODEPAGE
  3
ANSI_1250
  9
$INSBASE
 10
0.0
 20
0.0
 30
0.0
  9
$EXTMIN
 10
1.000000000000000E+20
 20
1.000000000000000E+20
 30
1.000000000000000E+20
  9
$EXTMAX
 10
-1.000000000000000E+20
 20
-1.000000000000000E+20
 30
-1.000000000000000E+20
  9
$LIMMIN
 10
0.0
 20
0.0
  9
$LIMMAX
 10
12.0
 20
9.0
  9
$ORTHOMODE
 70
     0
  9
$REGENMODE
 70
     1
  9
$FILLMODE
 70
     1
  9
$QTEXTMODE
 70
     0
  9
$MIRRTEXT
 70
     1
  9
$LTSCALE
 40
1.0
  9
$ATTMODE
 70
     1
  9
$TEXTSIZE
 40
0.2
  9
$TRACEWID
 40
0.05
  9
$TEXTSTYLE
  7
Standard
  9
$CLAYER
  8
0
  9
$CELTYPE
  6
ByLayer
  9
$CECOLOR
 62
   256
  9
$CELTSCALE
 40
1.0
  9
$DISPSILH
 70
     0
  9
$DIMSCALE
 40
1.0
  9
$DIMASZ
 40
0.18
  9
$DIMEXO
 40
0.0625
  9
$DIMDLI
 40
0.38
  9
$DIMRND
 40
0.0
  9
$DIMDLE
 40
0.0
  9
$DIMEXE
 40
0.18
  9
$DIMTP
 40
0.0
  9
$DIMTM
 40
0.0
  9
$DIMTXT
 40
0.18
  9
$DIMCEN
 40
0.09
  9
$DIMTSZ
 40
0.0
  9
$DIMTOL
 70
     0
  9
$DIMLIM
 70
     0
  9
$DIMTIH
 70
     1
  9
$DIMTOH
 70
     1
  9
$DIMSE1
 70
     0
  9
$DIMSE2
 70
     0
  9
$DIMTAD
 70
     0
  9
$DIMZIN
 70
     0
  9
$DIMBLK
  1

  9
$DIMASO
 70
     1
  9
$DIMSHO
 70
     1
  9
$DIMPOST
  1

  9
$DIMAPOST
  1

  9
$DIMALT
 70
     0
  9
$DIMALTD
 70
     2
  9
$DIMALTF
 40
25.4
  9
$DIMLFAC
 40
1.0
  9
$DIMTOFL
 70
     0
  9
$DIMTVP
 40
0.0
  9
$DIMTIX
 70
     0
  9
$DIMSOXD
 70
     0
  9
$DIMSAH
 70
     0
  9
$DIMBLK1
  1

  9
$DIMBLK2
  1

  9
$DIMSTYLE
  2
Standard
  9
$DIMCLRD
 70
     0
  9
$DIMCLRE
 70
     0
  9
$DIMCLRT
 70
     0
  9
$DIMTFAC
 40
1.0
  9
$DIMGAP
 40
0.09
  9
$DIMJUST
 70
     0
  9
$DIMSD1
 70
     0
  9
$DIMSD2
 70
     0
  9
$DIMTOLJ
 70
     1
  9
$DIMTZIN
 70
     0
  9
$DIMALTZ
 70
     0
  9
$DIMALTTZ
 70
     0
  9
$DIMUPT
 70
     0
  9
$DIMDEC
 70
     4
  9
$DIMTDEC
 70
     4
  9
$DIMALTU
 70
     2
  9
$DIMALTTD
 70
     2
  9
$DIMTXSTY
  7
Standard
  9
$DIMAUNIT
 70
     0
  9
$DIMADEC
 70
     0
  9
$DIMALTRND
 40
0.0
  9
$DIMAZIN
 70
     0
  9
$DIMDSEP
 70
    46
  9
$DIMATFIT
 70
     3
  9
$DIMFRAC
 70
     0
  9
$DIMLDRBLK
  1

  9
$DIMLUNIT
 70
     2
  9
$DIMLWD
 70
    -2
  9
$DIMLWE
 70
    -2
  9
$DIMTMOVE
 70
     0
  9
$LUNITS
 70
     2
  9
$LUPREC
 70
     4
  9
$SKETCHINC
 40
0.1
  9
$FILLETRAD
 40
0.5
  9
$AUNITS
 70
     0
  9
$AUPREC
 70
     0
  9
$MENU
  1
.
  9
$ELEVATION
 40
0.0
  9
$PELEVATION
 40
0.0
  9
$THICKNESS
 40
0.0
  9
$LIMCHECK
 70
     0
  9
$CHAMFERA
 40
0.5
  9
$CHAMFERB
 40
0.5
  9
$CHAMFERC
 40
1.0
  9
$CHAMFERD
 40
0.0
  9
$SKPOLY
 70
     0
  9
$TDCREATE
 40
2459779.609586215
  9
$TDUCREATE
 40
2459779.526252882
  9
$TDUPDATE
 40
2459779.609586227
  9
$TDUUPDATE
 40
2459779.526252894
  9
$TDINDWG
 40
0.0000000116
  9
$TDUSRTIMER
 40
0.0000000116
  9
$USRTIMER
 70
     1
  9
$ANGBASE
 50
0.0
  9
$ANGDIR
 70
     0
  9
$PDMODE
 70
     0
  9
$PDSIZE
 40
0.0
  9
$PLINEWID
 40
0.0
  9
$SPLFRAME
 70
     0
  9
$SPLINETYPE
 70
     6
  9
$SPLINESEGS
 70
     8
  9
$HANDSEED
  5
260
  9
$SURFTAB1
 70
     6
  9
$SURFTAB2
 70
     6
  9
$SURFTYPE
 70
     6
  9
$SURFU
 70
     6
  9
$SURFV
 70
     6
  9
$UCSBASE
  2

  9
$UCSNAME
  2

  9
$UCSORG
 10
0.0
 20
0.0
 30
0.0
  9
$UCSXDIR
 10
1.0
 20
0.0
 30
0.0
  9
$UCSYDIR
 10
0.0
 20
1.0
 30
0.0
  9
$UCSORTHOREF
  2

  9
$UCSORTHOVIEW
 70
     0
  9
$UCSORGTOP
 10
0.0
 20
0.0
 30
0.0
  9
$UCSORGBOTTOM
 10
0.0
 20
0.0
 30
0.0
  9
$UCSORGLEFT
 10
0.0
 20
0.0
 30
0.0
  9
$UCSORGRIGHT
 10
0.0
 20
0.0
 30
0.0
  9
$UCSORGFRONT
 10
0.0
 20
0.0
 30
0.0
  9
$UCSORGBACK
 10
0.0
 20
0.0
 30
0.0
  9
$PUCSBASE
  2

  9
$PUCSNAME
  2

  9
$PUCSORG
 10
0.0
 20
0.0
 30
0.0
  9
$PUCSXDIR
 10
1.0
 20
0.0
 30
0.0
  9
$PUCSYDIR
 10
0.0
 20
1.0
 30
0.0
  9
$PUCSORTHOREF
  2

  9
$PUCSORTHOVIEW
 70
     0
  9
$PUCSORGTOP
 10
0.0
 20
0.0
 30
0.0
  9
$PUCSORGBOTTOM
 10
0.0
 20
0.0
 30
0.0
  9
$PUCSORGLEFT
 10
0.0
 20
0.0
 30
0.0
  9
$PUCSORGRIGHT
 10
0.0
 20
0.0
 30
0.0
  9
$PUCSORGFRONT
 10
0.0
 20
0.0
 30
0.0
  9
$PUCSORGBACK
 10
0.0
 20
0.0
 30
0.0
  9
$USERI1
 70
     0
  9
$USERI2
 70
     0
  9
$USERI3
 70
     0
  9
$USERI4
 70
     0
  9
$USERI5
 70
     0
  9
$USERR1
 40
0.0
  9
$USERR2
 40
0.0
  9
$USERR3
 40
0.0
  9
$USERR4
 40
0.0
  9
$USERR5
 40
0.0
  9
$WORLDVIEW
 70
     1
  9
$SHADEDGE
 70
     3
  9
$SHADEDIF
 70
    70
  9
$TILEMODE
 70
     0
  9
$MAXACTVP
 70
    64
  9
$PINSBASE
 10
0.0
 20
0.0
 30
0.0
  9
$PLIMCHECK
 70
     0
  9
$PEXTMIN
 10
-5.669085409522604
 20
-0.2612750602095926
 30
0.0
  9
$PEXTMAX
 10
210.0
 20
297.0
 30
0.0
  9
$PLIMMIN
 10
-5.669085409522604
 20
-0.2612750602095926
  9
$PLIMMAX
 10
210.0
 20
297.0
  9
$UNITMODE
 70
     0
  9
$VISRETAIN
 70
     1
  9
$PLINEGEN
 70
     0
  9
$PSLTSCALE
 70
     0
  9
$TREEDEPTH
 70
  3020
  9
$CMLSTYLE
  2
Standard
  9
$CMLJUST
 70
     0
  9
$CMLSCALE
 40
1.0
  9
$PROXYGRAPHICS
 70
     1
  9
$MEASUREMENT
 70
     0
  9
$CELWEIGHT
370
    -1
  9
$ENDCAPS
280
     0
  9
$JOINSTYLE
280
     0
  9
$LWDISPLAY
290
     1
  9
$INSUNITS
 70
     0
  9
$HYPERLINKBASE
  1

  9
$STYLESHEET
  1

  9
$XEDIT
290
     1
  9
$CEPSNTYPE
380
     0
  9
$PSTYLEMODE
290
     1
  9
$FINGERPRINTGUID
  2
{8DEAFB81-A6DE-40DB-BE1E-21D5398C87B7}
  9
$VERSIONGUID
  2
{FAEB1C32-E019-11D5-929B-00C0DF256EC4}
  9
$EXTNAMES
290
     1
  9
$PSVPSCALE
 40
0.0
  9
$OLESTARTUP
290
     0
  9
$SORTENTS
280
   127
  9
$INDEXCTL
280
     0
  9
$HIDETEXT
280
     1
  9
$XCLIPFRAME
290
     0
  9
$HALOGAP
280
     0
  9
$OBSCOLOR
 70
   257
  9
$OBSLTYPE
280
     0
  9
$INTERSECTIONDISPLAY
280
     0
  9
$INTERSECTIONCOLOR
 70
   257
  9
$DIMASSOC
280
     2
  9
$PROJECTNAME
  1

  0
ENDSEC
  0
SECTION
  2
CLASSES
  0
CLASS
  1
ACDBDICTIONARYWDFLT
  2
AcDbDictionaryWithDefault
  3
ObjectDBX Classes
 90
        0
 91
        3
280
     0
281
     0
  0
CLASS
  1
VISUALSTYLE
  2
AcDbVisualStyle
  3
ObjectDBX Classes
 90
     4095
 91
        3
280
     0
281
     0
  0
CLASS
  1
SCALE
  2
AcDbScale
  3
ObjectDBX Classes
 90
     1153
 91
        3
280
     0
281
     0
  0
CLASS
  1
WIPEOUT
  2
AcDbWipeout
  3
WipeOut|AutoCAD Express Tool|expresstools@autodesk.com
 90
      127
 91
        3
280
     0
281
     1
  0
CLASS
  1
SPATIAL_FILTER
  2
AcDbSpatialFilter
  3
ObjectDBX Classes
 90
        0
 91
        3
280
     0
281
     0
  0
ENDSEC
  0
SECTION
  2
TABLES
  0
TABLE
  2
VPORT
  5
8
330
0
100
AcDbSymbolTable
 70
     1
  0
VPORT
  5
29
330
8
100
AcDbSymbolTableRecord
100
AcDbViewportTableRecord
  2
*Active
 70
     0
 10
0.0
 20
0.0
 11
1.0
 21
1.0
 12
10.42990654205607
 22
4.5
 13
0.0
 23
0.0
 14
0.5
 24
0.5
 15
0.5
 25
0.5
 16
0.0
 26
0.0
 36
1.0
 17
0.0
 27
0.0
 37
0.0
 40
9.0
 41
1.972972972850329
 42
50.0
 43
0.0
 44
0.0
 50
0.0
 51
0.0
 71
     0
 72
   100
 73
     1
 74
     3
 75
     0
 76
     0
 77
     0
 78
     0
281
     0
 65
     1
110
0.0
120
0.0
130
0.0
111
1.0
121
0.0
131
0.0
112
0.0
122
1.0
132
0.0
 79
     0
146
0.0
  0
ENDTAB
  0
TABLE
  2
LTYPE
  5
5
330
0
100
AcDbSymbolTable
 70
     6
  0
LTYPE
  5
14
330
5
100
AcDbSymbolTableRecord
100
AcDbLinetypeTableRecord
  2
ByBlock
 70
     0
  3

 72
    65
 73
     0
 40
0.0
  0
LTYPE
  5
15
330
5
100
AcDbSymbolTableRecord
100
AcDbLinetypeTableRecord
  2
ByLayer
 70
     0
  3

 72
    65
 73
     0
 40
0.0
  0
LTYPE
  5
16
330
5
100
AcDbSymbolTableRecord
100
AcDbLinetypeTableRecord
  2
Continuous
 70
     0
  3
Solid line
 72
    65
 73
     0
 40
0.0
  0
LTYPE
  5
7A
330
5
100
AcDbSymbolTableRecord
100
AcDbLinetypeTableRecord
  2
Przerywana gęsta
 70
     0
  3
- - - - - 
 72
    65
 73
     2
 40
30.0
 49
20.0
 74
     0
 49
-10.0
 74
     0
  0
LTYPE
  5
7C
330
5
100
AcDbSymbolTableRecord
100
AcDbLinetypeTableRecord
  2
Wipeout_Contour
 70
     0
  3
- - - - - 
 72
    65
 73
     2
 40
1000.0
 49
0.0
 74
     0
 49
-1000.0
 74
     0
  0
LTYPE
  5
C0
330
5
100
AcDbSymbolTableRecord
100
AcDbLinetypeTableRecord
  2
IZOLACJA GRUBA
 70
     0
  3
??????????
 72
    65
 73
     3
 40
100.0
 49
0.0
 74
     4
 75
     1
340
C1
 46
0.7936507936507936
 50
0.0
 44
0.0
 45
0.0
 49
-100.0
 74
     0
 49
0.0
 74
     0
  0
LTYPE
  5
C8
330
5
100
AcDbSymbolTableRecord
100
AcDbLinetypeTableRecord
  2
Przerywana
 70
     0
  3
- - - - - 
 72
    65
 73
     2
 40
56.44444465637207
 49
28.22222232818604
 74
     0
 49
-28.22222232818603
 74
     0
  0
LTYPE
  5
16C
330
5
100
AcDbSymbolTableRecord
100
AcDbLinetypeTableRecord
  2
Kreski i kropki
 70
     0
  3
- - - - - 
 72
    65
 73
     4
 40
67.02777624130249
 49
35.27777671813965
 74
     0
 49
-17.63888835906982
 74
     0
 49
0.0
 74
     0
 49
-14.11111116409302
 74
     0
  0
ENDTAB
  0
TABLE
  2
LAYER
  5
2
330
0
100
AcDbSymbolTable
 70
     4
  0
LAYER
  5
10
330
2
100
AcDbSymbolTableRecord
100
AcDbLayerTableRecord
  2
0
 70
     0
 62
     7
  6
Continuous
370
    -3
390
F
  0
LAYER
  5
5F
330
2
100
AcDbSymbolTableRecord
100
AcDbLayerTableRecord
  2
@__WIDOCZNE
 70
     0
 62
     7
  6
Continuous
370
    -3
390
F
  0
LAYER
  5
C3
330
2
100
AcDbSymbolTableRecord
100
AcDbLayerTableRecord
  2
Linia Izolacji - ARCHICAD
 70
     0
 62
     7
  6
Continuous
370
    -3
390
F
  0
LAYER
  5
257
330
2
100
AcDbSymbolTableRecord
100
AcDbLayerTableRecord
  2
NonPlottable_0
 70
     0
 62
     7
  6
Continuous
290
     0
370
    -3
390
F
  0
ENDTAB
  0
TABLE
  2
STYLE
  5
3
330
0
100
AcDbSymbolTable
 70
     4
  0
STYLE
  5
11
330
3
100
AcDbSymbolTableRecord
100
AcDbTextStyleTableRecord
  2
Standard
 70
     0
 40
0.0
 41
1.0
 50
0.0
 71
     0
 42
0.2
  3
txt
  4
BIGFONT.SHX
  0
STYLE
  5
8D
330
3
100
AcDbSymbolTableRecord
100
AcDbTextStyleTableRecord
  2
GENERATED_STYLE_1
 70
     0
 40
0.0
 41
1.0
 50
0.0
 71
     0
 42
0.2
  3
arial.ttf
  4

1001
ACAD
1000
Arial
1071
    60966
  0
STYLE
  5
C1
330
3
100
AcDbSymbolTableRecord
100
AcDbTextStyleTableRecord
  2

 70
     1
 40
0.2
 41
1.0
 50
0.0
 71
     0
 42
0.2
  3
01.02.00. ŁAZIENKA PUBL1.Shx
  4

  0
STYLE
  5
1D0
330
3
100
AcDbSymbolTableRecord
100
AcDbTextStyleTableRecord
  2
GENERATED_STYLE_2
 70
     0
 40
0.0
 41
1.0
 50
0.0
 71
     0
 42
0.2
  3
arial.ttf
  4

1001
ACAD
1000
Arial
1071
 33615398
  0
ENDTAB
  0
TABLE
  2
VIEW
  5
6
330
0
100
AcDbSymbolTable
 70
     0
  0
ENDTAB
  0
TABLE
  2
UCS
  5
7
330
0
100
AcDbSymbolTable
 70
     0
  0
ENDTAB
  0
TABLE
  2
APPID
  5
9
330
0
100
AcDbSymbolTable
 70
     1
  0
APPID
  5
12
330
9
100
AcDbSymbolTableRecord
100
AcDbRegAppTableRecord
  2
ACAD
 70
     0
  0
ENDTAB
  0
TABLE
  2
DIMSTYLE
  5
A
330
0
100
AcDbSymbolTable
 70
     1
100
AcDbDimStyleTable
  0
DIMSTYLE
105
27
330
A
100
AcDbSymbolTableRecord
100
AcDbDimStyleTableRecord
  2
Standard
 70
     0
340
11
  0
ENDTAB
  0
TABLE
  2
BLOCK_RECORD
  5
1
330
0
100
AcDbSymbolTable
 70
    16
  0
BLOCK_RECORD
  5
1F
330
1
100
AcDbSymbolTableRecord
100
AcDbBlockTableRecord
  2
*Model_Space
340
22
  0
BLOCK_RECORD
  5
1B
330
1
100
AcDbSymbolTableRecord
100
AcDbBlockTableRecord
  2
*Paper_Space
340
1E
  0
BLOCK_RECORD
  5
23
330
1
100
AcDbSymbolTableRecord
100
AcDbBlockTableRecord
  2
*Paper_Space0
340
26
  0
BLOCK_RECORD
  5
89
330
1
100
AcDbSymbolTableRecord
100
AcDbBlockTableRecord
  2
Sygnał termostatu 12
340
0
102
{BLKREFS
331
8F
331
1F8
102
}
  0
BLOCK_RECORD
  5
92
330
1
100
AcDbSymbolTableRecord
100
AcDbBlockTableRecord
  2
Sygnał termostatu 12_2
340
0
102
{BLKREFS
331
97
331
225
102
}
  0
BLOCK_RECORD
  5
9A
330
1
100
AcDbSymbolTableRecord
100
AcDbBlockTableRecord
  2
Sygnał termostatu 12_3
340
0
102
{BLKREFS
331
9F
331
A2
102
}
  0
BLOCK_RECORD
  5
A5
330
1
100
AcDbSymbolTableRecord
100
AcDbBlockTableRecord
  2
Sygnał termostatu 12_4
340
0
102
{BLKREFS
331
AA
331
BD
331
222
102
}
  0
BLOCK_RECORD
  5
AD
330
1
100
AcDbSymbolTableRecord
100
AcDbBlockTableRecord
  2
Sygnał termostatu 12_5
340
0
102
{BLKREFS
331
B2
102
}
  0
BLOCK_RECORD
  5
B5
330
1
100
AcDbSymbolTableRecord
100
AcDbBlockTableRecord
  2
Sygnał termostatu 12_6
340
0
102
{BLKREFS
331
BA
102
}
  0
BLOCK_RECORD
  5
1C6
330
1
100
AcDbSymbolTableRecord
100
AcDbBlockTableRecord
  2
Etykieta_1_2
340
0
102
{BLKREFS
331
1CE
102
}
  0
BLOCK_RECORD
  5
1E8
330
1
100
AcDbSymbolTableRecord
100
AcDbBlockTableRecord
  2
Sygnał termostatu 12_7
340
0
102
{BLKREFS
331
1ED
331
217
102
}
  0
BLOCK_RECORD
  5
1F0
330
1
100
AcDbSymbolTableRecord
100
AcDbBlockTableRecord
  2
Sygnał termostatu 12_8
340
0
102
{BLKREFS
331
1F5
331
20B
331
20E
331
214
102
}
  0
BLOCK_RECORD
  5
1FB
330
1
100
AcDbSymbolTableRecord
100
AcDbBlockTableRecord
  2
Sygnał termostatu 12_9
340
0
102
{BLKREFS
331
200
331
211
102
}
  0
BLOCK_RECORD
  5
203
330
1
100
AcDbSymbolTableRecord
100
AcDbBlockTableRecord
  2
Sygnał termostatu 12_10
340
0
102
{BLKREFS
331
208
102
}
  0
BLOCK_RECORD
  5
21A
330
1
100
AcDbSymbolTableRecord
100
AcDbBlockTableRecord
  2
Sygnał termostatu 12_11
340
0
102
{BLKREFS
331
21F
102
}
  0
BLOCK_RECORD
  5
24B
330
1
100
AcDbSymbolTableRecord
100
AcDbBlockTableRecord
  2
Bez nazwy_STORY_MARKER
340
0
  0
BLOCK_RECORD
  5
24E
330
1
100
AcDbSymbolTableRecord
100
AcDbBlockTableRecord
  2
Rysunek_1
340
0
102
{BLKREFS
331
252
102
}
  0
BLOCK_RECORD
  5
259
330
1
100
AcDbSymbolTableRecord
100
AcDbBlockTableRecord
  2
A.14 01.02.00. \U+FFA3AZIENKA PUBL_STORY_MARKER
340
0
  0
ENDTAB
  0
ENDSEC
  0
SECTION
  2
BLOCKS
  0
BLOCK
  5
20
330
1F
100
AcDbEntity
  8
0
100
AcDbBlockBegin
  2
*Model_Space
 70
     0
 10
0.0
 20
0.0
 30
0.0
  3
*Model_Space
  1

  0
ENDBLK
  5
21
330
1F
100
AcDbEntity
  8
0
100
AcDbBlockEnd
  0
BLOCK
  5
1C
330
1B
100
AcDbEntity
 67
     1
  8
0
100
AcDbBlockBegin
  2
*Paper_Space
 70
     0
 10
0.0
 20
0.0
 30
0.0
  3
*Paper_Space
  1

  0
ENDBLK
  5
1D
330
1B
100
AcDbEntity
 67
     1
  8
0
100
AcDbBlockEnd
  0
BLOCK
  5
24
330
23
100
AcDbEntity
  8
0
100
AcDbBlockBegin
  2
*Paper_Space0
 70
     0
 10
0.0
 20
0.0
 30
0.0
  3
*Paper_Space0
  1

  0
ENDBLK
  5
25
330
23
100
AcDbEntity
  8
0
100
AcDbBlockEnd
  0
BLOCK
  5
8A
330
89
100
AcDbEntity
  8
0
100
AcDbBlockBegin
  2
Sygnał termostatu 12
 70
     2
 10
0.0
 20
0.0
 30
0.0
  3
Sygnał termostatu 12
  1

  0
CIRCLE
  5
8C
330
89
100
AcDbEntity
  8
@__WIDOCZNE
  6
Continuous
370
    13
100
AcDbCircle
 10
0.0
 20
0.0
 30
0.0
 40
30.0
  0
ATTDEF
  5
8E
330
89
100
AcDbEntity
  8
@__WIDOCZNE
370
    13
100
AcDbText
 10
-22.76575793041502
 20
-13.28561954792207
 30
0.0
 40
30.0
  1
01
  7
GENERATED_STYLE_1
 11
-22.76575793041502
 21
-22.15202579792206
 31
0.0
100
AcDbAttributeDefinition
  3
Tekst
  2
txt
 70
     0
 74
     1
  0
ENDBLK
  5
8B
330
89
100
AcDbEntity
  8
0
100
AcDbBlockEnd
  0
BLOCK
  5
93
330
92
100
AcDbEntity
  8
0
100
AcDbBlockBegin
  2
Sygnał termostatu 12_2
 70
     2
 10
0.0
 20
0.0
 30
0.0
  3
Sygnał termostatu 12_2
  1

  0
CIRCLE
  5
95
330
92
100
AcDbEntity
  8
@__WIDOCZNE
  6
Continuous
370
    13
100
AcDbCircle
 10
0.0
 20
0.0
 30
0.0
 40
30.0
  0
ATTDEF
  5
96
330
92
100
AcDbEntity
  8
@__WIDOCZNE
370
    13
100
AcDbText
 10
-22.76583852585645
 20
-13.28559255624295
 30
0.0
 40
30.0
  1
02
  7
GENERATED_STYLE_1
 11
-22.76583852585645
 21
-22.15199880624295
 31
0.0
100
AcDbAttributeDefinition
  3
Tekst
  2
txt
 70
     0
 74
     1
  0
ENDBLK
  5
94
330
92
100
AcDbEntity
  8
0
100
AcDbBlockEnd
  0
BLOCK
  5
9B
330
9A
100
AcDbEntity
  8
0
100
AcDbBlockBegin
  2
Sygnał termostatu 12_3
 70
     2
 10
0.0
 20
0.0
 30
0.0
  3
Sygnał termostatu 12_3
  1

  0
CIRCLE
  5
9D
330
9A
100
AcDbEntity
  8
@__WIDOCZNE
  6
Continuous
370
    13
100
AcDbCircle
 10
0.0
 20
0.0
 30
0.0
 40
30.0
  0
ATTDEF
  5
9E
330
9A
100
AcDbEntity
  8
@__WIDOCZNE
370
    13
100
AcDbText
 10
-22.76583852585645
 20
-13.28559255624295
 30
0.0
 40
30.0
  1
03
  7
GENERATED_STYLE_1
 11
-22.76583852585645
 21
-22.15199880624295
 31
0.0
100
AcDbAttributeDefinition
  3
Tekst
  2
txt
 70
     0
 74
     1
  0
ENDBLK
  5
9C
330
9A
100
AcDbEntity
  8
0
100
AcDbBlockEnd
  0
BLOCK
  5
A6
330
A5
100
AcDbEntity
  8
0
100
AcDbBlockBegin
  2
Sygnał termostatu 12_4
 70
     2
 10
0.0
 20
0.0
 30
0.0
  3
Sygnał termostatu 12_4
  1

  0
CIRCLE
  5
A8
330
A5
100
AcDbEntity
  8
@__WIDOCZNE
  6
Continuous
370
    13
100
AcDbCircle
 10
0.0
 20
0.0
 30
0.0
 40
30.0
  0
ATTDEF
  5
A9
330
A5
100
AcDbEntity
  8
@__WIDOCZNE
370
    13
100
AcDbText
 10
-22.76583852585645
 20
-13.28559255624295
 30
0.0
 40
30.0
  1
04
  7
GENERATED_STYLE_1
 11
-22.76583852585645
 21
-22.15199880624295
 31
0.0
100
AcDbAttributeDefinition
  3
Tekst
  2
txt
 70
     0
 74
     1
  0
ENDBLK
  5
A7
330
A5
100
AcDbEntity
  8
0
100
AcDbBlockEnd
  0
BLOCK
  5
AE
330
AD
100
AcDbEntity
  8
0
100
AcDbBlockBegin
  2
Sygnał termostatu 12_5
 70
     2
 10
0.0
 20
0.0
 30
0.0
  3
Sygnał termostatu 12_5
  1

  0
CIRCLE
  5
B0
330
AD
100
AcDbEntity
  8
@__WIDOCZNE
  6
Continuous
370
    13
100
AcDbCircle
 10
0.0
 20
0.0
 30
0.0
 40
30.0
  0
ATTDEF
  5
B1
330
AD
100
AcDbEntity
  8
@__WIDOCZNE
370
    13
100
AcDbText
 10
-22.76583852585645
 20
-13.28559255624295
 30
0.0
 40
30.0
  1
05
  7
GENERATED_STYLE_1
 11
-22.76583852585645
 21
-22.15199880624295
 31
0.0
100
AcDbAttributeDefinition
  3
Tekst
  2
txt
 70
     0
 74
     1
  0
ENDBLK
  5
AF
330
AD
100
AcDbEntity
  8
0
100
AcDbBlockEnd
  0
BLOCK
  5
B6
330
B5
100
AcDbEntity
  8
0
100
AcDbBlockBegin
  2
Sygnał termostatu 12_6
 70
     2
 10
0.0
 20
0.0
 30
0.0
  3
Sygnał termostatu 12_6
  1

  0
CIRCLE
  5
B8
330
B5
100
AcDbEntity
  8
@__WIDOCZNE
  6
Continuous
370
    13
100
AcDbCircle
 10
0.0
 20
0.0
 30
0.0
 40
30.0
  0
ATTDEF
  5
B9
330
B5
100
AcDbEntity
  8
@__WIDOCZNE
370
    13
100
AcDbText
 10
-22.76583852585645
 20
-13.28559255624295
 30
0.0
 40
30.0
  1
06
  7
GENERATED_STYLE_1
 11
-22.76583852585645
 21
-22.15199880624295
 31
0.0
100
AcDbAttributeDefinition
  3
Tekst
  2
txt
 70
     0
 74
     1
  0
ENDBLK
  5
B7
330
B5
100
AcDbEntity
  8
0
100
AcDbBlockEnd
  0
BLOCK
  5
1C7
330
1C6
100
AcDbEntity
  8
0
100
AcDbBlockBegin
  2
Etykieta_1_2
 70
     0
 10
-929.3376723214906
 20
615.9326209649427
 30
0.0
  3
Etykieta_1_2
  1

  0
MTEXT
  5
1C9
330
1C6
100
AcDbEntity
  8
@__WIDOCZNE
  6
Continuous
370
    13
100
AcDbMText
 10
-855.421875170564
 20
692.4722245503839
 30
0.0
 40
30.00000000000001
 41
0.0
 71
     4
 72
     1
  1
{A}
  7
GENERATED_STYLE_1
 73
     1
 44
1.0
  0
LINE
  5
1CA
330
1C6
100
AcDbEntity
  8
@__WIDOCZNE
  6
Continuous
370
    13
100
AcDbLine
 10
-929.1270798229265
 20
616.3861083402339
 30
0.0
 11
-894.5899721806375
 21
690.75790411479
 31
0.0
  0
CIRCLE
  5
1CB
330
1C6
100
AcDbEntity
  8
@__WIDOCZNE
  6
Continuous
370
    13
100
AcDbCircle
 10
-929.3376723214906
 20
615.9326209649427
 30
0.0
 40
0.5
  0
HATCH
  5
1CC
330
1C6
100
AcDbEntity
  8
@__WIDOCZNE
  6
Continuous
370
    13
100
AcDbHatch
 10
0.0
 20
0.0
 30
0.0
210
0.0
220
0.0
230
1.0
  2
SOLID
 70
     1
 71
     0
 91
        1
 92
        2
 72
     0
 73
     1
 93
       16
 10
-928.8376723214906
 20
615.9326209649427
 10
-928.8757325552349
 20
616.1239626811251
 10
-928.9841189308972
 20
616.2861743555359
 10
-929.1463306053081
 20
616.3945607311982
 10
-929.3376723214906
 20
616.4326209649425
 10
-929.529014037673
 20
616.3945607311982
 10
-929.6912257120838
 20
616.2861743555359
 10
-929.7996120877461
 20
616.1239626811251
 10
-929.8376723214905
 20
615.9326209649427
 10
-929.7996120877461
 20
615.7412792487601
 10
-929.6912257120838
 20
615.5790675743493
 10
-929.529014037673
 20
615.470681198687
 10
-929.3376723214906
 20
615.4326209649427
 10
-929.1463306053081
 20
615.470681198687
 10
-928.9841189308972
 20
615.5790675743493
 10
-928.8757325552349
 20
615.7412792487601
 97
        0
 75
     0
 76
     1
 98
        0
  0
LINE
  5
1CD
330
1C6
100
AcDbEntity
  8
@__WIDOCZNE
  6
Continuous
370
    13
100
AcDbLine
 10
-894.5899721806375
 20
690.75790411479
 30
0.0
 11
-867.421875170564
 21
690.75790411479
 31
0.0
  0
ENDBLK
  5
1C8
330
1C6
100
AcDbEntity
  8
0
100
AcDbBlockEnd
  0
BLOCK
  5
1E9
330
1E8
100
AcDbEntity
  8
0
100
AcDbBlockBegin
  2
Sygnał termostatu 12_7
 70
     2
 10
0.0
 20
0.0
 30
0.0
  3
Sygnał termostatu 12_7
  1

  0
CIRCLE
  5
1EB
330
1E8
100
AcDbEntity
  8
@__WIDOCZNE
  6
Continuous
370
    13
100
AcDbCircle
 10
0.0
 20
0.0
 30
0.0
 40
30.0
  0
ATTDEF
  5
1EC
330
1E8
100
AcDbEntity
  8
@__WIDOCZNE
370
    13
100
AcDbText
 10
-22.76583852585645
 20
-13.28559255624295
 30
0.0
 40
30.0
  1
05
  7
GENERATED_STYLE_1
 11
-22.76583852585645
 21
-22.15199880624295
 31
0.0
100
AcDbAttributeDefinition
  3
Tekst
  2
txt
 70
     0
 74
     1
  0
ENDBLK
  5
1EA
330
1E8
100
AcDbEntity
  8
0
100
AcDbBlockEnd
  0
BLOCK
  5
1F1
330
1F0
100
AcDbEntity
  8
0
100
AcDbBlockBegin
  2
Sygnał termostatu 12_8
 70
     2
 10
0.0
 20
0.0
 30
0.0
  3
Sygnał termostatu 12_8
  1

  0
CIRCLE
  5
1F3
330
1F0
100
AcDbEntity
  8
@__WIDOCZNE
  6
Continuous
370
    13
100
AcDbCircle
 10
0.0
 20
0.0
 30
0.0
 40
30.0
  0
ATTDEF
  5
1F4
330
1F0
100
AcDbEntity
  8
@__WIDOCZNE
370
    13
100
AcDbText
 10
-22.76583852585645
 20
-13.28559255624295
 30
0.0
 40
30.0
  1
04
  7
GENERATED_STYLE_1
 11
-22.76583852585645
 21
-22.15199880624295
 31
0.0
100
AcDbAttributeDefinition
  3
Tekst
  2
txt
 70
     0
 74
     1
  0
ENDBLK
  5
1F2
330
1F0
100
AcDbEntity
  8
0
100
AcDbBlockEnd
  0
BLOCK
  5
1FC
330
1FB
100
AcDbEntity
  8
0
100
AcDbBlockBegin
  2
Sygnał termostatu 12_9
 70
     2
 10
0.0
 20
0.0
 30
0.0
  3
Sygnał termostatu 12_9
  1

  0
CIRCLE
  5
1FE
330
1FB
100
AcDbEntity
  8
@__WIDOCZNE
  6
Continuous
370
    13
100
AcDbCircle
 10
0.0
 20
0.0
 30
0.0
 40
30.0
  0
ATTDEF
  5
1FF
330
1FB
100
AcDbEntity
  8
@__WIDOCZNE
370
    13
100
AcDbText
 10
-22.76583852585645
 20
-13.28559255624295
 30
0.0
 40
30.0
  1
03
  7
GENERATED_STYLE_1
 11
-22.76583852585645
 21
-22.15199880624295
 31
0.0
100
AcDbAttributeDefinition
  3
Tekst
  2
txt
 70
     0
 74
     1
  0
ENDBLK
  5
1FD
330
1FB
100
AcDbEntity
  8
0
100
AcDbBlockEnd
  0
BLOCK
  5
204
330
203
100
AcDbEntity
  8
0
100
AcDbBlockBegin
  2
Sygnał termostatu 12_10
 70
     2
 10
0.0
 20
0.0
 30
0.0
  3
Sygnał termostatu 12_10
  1

  0
CIRCLE
  5
206
330
203
100
AcDbEntity
  8
@__WIDOCZNE
  6
Continuous
370
    13
100
AcDbCircle
 10
0.0
 20
0.0
 30
0.0
 40
30.0
  0
ATTDEF
  5
207
330
203
100
AcDbEntity
  8
@__WIDOCZNE
370
    13
100
AcDbText
 10
-22.76575793041502
 20
-13.28561954792207
 30
0.0
 40
30.0
  1
01
  7
GENERATED_STYLE_1
 11
-22.76575793041502
 21
-22.15202579792206
 31
0.0
100
AcDbAttributeDefinition
  3
Tekst
  2
txt
 70
     0
 74
     1
  0
ENDBLK
  5
205
330
203
100
AcDbEntity
  8
0
100
AcDbBlockEnd
  0
BLOCK
  5
21B
330
21A
100
AcDbEntity
  8
0
100
AcDbBlockBegin
  2
Sygnał termostatu 12_11
 70
     2
 10
0.0
 20
0.0
 30
0.0
  3
Sygnał termostatu 12_11
  1

  0
CIRCLE
  5
21D
330
21A
100
AcDbEntity
  8
@__WIDOCZNE
  6
Continuous
370
    13
100
AcDbCircle
 10
0.0
 20
0.0
 30
0.0
 40
30.0
  0
ATTDEF
  5
21E
330
21A
100
AcDbEntity
  8
@__WIDOCZNE
370
    13
100
AcDbText
 10
-22.76583852585645
 20
-13.28559255624295
 30
0.0
 40
30.0
  1
06
  7
GENERATED_STYLE_1
 11
-22.76583852585645
 21
-22.15199880624295
 31
0.0
100
AcDbAttributeDefinition
  3
Tekst
  2
txt
 70
     0
 74
     1
  0
ENDBLK
  5
21C
330
21A
100
AcDbEntity
  8
0
100
AcDbBlockEnd
  0
BLOCK
  5
24C
330
24B
100
AcDbEntity
  8
0
100
AcDbBlockBegin
  2
Bez nazwy_STORY_MARKER
 70
     0
 10
0.0
 20
0.0
 30
0.0
  3
Bez nazwy_STORY_MARKER
  1

  0
ENDBLK
  5
24D
330
24B
100
AcDbEntity
  8
0
100
AcDbBlockEnd
  0
BLOCK
  5
24F
330
24E
100
AcDbEntity
  8
0
100
AcDbBlockBegin
  2
Rysunek_1
 70
     0
 10
0.0
 20
0.0
 30
0.0
  3
Rysunek_1
  1

  0
MTEXT
  5
251
330
24E
100
AcDbEntity
  8
@__WIDOCZNE
  6
Continuous
370
    13
100
AcDbMText
 10
-3.16996533450682
 20
5.064292155233355
 30
0.0
 40
1.999999999999999
 41
0.0
 71
     7
 72
     1
  1
{druk:220718 }
  7
GENERATED_STYLE_1
 11
6.123233995736766E-17
 21
1.0
 31
0.0
 73
     1
 44
1.0
  0
ENDBLK
  5
250
330
24E
100
AcDbEntity
  8
0
100
AcDbBlockEnd
  0
BLOCK
  5
25A
330
259
100
AcDbEntity
  8
0
100
AcDbBlockBegin
  2
A.14 01.02.00. \U+FFA3AZIENKA PUBL_STORY_MARKER
 70
     0
 10
0.0
 20
0.0
 30
0.0
  3
A.14 01.02.00. \U+FFA3AZIENKA PUBL_STORY_MARKER
  1

  0
ENDBLK
  5
25B
330
259
100
AcDbEntity
  8
0
100
AcDbBlockEnd
  0
ENDSEC
  0
SECTION
  2
ENTITIES
  0
HATCH
  5
5E
330
1F
100
AcDbEntity
  8
@__WIDOCZNE
  6
Continuous
 62
   142
370
    13
100
AcDbHatch
 10
0.0
 20
0.0
 30
0.0
210
0.0
220
0.0
230
1.0
  2
SOLID
 70
     1
 71
     1
 91
        1
 92
        2
 72
     1
 73
     1
 93
        6
 10
-1440.001988959915
 20
176.8504469129686
 42
0.0
 10
-1440.001988959915
 20
201.4286692887095
 42
0.0
 10
-1464.580211335656
 20
201.4286692887095
 42
0.414213562373095
 10
-1494.074078186545
 20
171.9348024378211
 42
0.0
 10
-1494.074078186545
 20
147.3565800620802
 42
0.0
 10
-1469.495855810804
 20
147.3565800620802
 42
0.414213562373095
 97
        1
330
60
 75
     0
 76
     1
 98
        0
  0
LWPOLYLINE
  5
60
102
{ACAD_REACTORS
330
5E
102
}
330
1F
100
AcDbEntity
  8
@__WIDOCZNE
  6
Continuous
 62
   142
370
    13
100
AcDbPolyline
 90
        6
 70
   129
 43
0.0
 10
-1440.001988959915
 20
176.8504469129686
 10
-1440.001988959915
 20
201.4286692887095
 10
-1464.580211335656
 20
201.4286692887095
 42
0.414213562373095
 10
-1494.074078186545
 20
171.9348024378211
 10
-1494.074078186545
 20
147.3565800620802
 10
-1469.495855810804
 20
147.3565800620802
 42
0.414213562373095
  0
HATCH
  5
61
330
1F
100
AcDbEntity
  8
@__WIDOCZNE
  6
Continuous
370
    13
100
AcDbHatch
 10
0.0
 20
0.0
 30
0.0
210
0.0
220
0.0
230
1.0
  2
SOLID
 70
     1
 71
     1
 91
        3
 92
        2
 72
     1
 73
     1
 93
        8
 10
-1894.608978596418
 20
148.1716021823816
 42
0.0723831287448308
 10
-1930.280884078957
 20
147.8674536450233
 42
0.0
 10
-1930.280884078957
 20
79.23677016488439
 42
0.0475754375093521
 10
-1910.990466674141
 20
77.13299178150001
 42
0.0
 10
-1908.221006603722
 20
77.13299178150001
 42
0.0201526900432898
 10
-1899.99792015914
 20
77.57623055987727
 42
0.1117820670402823
 10
-1882.464957955005
 20
83.11478249307469
 42
0.5989391739264164
 10
-1888.283831342266
 20
115.990853539653
 42
0.7144612958116017
 97
        1
330
62
 92
        2
 72
     1
 73
     1
 93
        4
 10
-1917.446624371063
 20
120.0601221925071
 42
0.018587651104709
 10
-1899.850094396254
 20
120.0770652554863
 42
0.8637728306683231
 10
-1900.363184084205
 20
138.3576140733564
 42
0.0363046036528515
 10
-1917.446624371063
 20
138.3576140733564
 42
0.0
 97
        1
330
63
 92
        2
 72
     1
 73
     1
 93
        4
 10
-1917.248213653417
 20
88.30746993140947
 42
0.0570602598095221
 10
-1899.107299369986
 20
88.48254306997893
 42
0.9504624262000833
 10
-1899.297593656556
 20
109.8135267392324
 42
0.0333151677067815
 10
-1917.248213653417
 20
109.8135267392324
 42
0.0
 97
        1
330
64
 75
     0
 76
     1
 98
        0
  0
LWPOLYLINE
  5
62
102
{ACAD_REACTORS
330
61
102
}
330
1F
100
AcDbEntity
  8
@__WIDOCZNE
  6
Continuous
370
    13
100
AcDbPolyline
 90
        8
 70
   129
 43
0.0
 10
-1894.608978596418
 20
148.1716021823816
 42
0.0723831287448308
 10
-1930.280884078957
 20
147.8674536450233
 10
-1930.280884078957
 20
79.23677016488439
 42
0.0475754375093521
 10
-1910.990466674141
 20
77.13299178150001
 10
-1908.221006603722
 20
77.13299178150001
 42
0.0201526900432898
 10
-1899.99792015914
 20
77.57623055987727
 42
0.1117820670402823
 10
-1882.464957955005
 20
83.11478249307469
 42
0.5989391739264164
 10
-1888.283831342266
 20
115.990853539653
 42
0.7144612958116017
  0
LWPOLYLINE
  5
63
102
{ACAD_REACTORS
330
61
102
}
330
1F
100
AcDbEntity
  8
@__WIDOCZNE
  6
Continuous
370
    13
100
AcDbPolyline
 90
        4
 70
   129
 43
0.0
 10
-1917.446624371063
 20
120.0601221925071
 42
0.018587651104709
 10
-1899.850094396254
 20
120.0770652554863
 42
0.8637728306683231
 10
-1900.363184084205
 20
138.3576140733564
 42
0.0363046036528515
 10
-1917.446624371063
 20
138.3576140733564
  0
LWPOLYLINE
  5
64
102
{ACAD_REACTORS
330
61
102
}
330
1F
100
AcDbEntity
  8
@__WIDOCZNE
  6
Continuous
370
    13
100
AcDbPolyline
 90
        4
 70
   129
 43
0.0
 10
-1917.248213653417
 20
88.30746993140947
 42
0.0570602598095221
 10
-1899.107299369986
 20
88.48254306997893
 42
0.9504624262000833
 10
-1899.297593656556
 20
109.8135267392324
 42
0.0333151677067815
 10
-1917.248213653417
 20
109.8135267392324
  0
HATCH
  5
65
330
1F
100
AcDbEntity
  8
@__WIDOCZNE
  6
Continuous
370
    13
100
AcDbHatch
 10
0.0
 20
0.0
 30
0.0
210
0.0
220
0.0
230
1.0
  2
SOLID
 70
     1
 71
     1
 91
        1
 92
        2
 72
     1
 73
     1
 93
       12
 10
-1779.402714440489
 20
132.4614255428729
 42
0.0
 10
-1795.324133915959
 20
132.4614255428729
 42
0.0
 10
-1795.324133915959
 20
147.9472341783425
 42
0.0
 10
-1807.603398609457
 20
145.449756613562
 42
0.0
 10
-1807.603398609457
 20
94.39724550142591
 42
0.3686923280690939
 10
-1790.339247767994
 20
77.1925923623209
 42
0.0
 10
-1777.892755622336
 20
77.23556106479967
 42
0.0
 10
-1775.240251832524
 20
88.84026514522935
 42
0.0
 10
-1787.950667203237
 20
88.84026514522935
 42
-0.3159610186060354
 10
-1795.324133915959
 20
96.21373185795234
 42
0.0
 10
-1795.324133915959
 20
120.9952887917642
 42
0.0
 10
-1779.402714440489
 20
120.9952887917642
 42
0.0
 97
        1
330
66
 75
     0
 76
     1
 98
        0
  0
LWPOLYLINE
  5
66
102
{ACAD_REACTORS
330
65
102
}
330
1F
100
AcDbEntity
  8
@__WIDOCZNE
  6
Continuous
370
    13
100
AcDbPolyline
 90
       12
 70
   129
 43
0.0
 10
-1779.402714440489
 20
132.4614255428729
 10
-1795.324133915959
 20
132.4614255428729
 10
-1795.324133915959
 20
147.9472341783425
 10
-1807.603398609457
 20
145.449756613562
 10
-1807.603398609457
 20
94.39724550142591
 42
0.3686923280690939
 10
-1790.339247767994
 20
77.1925923623209
 10
-1777.892755622336
 20
77.23556106479967
 10
-1775.240251832524
 20
88.84026514522935
 10
-1787.950667203237
 20
88.84026514522935
 42
-0.3159610186060354
 10
-1795.324133915959
 20
96.21373185795234
 10
-1795.324133915959
 20
120.9952887917642
 10
-1779.402714440489
 20
120.9952887917642
  0
HATCH
  5
67
330
1F
100
AcDbEntity
  8
@__WIDOCZNE
  6
Continuous
370
    13
100
AcDbHatch
 10
0.0
 20
0.0
 30
0.0
210
0.0
220
0.0
230
1.0
  2
SOLID
 70
     1
 71
     1
 91
        2
 92
        2
 72
     1
 73
     1
 93
       14
 10
-1745.378945529237
 20
120.6608609191748
 42
-0.387209016979461
 10
-1737.643449429657
 20
112.5444368899993
 42
0.0
 10
-1737.574328139302
 20
109.4742426602673
 42
0.1185067504646354
 10
-1755.348438172751
 20
109.6343642799107
 42
0.2642193030162518
 10
-1768.065550204987
 20
99.5399244069135
 42
0.1757337626801403
 10
-1768.080926769487
 20
88.36255346101018
 42
0.2604621029539542
 10
-1755.804478884416
 20
77.44278968910278
 42
0.0083652857947627
 10
-1752.260288367527
 20
77.13299178150001
 42
0.0
 10
-1737.288899371438
 20
77.13299178150001
 42
0.028992295246684
 10
-1725.069614284467
 20
78.71095824818197
 42
0.0
 10
-1725.696508768956
 20
113.3765513552356
 42
0.4278697545607686
 10
-1743.114318429231
 20
131.7759065504072
 42
0.0
 10
-1760.567750622603
 20
131.8491757142384
 42
0.0
 10
-1763.329565526089
 20
120.6608609191748
 42
0.0
 97
        1
330
68
 92
        2
 72
     1
 73
     1
 93
        6
 10
-1737.464524662475
 20
100.969459707972
 42
0.1273826308893613
 10
-1751.046762368616
 20
101.3190620453253
 42
0.2091253650713026
 10
-1756.414701844609
 20
96.22346481606824
 42
0.067218802794298
 10
-1756.351643396617
 20
92.31592620878159
 42
0.2977682718343915
 10
-1750.831290205579
 20
86.64088600744235
 42
0.0710664823309622
 10
-1737.464524662475
 20
86.66701657441122
 42
0.0
 97
        1
330
69
 75
     0
 76
     1
 98
        0
  0
LWPOLYLINE
  5
68
102
{ACAD_REACTORS
330
67
102
}
330
1F
100
AcDbEntity
  8
@__WIDOCZNE
  6
Continuous
370
    13
100
AcDbPolyline
 90
       14
 70
   129
 43
0.0
 10
-1745.378945529237
 20
120.6608609191748
 42
-0.387209016979461
 10
-1737.643449429657
 20
112.5444368899993
 10
-1737.574328139302
 20
109.4742426602673
 42
0.1185067504646354
 10
-1755.348438172751
 20
109.6343642799107
 42
0.2642193030162518
 10
-1768.065550204987
 20
99.5399244069135
 42
0.1757337626801403
 10
-1768.080926769487
 20
88.36255346101018
 42
0.2604621029539542
 10
-1755.804478884416
 20
77.44278968910278
 42
0.0083652857947627
 10
-1752.260288367527
 20
77.13299178150001
 10
-1737.288899371438
 20
77.13299178150001
 42
0.028992295246684
 10
-1725.069614284467
 20
78.71095824818197
 10
-1725.696508768956
 20
113.3765513552356
 42
0.4278697545607686
 10
-1743.114318429231
 20
131.7759065504072
 10
-1760.567750622603
 20
131.8491757142384
 10
-1763.329565526089
 20
120.6608609191748
  0
LWPOLYLINE
  5
69
102
{ACAD_REACTORS
330
67
102
}
330
1F
100
AcDbEntity
  8
@__WIDOCZNE
  6
Continuous
370
    13
100
AcDbPolyline
 90
        6
 70
   129
 43
0.0
 10
-1737.464524662475
 20
100.969459707972
 42
0.1273826308893613
 10
-1751.046762368616
 20
101.3190620453253
 42
0.2091253650713026
 10
-1756.414701844609
 20
96.22346481606824
 42
0.067218802794298
 10
-1756.351643396617
 20
92.31592620878159
 42
0.2977682718343915
 10
-1750.831290205579
 20
86.64088600744235
 42
0.0710664823309622
 10
-1737.464524662475
 20
86.66701657441122
  0
HATCH
  5
6A
330
1F
100
AcDbEntity
  8
@__WIDOCZNE
  6
Continuous
370
    13
100
AcDbHatch
 10
0.0
 20
0.0
 30
0.0
210
0.0
220
0.0
230
1.0
  2
SOLID
 70
     1
 71
     1
 91
        1
 92
        2
 72
     1
 73
     1
 93
       26
 10
-1704.198388356195
 20
132.027661500153
 42
0.0863077155126181
 10
-1715.782746252502
 20
129.1891773723177
 42
0.0
 10
-1715.782746252502
 20
77.13299178150001
 42
0.0
 10
-1702.78504445301
 20
77.13299178150001
 42
0.0
 10
-1702.78504445301
 20
120.7194570941572
 42
-0.12168371550613
 10
-1693.122265044221
 20
121.6718877925869
 42
-0.3861329478031837
 10
-1685.237625678684
 20
112.4892130724679
 42
0.0
 10
-1685.237625678684
 20
77.13299178150001
 42
0.0
 10
-1672.750237854787
 20
77.13299178150001
 42
0.0
 10
-1672.932143332499
 20
111.335125673788
 42
0.0
 10
-1672.750237854788
 20
111.3388769910431
 42
0.0799288732000265
 10
-1674.003794302232
 20
118.4435360548244
 42
0.0
 10
-1672.739100694379
 20
119.2256500031499
 42
-0.1916235362829357
 10
-1661.562754209956
 20
121.401036839943
 42
-0.3589776600930252
 10
-1654.78340979552
 20
113.2931338457224
 42
0.0
 10
-1654.777166722256
 20
77.13299178150001
 42
0.0
 10
-1642.868830936786
 20
77.13299178150001
 42
0.0
 10
-1642.874123468251
 20
115.8010197971977
 42
0.3475935087177212
 10
-1657.366660587629
 20
132.4614255428729
 42
0.0
 10
-1667.170892658721
 20
132.4614255428729
 42
0.0002381544695914
 10
-1667.238346976976
 20
132.4566784111008
 42
0.1173548723086789
 10
-1673.239100483088
 20
130.7219842169596
 42
0.1053500657717058
 10
-1679.449964778136
 20
126.8192592530661
 42
0.1560368886834541
 10
-1688.651553086187
 20
132.1394817433086
 42
0.0158994515272265
 10
-1693.078612422362
 20
132.4614255428729
 42
0.0
 10
-1698.77336181702
 20
132.4614255428729
 42
0.0194967579096993
 97
        1
330
6B
 75
     0
 76
     1
 98
        0
  0
LWPOLYLINE
  5
6B
102
{ACAD_REACTORS
330
6A
102
}
330
1F
100
AcDbEntity
  8
@__WIDOCZNE
  6
Continuous
370
    13
100
AcDbPolyline
 90
       26
 70
   129
 43
0.0
 10
-1704.198388356195
 20
132.027661500153
 42
0.0863077155126181
 10
-1715.782746252502
 20
129.1891773723177
 10
-1715.782746252502
 20
77.13299178150001
 10
-1702.78504445301
 20
77.13299178150001
 10
-1702.78504445301
 20
120.7194570941572
 42
-0.12168371550613
 10
-1693.122265044221
 20
121.6718877925869
 42
-0.3861329478031837
 10
-1685.237625678684
 20
112.4892130724679
 10
-1685.237625678684
 20
77.13299178150001
 10
-1672.750237854787
 20
77.13299178150001
 10
-1672.932143332499
 20
111.335125673788
 10
-1672.750237854788
 20
111.3388769910431
 42
0.0799288732000265
 10
-1674.003794302232
 20
118.4435360548244
 10
-1672.739100694379
 20
119.2256500031499
 42
-0.1916235362829357
 10
-1661.562754209956
 20
121.401036839943
 42
-0.3589776600930252
 10
-1654.78340979552
 20
113.2931338457224
 10
-1654.777166722256
 20
77.13299178150001
 10
-1642.868830936786
 20
77.13299178150001
 10
-1642.874123468251
 20
115.8010197971977
 42
0.3475935087177212
 10
-1657.366660587629
 20
132.4614255428729
 10
-1667.170892658721
 20
132.4614255428729
 42
0.0002381544695914
 10
-1667.238346976976
 20
132.4566784111008
 42
0.1173548723086789
 10
-1673.239100483088
 20
130.7219842169596
 42
0.1053500657717058
 10
-1679.449964778136
 20
126.8192592530661
 42
0.1560368886834541
 10
-1688.651553086187
 20
132.1394817433086
 42
0.0158994515272265
 10
-1693.078612422362
 20
132.4614255428729
 10
-1698.77336181702
 20
132.4614255428729
 42
0.0194967579096993
  0
HATCH
  5
6C
330
1F
100
AcDbEntity
  8
@__WIDOCZNE
  6
Continuous
370
    13
100
AcDbHatch
 10
0.0
 20
0.0
 30
0.0
210
0.0
220
0.0
230
1.0
  2
SOLID
 70
     1
 71
     1
 91
        2
 92
        2
 72
     1
 73
     1
 93
       14
 10
-1614.164290040023
 20
131.2162750498798
 42
0.2809658966461606
 10
-1632.559778033305
 20
112.185837208697
 42
0.1091159824470767
 10
-1632.545983001144
 20
95.21703033515804
 42
0.2766399819923606
 10
-1614.066078512206
 20
77.87418971138548
 42
0.0392105095801167
 10
-1608.998548032178
 20
77.15518527711728
 42
0.0
 10
-1591.383049920814
 20
77.13299178150001
 42
0.0
 10
-1589.184423721429
 20
88.00747491085458
 42
0.0
 10
-1607.586468273167
 20
88.00747491085458
 42
-0.1667294674755062
 10
-1615.564314677699
 20
90.74382612453013
 42
-0.081638462027361
 10
-1619.662035927926
 20
96.01357122042997
 42
-0.0661503038161424
 10
-1620.215334957533
 20
99.55237964894769
 42
0.0
 10
-1585.042525920222
 20
99.55237964894769
 42
0.0
 10
-1585.042525920222
 20
110.791028690455
 42
0.3105787245802772
 10
-1601.826375949016
 20
131.2437507951285
 42
0.1083142208160692
 97
        1
330
6D
 92
        2
 72
     1
 73
     1
 93
        5
 10
-1605.160813196457
 20
121.8499139829843
 42
0.1431069476368757
 10
-1611.105556534525
 20
122.060869347729
 42
0.3279495498710064
 10
-1620.210690757235
 20
109.6510536519089
 42
0.0
 10
-1596.837795763235
 20
109.6510536519089
 42
0.0
 10
-1596.837795763235
 20
110.606627941223
 42
0.3298596086471468
 97
        1
330
6E
 75
     0
 76
     1
 98
        0
  0
LWPOLYLINE
  5
6D
102
{ACAD_REACTORS
330
6C
102
}
330
1F
100
AcDbEntity
  8
@__WIDOCZNE
  6
Continuous
370
    13
100
AcDbPolyline
 90
       14
 70
   129
 43
0.0
 10
-1614.164290040023
 20
131.2162750498798
 42
0.2809658966461606
 10
-1632.559778033305
 20
112.185837208697
 42
0.1091159824470767
 10
-1632.545983001144
 20
95.21703033515804
 42
0.2766399819923606
 10
-1614.066078512206
 20
77.87418971138548
 42
0.0392105095801167
 10
-1608.998548032178
 20
77.15518527711728
 10
-1591.383049920814
 20
77.13299178150001
 10
-1589.184423721429
 20
88.00747491085458
 10
-1607.586468273167
 20
88.00747491085458
 42
-0.1667294674755062
 10
-1615.564314677699
 20
90.74382612453013
 42
-0.081638462027361
 10
-1619.662035927926
 20
96.01357122042997
 42
-0.0661503038161424
 10
-1620.215334957533
 20
99.55237964894769
 10
-1585.042525920222
 20
99.55237964894769
 10
-1585.042525920222
 20
110.791028690455
 42
0.3105787245802772
 10
-1601.826375949016
 20
131.2437507951285
 42
0.1083142208160692
  0
LWPOLYLINE
  5
6E
102
{ACAD_REACTORS
330
6C
102
}
330
1F
100
AcDbEntity
  8
@__WIDOCZNE
  6
Continuous
370
    13
100
AcDbPolyline
 90
        5
 70
   129
 43
0.0
 10
-1605.160813196457
 20
121.8499139829843
 42
0.1431069476368757
 10
-1611.105556534525
 20
122.060869347729
 42
0.3279495498710064
 10
-1620.210690757235
 20
109.6510536519089
 10
-1596.837795763235
 20
109.6510536519089
 10
-1596.837795763235
 20
110.606627941223
 42
0.3298596086471468
  0
HATCH
  5
6F
330
1F
100
AcDbEntity
  8
@__WIDOCZNE
  6
Continuous
370
    13
100
AcDbHatch
 10
0.0
 20
0.0
 30
0.0
210
0.0
220
0.0
230
1.0
  2
SOLID
 70
     1
 71
     1
 91
        1
 92
        2
 72
     1
 73
     1
 93
       13
 10
-1547.553218627897
 20
132.1047084902991
 42
0.0175531184166386
 10
-1553.169542088315
 20
132.4614255428729
 42
0.0
 10
-1557.711161373943
 20
132.4614255428729
 42
0.0177750747803509
 10
-1563.398296898193
 20
132.0976768519697
 42
0.0683229953867364
 10
-1576.039182683599
 20
129.6040901203133
 42
0.0
 10
-1576.039182683599
 20
77.13299178150001
 42
0.0
 10
-1563.542212098793
 20
77.13299178150001
 42
0.0
 10
-1563.542212098793
 20
120.7639309864381
 42
-0.0958663550348273
 10
-1551.360549851644
 20
121.31944179705
 42
-0.3633763851128492
 10
-1544.00503724245
 20
112.5347857864047
 42
0.0
 10
-1544.00503724245
 20
77.13299178150001
 42
0.0
 10
-1531.834896717402
 20
77.13299178150001
 42
0.0
 10
-1531.834896717402
 20
114.4279683846177
 42
0.3803017440747632
 97
        1
330
70
 75
     0
 76
     1
 98
        0
  0
LWPOLYLINE
  5
70
102
{ACAD_REACTORS
330
6F
102
}
330
1F
100
AcDbEntity
  8
@__WIDOCZNE
  6
Continuous
370
    13
100
AcDbPolyline
 90
       13
 70
   129
 43
0.0
 10
-1547.553218627897
 20
132.1047084902991
 42
0.0175531184166386
 10
-1553.169542088315
 20
132.4614255428729
 10
-1557.711161373943
 20
132.4614255428729
 42
0.0177750747803509
 10
-1563.398296898193
 20
132.0976768519697
 42
0.0683229953867364
 10
-1576.039182683599
 20
129.6040901203133
 10
-1576.039182683599
 20
77.13299178150001
 10
-1563.542212098793
 20
77.13299178150001
 10
-1563.542212098793
 20
120.7639309864381
 42
-0.0958663550348273
 10
-1551.360549851644
 20
121.31944179705
 42
-0.3633763851128492
 10
-1544.00503724245
 20
112.5347857864047
 10
-1544.00503724245
 20
77.13299178150001
 10
-1531.834896717402
 20
77.13299178150001
 10
-1531.834896717402
 20
114.4279683846177
 42
0.3803017440747632
  0
HATCH
  5
71
330
1F
100
AcDbEntity
  8
@__WIDOCZNE
  6
Continuous
370
    13
100
AcDbHatch
 10
0.0
 20
0.0
 30
0.0
210
0.0
220
0.0
230
1.0
  2
SOLID
 70
     1
 71
     1
 91
        1
 92
        2
 72
     1
 73
     1
 93
       12
 10
-1522.352887578064
 20
94.39724550142591
 42
0.3564817226562251
 10
-1505.088736736602
 20
77.1925923623209
 42
0.0
 10
-1492.642244590944
 20
77.23556106479967
 42
0.0
 10
-1489.989740801132
 20
88.84026514522935
 42
0.0
 10
-1502.700156171843
 20
88.84026514522935
 42
-0.3014632934563285
 10
-1510.073622884566
 20
96.21373185795234
 42
0.0
 10
-1510.073622884566
 20
120.9952887917642
 42
0.0
 10
-1494.152203409097
 20
120.9952887917642
 42
0.0
 10
-1494.152203409097
 20
132.4614255428729
 42
0.0
 10
-1510.073622884566
 20
132.4614255428729
 42
0.0
 10
-1510.073622884566
 20
147.9472341783425
 42
0.0
 10
-1522.352887578064
 20
145.449756613562
 42
0.0
 97
        1
330
72
 75
     0
 76
     1
 98
        0
  0
LWPOLYLINE
  5
72
102
{ACAD_REACTORS
330
71
102
}
330
1F
100
AcDbEntity
  8
@__WIDOCZNE
  6
Continuous
370
    13
100
AcDbPolyline
 90
       12
 70
   129
 43
0.0
 10
-1522.352887578064
 20
94.39724550142591
 42
0.3564817226562251
 10
-1505.088736736602
 20
77.1925923623209
 10
-1492.642244590944
 20
77.23556106479967
 10
-1489.989740801132
 20
88.84026514522935
 10
-1502.700156171843
 20
88.84026514522935
 42
-0.3014632934563285
 10
-1510.073622884566
 20
96.21373185795234
 10
-1510.073622884566
 20
120.9952887917642
 10
-1494.152203409097
 20
120.9952887917642
 10
-1494.152203409097
 20
132.4614255428729
 10
-1510.073622884566
 20
132.4614255428729
 10
-1510.073622884566
 20
147.9472341783425
 10
-1522.352887578064
 20
145.449756613562
  0
HATCH
  5
73
330
1F
100
AcDbEntity
  8
@__WIDOCZNE
  6
Continuous
370
    13
100
AcDbHatch
 10
0.0
 20
0.0
 30
0.0
210
0.0
220
0.0
230
1.0
  2
SOLID
 70
     1
 71
     1
 91
        2
 92
        2
 72
     1
 73
     1
 93
        9
 10
-1848.353175529131
 20
131.986577704257
 42
0.2820479307333718
 10
-1867.197331750688
 20
112.934168024301
 42
0.0886832537999132
 10
-1867.163046105806
 20
95.63402678992338
 42
0.2508564250541997
 10
-1849.731031447699
 20
77.13299178150001
 42
0.0
 10
-1834.716311145267
 20
77.13299178150001
 42
0.2670900430231695
 10
-1817.07116219828
 20
97.31499222255712
 42
0.1207336614180937
 10
-1817.027114476575
 20
112.0036505578008
 42
0.3094451166888095
 10
-1835.7117200332
 20
131.9520427760954
 42
0.0268897328129527
 10
-1839.05683206555
 20
132.4614255428729
 42
0.074328415179198
 97
        1
330
74
 92
        2
 72
     1
 73
     1
 93
        8
 10
-1854.789955882416
 20
110.3227931830515
 42
0.0948073731652809
 10
-1854.886012577467
 20
99.10403397769385
 42
0.0590800675341869
 10
-1853.794519113519
 20
95.37256301273244
 42
0.6394418664691048
 10
-1830.873453923094
 20
94.6762888287791
 42
0.0835238969854629
 10
-1829.438696118692
 20
99.36979420911362
 42
0.0916297819744675
 10
-1829.6662344727
 20
110.8893034427731
 42
0.2559732989582162
 10
-1838.078277064552
 20
121.3187197214098
 42
0.1954327814670101
 10
-1846.631108014911
 20
120.9701862959009
 42
0.2505066079508973
 97
        1
330
75
 75
     0
 76
     1
 98
        0
  0
LWPOLYLINE
  5
74
102
{ACAD_REACTORS
330
73
102
}
330
1F
100
AcDbEntity
  8
@__WIDOCZNE
  6
Continuous
370
    13
100
AcDbPolyline
 90
        9
 70
   129
 43
0.0
 10
-1848.353175529131
 20
131.986577704257
 42
0.2820479307333718
 10
-1867.197331750688
 20
112.934168024301
 42
0.0886832537999132
 10
-1867.163046105806
 20
95.63402678992338
 42
0.2508564250541997
 10
-1849.731031447699
 20
77.13299178150001
 10
-1834.716311145267
 20
77.13299178150001
 42
0.2670900430231695
 10
-1817.07116219828
 20
97.31499222255712
 42
0.1207336614180937
 10
-1817.027114476575
 20
112.0036505578008
 42
0.3094451166888095
 10
-1835.7117200332
 20
131.9520427760954
 42
0.0268897328129527
 10
-1839.05683206555
 20
132.4614255428729
 42
0.074328415179198
  0
LWPOLYLINE
  5
75
102
{ACAD_REACTORS
330
73
102
}
330
1F
100
AcDbEntity
  8
@__WIDOCZNE
  6
Continuous
370
    13
100
AcDbPolyline
 90
        8
 70
   129
 43
0.0
 10
-1854.789955882416
 20
110.3227931830515
 42
0.0948073731652809
 10
-1854.886012577467
 20
99.10403397769385
 42
0.0590800675341869
 10
-1853.794519113519
 20
95.37256301273244
 42
0.6394418664691048
 10
-1830.873453923094
 20
94.6762888287791
 42
0.0835238969854629
 10
-1829.438696118692
 20
99.36979420911362
 42
0.0916297819744675
 10
-1829.6662344727
 20
110.8893034427731
 42
0.2559732989582162
 10
-1838.078277064552
 20
121.3187197214098
 42
0.1954327814670101
 10
-1846.631108014911
 20
120.9701862959009
 42
0.2505066079508973
  0
HATCH
  5
76
330
1F
100
AcDbEntity
  8
@__WIDOCZNE
  6
Continuous
370
    13
100
AcDbHatch
 10
0.0
 20
0.0
 30
0.0
210
0.0
220
0.0
230
1.0
  2
__Bloczki_ceramiczne_0002
 70
     0
 71
     1
 91
        1
 92
        2
 72
     1
 73
     1
 93
       35
 10
-1931.61827826589
 20
1577.650634453682
 42
0.0
 10
-1931.61827826589
 20
370.0000000000009
 42
0.0
 10
-838.263297714388
 20
370.0000000000009
 42
0.0
 10
-170.0000000003172
 20
370.0000000000009
 42
0.0
 10
-170.0000000003172
 20
929.1893512319041
 42
0.0
 10
-267.9500377001906
 20
929.1893512319041
 42
0.0
 10
-267.9500377001906
 20
533.2458715539107
 42
0.0
 10
-838.263300741356
 20
533.2458636743656
 42
0.0
 10
-969.5321009912777
 20
533.2458636743656
 42
0.0
 10
-969.5321009912777
 20
518.2458636743656
 42
0.0
 10
-984.9821877869591
 20
518.2458636743656
 42
0.0
 10
-984.9821877869591
 20
444.755611878453
 42
-0.1307724395990664
 10
-939.7902442831996
 20
453.7156048704569
 42
0.0
 10
-838.263300741356
 20
452.8241503052406
 42
0.0
 10
-838.263297714388
 20
402.8222312669688
 42
0.0
 10
-941.8987575409636
 20
403.7321938592976
 42
0.0
 10
-955.5413188779601
 20
402.6192648523175
 42
0.0
 10
-967.7613565501393
 20
397.0817362564155
 42
0.0
 10
-975.8234702420931
 20
389.9999881474907
 42
0.0
 10
-1134.982188309039
 20
389.9999881474907
 42
0.0
 10
-1134.982188309039
 20
453.1428082452824
 42
0.0
 10
-1161.424706360181
 20
453.1428082452824
 42
0.0
 10
-1161.424706360181
 20
449.1699218047461
 42
0.0
 10
-1169.811876067736
 20
449.1699218047461
 42
0.0
 10
-1169.811876067736
 20
507.1156781796345
 42
0.0
 10
-1161.424706360181
 20
507.1156781796345
 42
0.0
 10
-1161.424706360181
 20
503.1427917390982
 42
0.0
 10
-1134.760951767047
 20
503.478662830079
 42
0.0
 10
-1134.982188309039
 20
518.2458607556562
 42
0.0
 10
-1150.432284744336
 20
518.2458607556562
 42
0.0
 10
-1150.432284744336
 20
533.2458715539107
 42
0.0
 10
-1838.432281270802
 20
533.2458715539107
 42
0.0
 10
-1838.432281270802
 20
1577.650634453682
 42
0.0
 10
-1838.432274582647
 20
2768.671959614673
 42
0.0
 10
-1931.61827826589
 20
2768.671959614673
 42
0.0
 97
        1
330
77
 75
     0
 76
     2
 52
0.0
 41
1.0
 77
     0
 78
     1
 53
45.0
 43
0.0
 44
0.0
 45
-12.72792172418307
 46
12.72792172418307
 79
     0
 98
        0
  0
LWPOLYLINE
  5
77
102
{ACAD_REACTORS
330
76
102
}
330
1F
100
AcDbEntity
  8
@__WIDOCZNE
  6
Continuous
370
    13
100
AcDbPolyline
 90
       35
 70
   129
 43
0.0
 10
-1931.61827826589
 20
1577.650634453682
 10
-1931.61827826589
 20
370.0000000000009
 10
-838.263297714388
 20
370.0000000000009
 10
-170.0000000003172
 20
370.0000000000009
 10
-170.0000000003172
 20
929.1893512319041
 10
-267.9500377001906
 20
929.1893512319041
 10
-267.9500377001906
 20
533.2458715539107
 10
-838.263300741356
 20
533.2458636743656
 10
-969.5321009912777
 20
533.2458636743656
 10
-969.5321009912777
 20
518.2458636743656
 10
-984.9821877869591
 20
518.2458636743656
 10
-984.9821877869591
 20
444.755611878453
 42
-0.1307724395990664
 10
-939.7902442831996
 20
453.7156048704569
 10
-838.263300741356
 20
452.8241503052406
 10
-838.263297714388
 20
402.8222312669688
 10
-941.8987575409636
 20
403.7321938592976
 10
-955.5413188779601
 20
402.6192648523175
 10
-967.7613565501393
 20
397.0817362564155
 10
-975.8234702420931
 20
389.9999881474907
 10
-1134.982188309039
 20
389.9999881474907
 10
-1134.982188309039
 20
453.1428082452824
 10
-1161.424706360181
 20
453.1428082452824
 10
-1161.424706360181
 20
449.1699218047461
 10
-1169.811876067736
 20
449.1699218047461
 10
-1169.811876067736
 20
507.1156781796345
 10
-1161.424706360181
 20
507.1156781796345
 10
-1161.424706360181
 20
503.1427917390982
 10
-1134.760951767047
 20
503.478662830079
 10
-1134.982188309039
 20
518.2458607556562
 10
-1150.432284744336
 20
518.2458607556562
 10
-1150.432284744336
 20
533.2458715539107
 10
-1838.432281270802
 20
533.2458715539107
 10
-1838.432281270802
 20
1577.650634453682
 10
-1838.432274582647
 20
2768.671959614673
 10
-1931.61827826589
 20
2768.671959614673
  0
HATCH
  5
78
330
1F
100
AcDbEntity
  8
@__WIDOCZNE
  6
Continuous
370
    25
100
AcDbHatch
 10
0.0
 20
0.0
 30
0.0
210
0.0
220
0.0
230
1.0
  2
__Kropki_luz_n2_burzenie_2C
 70
     0
 71
     1
 91
        1
 92
        2
 72
     0
 73
     1
 93
       44
 10
-1810.432274582648
 20
2576.245863674365
 10
-1822.094184786167
 20
2576.245863674365
 10
-1822.094184786167
 20
1559.722525974988
 10
-1822.094184786167
 20
549.2458636743656
 10
-969.5321121151333
 20
549.2458636743656
 10
-838.2632866853834
 20
549.2458636743656
 10
-283.9500334905711
 20
549.2458636743656
 10
-283.9500334905711
 20
561.2458820028114
 10
-283.9500334905711
 20
741.2458548826721
 10
-295.950051819017
 20
741.2458548826721
 10
-295.950051819017
 20
561.2458820028114
 10
-445.9500366762239
 20
561.2458636743656
 10
-460.9500366762245
 20
561.2458636743656
 10
-610.9500366762248
 20
561.2458636743656
 10
-625.9500366762254
 20
561.2458636743656
 10
-775.9500366762257
 20
561.2458636743656
 10
-790.9500366762263
 20
561.2458636743656
 10
-838.2632866853834
 20
561.2458820028114
 10
-954.5321009912773
 20
561.2458636743656
 10
-969.5321121151333
 20
561.2458517981289
 10
-1150.432274582644
 20
561.2458636743656
 10
-1165.432274582645
 20
561.2458636743656
 10
-1314.432274582824
 20
561.2456334534317
 10
-1322.432274582735
 20
561.2458636743656
 10
-1622.432274582735
 20
561.2458636743656
 10
-1630.432274582646
 20
561.2458636743656
 10
-1780.432274582647
 20
561.2458636743656
 10
-1810.431157372874
 20
561.2458636743656
 10
-1810.431118221263
 20
591.3441285602156
 10
-1810.432274582648
 20
878.2124316217659
 10
-1810.432274582648
 20
886.2124316217659
 10
-1810.432274768603
 20
1186.245863674366
 10
-1810.432274768603
 20
1194.245863674366
 10
-1810.432293824799
 20
1494.245863674366
 10
-1810.432286458885
 20
1502.245863674366
 10
-1810.432286458885
 20
1802.245863674366
 10
-1810.432274582648
 20
1810.245863674366
 10
-1810.432274582648
 20
1931.245863674365
 10
-1810.432274582648
 20
2110.245863674366
 10
-1810.432274582648
 20
2118.245863674366
 10
-1810.432274582648
 20
2246.245863674365
 10
-1810.432274582648
 20
2261.245863674365
 10
-1810.432274582648
 20
2418.245863674365
 10
-1810.432274582648
 20
2426.245863674365
 97
        1
330
79
 75
     0
 76
     2
 52
0.0
 41
1.0
 77
     0
 78
     2
 53
45.0
 43
0.0
 44
35.0
 45
-11.13693180368812
 46
11.13693180368812
 79
     4
 49
0.0
 49
-10.5
 49
0.0
 49
-15.75
 53
110.0
 43
35.0
 44
35.0
 45
14.80015877737805
 46
5.386817257379289
 79
     4
 49
0.0
 49
-7.699999999999999
 49
0.0
 49
-13.3
 98
        0
  0
LWPOLYLINE
  5
79
102
{ACAD_REACTORS
330
78
102
}
330
1F
100
AcDbEntity
  8
@__WIDOCZNE
  6
Continuous
370
    50
100
AcDbPolyline
 90
       44
 70
   129
 43
0.0
 10
-1810.432274582648
 20
2576.245863674365
 10
-1822.094184786167
 20
2576.245863674365
 10
-1822.094184786167
 20
1559.722525974988
 10
-1822.094184786167
 20
549.2458636743656
 10
-969.5321121151333
 20
549.2458636743656
 10
-838.2632866853834
 20
549.2458636743656
 10
-283.9500334905711
 20
549.2458636743656
 10
-283.9500334905711
 20
561.2458820028114
 10
-283.9500334905711
 20
741.2458548826721
 10
-295.950051819017
 20
741.2458548826721
 10
-295.950051819017
 20
561.2458820028114
 10
-445.9500366762239
 20
561.2458636743656
 10
-460.9500366762245
 20
561.2458636743656
 10
-610.9500366762248
 20
561.2458636743656
 10
-625.9500366762254
 20
561.2458636743656
 10
-775.9500366762257
 20
561.2458636743656
 10
-790.9500366762263
 20
561.2458636743656
 10
-838.2632866853834
 20
561.2458820028114
 10
-954.5321009912773
 20
561.2458636743656
 10
-969.5321121151333
 20
561.2458517981289
 10
-1150.432274582644
 20
561.2458636743656
 10
-1165.432274582645
 20
561.2458636743656
 10
-1314.432274582824
 20
561.2456334534317
 10
-1322.432274582735
 20
561.2458636743656
 10
-1622.432274582735
 20
561.2458636743656
 10
-1630.432274582646
 20
561.2458636743656
 10
-1780.432274582647
 20
561.2458636743656
 10
-1810.431157372874
 20
561.2458636743656
 10
-1810.431118221263
 20
591.3441285602156
 10
-1810.432274582648
 20
878.2124316217659
 10
-1810.432274582648
 20
886.2124316217659
 10
-1810.432274768603
 20
1186.245863674366
 10
-1810.432274768603
 20
1194.245863674366
 10
-1810.432293824799
 20
1494.245863674366
 10
-1810.432286458885
 20
1502.245863674366
 10
-1810.432286458885
 20
1802.245863674366
 10
-1810.432274582648
 20
1810.245863674366
 10
-1810.432274582648
 20
1931.245863674365
 10
-1810.432274582648
 20
2110.245863674366
 10
-1810.432274582648
 20
2118.245863674366
 10
-1810.432274582648
 20
2246.245863674365
 10
-1810.432274582648
 20
2261.245863674365
 10
-1810.432274582648
 20
2418.245863674365
 10
-1810.432274582648
 20
2426.245863674365
  0
WIPEOUT
  5
7B
330
1F
100
AcDbEntity
  8
@__WIDOCZNE
  6
Wipeout_Contour
 62
   254
 48
4777.277972046626
370
     0
 92
      140
310
8C00000001000000840000000600000005000000169EA2C2EDBB91C043135F7956C780400000000000000000293C4585DBC78EC043135F7956C780400000000000000000293C4585DBC78EC066C55F87F78981400000000000000000169EA2C2EDBB91C066C55F87F78981400000000000000000169EA2C2EDBB91C043135F
310
7956C780400000000000000000
100
AcDbWipeout
 90
        0
 10
-1134.982187786959
 20
536.9172236850503
 30
0.0
 11
150.0000000000003
 21
0.0
 31
0.0
 12
0.0
 22
24.32863998931532
 32
0.0
 13
1.0
 23
1.0
340
0
 70
    15
280
     1
281
    50
282
    50
283
     0
360
0
 71
     2
 91
        5
 14
-0.5000000000000003
 24
0.4999999999999977
 14
0.4999999999999996
 24
0.4999999999999977
 14
0.4999999999999996
 24
-0.5000000000000023
 14
-0.5000000000000003
 24
-0.5000000000000023
 14
-0.5000000000000003
 24
0.4999999999999977
  0
HATCH
  5
7D
330
1F
100
AcDbEntity
  8
@__WIDOCZNE
  6
Continuous
370
    13
100
AcDbHatch
 10
0.0
 20
0.0
 30
0.0
210
0.0
220
0.0
230
1.0
  2
__Bloczki_ceramiczne_0002
 70
     0
 71
     0
 91
        1
 92
        2
 72
     0
 73
     1
 93
        6
 10
-343.7320424979679
 20
1296.977729784073
 10
-343.7320424979679
 20
1464.799560556183
 10
-568.7306157737427
 20
1464.799560556183
 10
-568.7306157737427
 20
1389.799560556183
 10
-645.981049752149
 20
1389.799560556183
 10
-645.981049752149
 20
1296.977729784073
 97
        0
 75
     0
 76
     2
 52
0.0
 41
1.0
 77
     0
 78
     1
 53
45.0
 43
0.0
 44
0.0
 45
-12.72792172418307
 46
12.72792172418307
 79
     0
 98
        0
  0
HATCH
  5
7E
330
1F
100
AcDbEntity
  8
0
  6
Continuous
370
    13
100
AcDbHatch
 10
0.0
 20
0.0
 30
0.0
210
0.0
220
0.0
230
1.0
  2
Płyty_kamienne_0002
 70
     0
 71
     1
 91
        1
 92
        2
 72
     0
 73
     1
 93
        4
 10
-493.7306157737398
 20
1679.799560556183
 10
-568.7306157737427
 20
1679.799560556183
 10
-568.7306157737427
 20
1640.469870394104
 10
-493.7306157737398
 20
1640.469870394104
 97
        1
330
7F
 75
     0
 76
     2
 52
0.0
 41
1.0
 77
     0
 78
     2
 53
45.0
 43
0.0
 44
35.0
 45
-11.13693180368812
 46
11.13693180368812
 79
     4
 49
0.0
 49
-10.5
 49
0.0
 49
-15.75
 53
110.0
 43
35.0
 44
35.0
 45
14.80015877737805
 46
5.386817257379289
 79
     4
 49
0.0
 49
-7.699999999999999
 49
0.0
 49
-13.3
 98
        0
  0
LWPOLYLINE
  5
7F
102
{ACAD_REACTORS
330
7E
102
}
330
1F
100
AcDbEntity
  8
0
  6
Continuous
370
    13
100
AcDbPolyline
 90
        4
 70
   129
 43
0.0
 10
-493.7306157737398
 20
1679.799560556183
 10
-568.7306157737427
 20
1679.799560556183
 10
-568.7306157737427
 20
1640.469870394104
 10
-493.7306157737398
 20
1640.469870394104
  0
HATCH
  5
80
330
1F
100
AcDbEntity
  8
0
  6
Continuous
370
    13
100
AcDbHatch
 10
0.0
 20
0.0
 30
0.0
210
0.0
220
0.0
230
1.0
  2
Płyty_kamienne_0002
 70
     0
 71
     1
 91
        1
 92
        2
 72
     0
 73
     1
 93
        4
 10
-343.7320424979679
 20
1604.799560556182
 10
-343.7320424979679
 20
1496.799560556183
 10
-613.9810497521526
 20
1496.799560556183
 10
-613.9810497521526
 20
1604.799560556182
 97
        1
330
81
 75
     0
 76
     2
 52
0.0
 41
1.0
 77
     0
 78
     2
 53
45.0
 43
0.0
 44
35.0
 45
-11.13693180368812
 46
11.13693180368812
 79
     4
 49
0.0
 49
-10.5
 49
0.0
 49
-15.75
 53
110.0
 43
35.0
 44
35.0
 45
14.80015877737805
 46
5.386817257379289
 79
     4
 49
0.0
 49
-7.699999999999999
 49
0.0
 49
-13.3
 98
        0
  0
LWPOLYLINE
  5
81
102
{ACAD_REACTORS
330
80
102
}
330
1F
100
AcDbEntity
  8
0
  6
Continuous
370
    13
100
AcDbPolyline
 90
        4
 70
   129
 43
0.0
 10
-343.7320424979679
 20
1604.799560556182
 10
-343.7320424979679
 20
1496.799560556183
 10
-613.9810497521526
 20
1496.799560556183
 10
-613.9810497521526
 20
1604.799560556182
  0
HATCH
  5
82
330
1F
100
AcDbEntity
  8
0
  6
Continuous
370
    13
100
AcDbHatch
 10
0.0
 20
0.0
 30
0.0
210
0.0
220
0.0
230
1.0
  2
Bloczki_betonowe_0002
 70
     0
 71
     1
 91
        1
 92
        2
 72
     0
 73
     1
 93
        4
 10
-343.7320424979679
 20
1679.799560556183
 10
-343.7320424979679
 20
1604.799560556182
 10
-493.7306157737398
 20
1604.799560556182
 10
-493.7306157737398
 20
1679.799560556183
 97
        1
330
83
 75
     0
 76
     2
 52
0.0
 41
1.0
 77
     0
 78
     2
 53
44.99999999999999
 43
0.0
 44
0.0
 45
-9.192387818250328
 46
9.19238781825033
 79
     0
 53
135.0
 43
0.0
 44
0.0
 45
9.192387818250326
 46
9.192387818250332
 79
     0
 98
        0
  0
LWPOLYLINE
  5
83
102
{ACAD_REACTORS
330
82
102
}
330
1F
100
AcDbEntity
  8
0
  6
Continuous
370
    13
100
AcDbPolyline
 90
        4
 70
   129
 43
0.0
 10
-343.7320424979679
 20
1679.799560556183
 10
-343.7320424979679
 20
1604.799560556182
 10
-493.7306157737398
 20
1604.799560556182
 10
-493.7306157737398
 20
1679.799560556183
  0
HATCH
  5
84
330
1F
100
AcDbEntity
  8
0
  6
Continuous
370
    13
100
AcDbHatch
 10
0.0
 20
0.0
 30
0.0
210
0.0
220
0.0
230
1.0
  2
aluminum_0002
 70
     0
 71
     0
 91
        1
 92
        2
 72
     1
 73
     1
 93
       12
 10
-565.8760982429163
 20
1629.459933776294
 42
0.2006928049112838
 10
-568.7306157737427
 20
1622.634715475143
 42
0.2006928049112432
 10
-565.8760982429163
 20
1615.809497173992
 42
0.1029464216293045
 10
-557.747120068238
 20
1610.023356488433
 42
0.097563251795685
 10
-531.2306157737412
 20
1604.799560556182
 42
0.0975632517956911
 10
-504.7141114792444
 20
1610.023356488433
 42
0.1029464216293413
 10
-496.5851333045661
 20
1615.809497173992
 42
0.2006928049113266
 10
-493.7306157737398
 20
1622.634715475143
 42
0.2006928049113245
 10
-496.5851333045661
 20
1629.459933776294
 42
0.102946421629331
 10
-504.7141114792444
 20
1635.246074461853
 42
0.0975632517956764
 10
-531.2306157737412
 20
1640.469870394104
 42
0.097563251795696
 10
-557.747120068238
 20
1635.246074461853
 42
0.1029464216293568
 97
        0
 75
     0
 76
     2
 52
0.0
 41
1.0
 77
     0
 78
     3
 53
45.0
 43
0.0
 44
0.0
 45
-17.67766952966369
 46
17.67766952966369
 79
     0
 53
45.0
 43
-3.535533905932737
 44
3.535533905932738
 45
-17.67766952966369
 46
17.67766952966369
 79
     0
 53
45.0
 43
-7.071067811865475
 44
7.071067811865476
 45
-17.67766952966369
 46
17.67766952966369
 79
     0
 98
        0
  0
WIPEOUT
  5
85
330
1F
100
AcDbEntity
  8
@__WIDOCZNE
  6
Wipeout_Contour
 62
   254
 48
3849.482484598371
370
     0
 92
      140
310
8C0000000100000084000000060000000500000073F3FFFFFF3F65C099362C6C2F298D400000000000000000B6CEF4A8F02D73C099362C6C2F298D400000000000000000B6CEF4A8F02D73C0B337DA49BEF68C40000000000000000073F3FFFFFF3F65C0B337DA49BEF68C40000000000000000073F3FFFFFF3F65C099362C
310
6C2F298D400000000000000000
100
AcDbWipeout
 90
        0
 10
-306.871254879264
 20
926.8429142997978
 30
0.0
 11
136.8712548793553
 21
0.0
 31
0.0
 12
0.0
 22
6.305241242019065
 32
0.0
 13
1.0
 23
1.0
340
0
 70
    15
280
     1
281
    50
282
    50
283
     0
360
0
 71
     2
 91
        5
 14
0.5000000000000001
 24
-0.5
 14
-0.4999999999999999
 24
-0.5
 14
-0.4999999999999999
 24
0.5
 14
0.5000000000000001
 24
0.5
 14
0.5000000000000001
 24
-0.5
  0
HATCH
  5
86
330
1F
100
AcDbEntity
  8
@__WIDOCZNE
  6
Continuous
370
    13
100
AcDbHatch
 10
0.0
 20
0.0
 30
0.0
210
0.0
220
0.0
230
1.0
  2
SOLID
 70
     1
 71
     0
 91
        1
 92
        2
 72
     0
 73
     1
 93
        4
 10
-486.0254130610078
 20
1496.799560556183
 10
-405.770301522347
 20
1496.799560556183
 10
-405.770301522347
 20
1464.799560556183
 10
-486.0254130610078
 20
1464.799560556183
 97
        0
 75
     0
 76
     1
 98
        0
  0
HATCH
  5
87
330
1F
100
AcDbEntity
  8
@__WIDOCZNE
  6
Continuous
370
    13
100
AcDbHatch
 10
0.0
 20
0.0
 30
0.0
210
0.0
220
0.0
230
1.0
  2
SOLID
 70
     1
 71
     0
 91
        1
 92
        2
 72
     0
 73
     1
 93
        4
 10
-645.981049752149
 20
1496.799560556183
 10
-645.981049752149
 20
1464.799560556183
 10
-565.9072450111164
 20
1464.799560556183
 10
-565.9072450111164
 20
1496.799560556183
 97
        0
 75
     0
 76
     1
 98
        0
  0
HATCH
  5
88
330
1F
100
AcDbEntity
  8
@__WIDOCZNE
  6
Continuous
370
    13
100
AcDbHatch
 10
0.0
 20
0.0
 30
0.0
210
0.0
220
0.0
230
1.0
  2
SOLID
 70
     1
 71
     0
 91
        1
 92
        2
 72
     0
 73
     1
 93
        4
 10
-645.981049752149
 20
1496.799560556183
 10
-613.9810497521489
 20
1496.799560556183
 10
-613.9810497521489
 20
1560.88874672258
 10
-645.981049752149
 20
1560.88874672258
 97
        0
 75
     0
 76
     1
 98
        0
  0
INSERT
  5
8F
330
1F
100
AcDbEntity
  8
@__WIDOCZNE
  6
Continuous
 62
     4
370
    20
100
AcDbBlockReference
 66
     1
  2
Sygnał termostatu 12
 10
-1011.301804557929
 20
2679.487538664285
 30
0.0
  0
ATTRIB
  5
90
330
8F
100
AcDbEntity
  8
@__WIDOCZNE
  6
Continuous
 62
     4
370
    20
100
AcDbText
 10
-1034.067562488344
 20
2666.201919116364
 30
0.0
 40
30.0
  1
01
  7
GENERATED_STYLE_1
 11
-1034.067562488344
 21
2657.335512866363
 31
0.0
100
AcDbAttribute
  2
txt
 70
     0
 74
     1
  0
SEQEND
  5
91
330
8F
100
AcDbEntity
  8
@__WIDOCZNE
  6
Continuous
 62
     4
370
    20
  0
INSERT
  5
97
330
1F
100
AcDbEntity
  8
@__WIDOCZNE
  6
Continuous
 62
     4
370
    20
100
AcDbBlockReference
 66
     1
  2
Sygnał termostatu 12_2
 10
-1011.301804557929
 20
2609.487538664285
 30
0.0
  0
ATTRIB
  5
98
330
97
100
AcDbEntity
  8
@__WIDOCZNE
  6
Continuous
 62
     4
370
    20
100
AcDbText
 10
-1034.067643083785
 20
2596.201946108042
 30
0.0
 40
30.0
  1
02
  7
GENERATED_STYLE_1
 11
-1034.067643083785
 21
2587.335539858042
 31
0.0
100
AcDbAttribute
  2
txt
 70
     0
 74
     1
  0
SEQEND
  5
99
330
97
100
AcDbEntity
  8
@__WIDOCZNE
  6
Continuous
 62
     4
370
    20
  0
INSERT
  5
9F
330
1F
100
AcDbEntity
  8
@__WIDOCZNE
  6
Continuous
 62
     4
370
    20
100
AcDbBlockReference
 66
     1
  2
Sygnał termostatu 12_3
 10
-1011.301804557929
 20
2511.047374677772
 30
0.0
  0
ATTRIB
  5
A0
330
9F
100
AcDbEntity
  8
@__WIDOCZNE
  6
Continuous
 62
     4
370
    20
100
AcDbText
 10
-1034.067643083785
 20
2497.761782121529
 30
0.0
 40
30.0
  1
03
  7
GENERATED_STYLE_1
 11
-1034.067643083785
 21
2488.895375871529
 31
0.0
100
AcDbAttribute
  2
txt
 70
     0
 74
     1
  0
SEQEND
  5
A1
330
9F
100
AcDbEntity
  8
@__WIDOCZNE
  6
Continuous
 62
     4
370
    20
  0
INSERT
  5
A2
330
1F
100
AcDbEntity
  8
@__WIDOCZNE
  6
Continuous
 62
     4
370
    20
100
AcDbBlockReference
 66
     1
  2
Sygnał termostatu 12_3
 10
-1011.301804557929
 20
2511.047374677772
 30
0.0
  0
ATTRIB
  5
A3
330
A2
100
AcDbEntity
  8
@__WIDOCZNE
  6
Continuous
 62
     4
370
    20
100
AcDbText
 10
-1034.067643083785
 20
2497.761782121529
 30
0.0
 40
30.0
  1
03
  7
GENERATED_STYLE_1
 11
-1034.067643083785
 21
2488.895375871529
 31
0.0
100
AcDbAttribute
  2
txt
 70
     0
 74
     1
  0
SEQEND
  5
A4
330
A2
100
AcDbEntity
  8
@__WIDOCZNE
  6
Continuous
 62
     4
370
    20
  0
INSERT
  5
AA
330
1F
100
AcDbEntity
  8
@__WIDOCZNE
  6
Continuous
 62
     4
370
    20
100
AcDbBlockReference
 66
     1
  2
Sygnał termostatu 12_4
 10
-1011.301804557929
 20
2411.047374677772
 30
0.0
  0
ATTRIB
  5
AB
330
AA
100
AcDbEntity
  8
@__WIDOCZNE
  6
Continuous
 62
     4
370
    20
100
AcDbText
 10
-1034.067643083785
 20
2397.761782121529
 30
0.0
 40
30.0
  1
04
  7
GENERATED_STYLE_1
 11
-1034.067643083785
 21
2388.895375871529
 31
0.0
100
AcDbAttribute
  2
txt
 70
     0
 74
     1
  0
SEQEND
  5
AC
330
AA
100
AcDbEntity
  8
@__WIDOCZNE
  6
Continuous
 62
     4
370
    20
  0
INSERT
  5
B2
330
1F
100
AcDbEntity
  8
@__WIDOCZNE
  6
Continuous
 62
     4
370
    20
100
AcDbBlockReference
 66
     1
  2
Sygnał termostatu 12_5
 10
-1011.301804557929
 20
2341.047374677772
 30
0.0
  0
ATTRIB
  5
B3
330
B2
100
AcDbEntity
  8
@__WIDOCZNE
  6
Continuous
 62
     4
370
    20
100
AcDbText
 10
-1034.067643083785
 20
2327.761782121529
 30
0.0
 40
30.0
  1
05
  7
GENERATED_STYLE_1
 11
-1034.067643083785
 21
2318.895375871529
 31
0.0
100
AcDbAttribute
  2
txt
 70
     0
 74
     1
  0
SEQEND
  5
B4
330
B2
100
AcDbEntity
  8
@__WIDOCZNE
  6
Continuous
 62
     4
370
    20
  0
INSERT
  5
BA
330
1F
100
AcDbEntity
  8
@__WIDOCZNE
  6
Continuous
 62
     4
370
    20
100
AcDbBlockReference
 66
     1
  2
Sygnał termostatu 12_6
 10
-1011.301804557929
 20
2271.047374677772
 30
0.0
  0
ATTRIB
  5
BB
330
BA
100
AcDbEntity
  8
@__WIDOCZNE
  6
Continuous
 62
     4
370
    20
100
AcDbText
 10
-1034.067643083785
 20
2257.761782121529
 30
0.0
 40
30.0
  1
06
  7
GENERATED_STYLE_1
 11
-1034.067643083785
 21
2248.895375871529
 31
0.0
100
AcDbAttribute
  2
txt
 70
     0
 74
     1
  0
SEQEND
  5
BC
330
BA
100
AcDbEntity
  8
@__WIDOCZNE
  6
Continuous
 62
     4
370
    20
  0
INSERT
  5
BD
330
1F
100
AcDbEntity
  8
@__WIDOCZNE
  6
Continuous
 62
     4
370
    20
100
AcDbBlockReference
 66
     1
  2
Sygnał termostatu 12_4
 10
-1735.826290063948
 20
2707.348824524392
 30
0.0
  0
ATTRIB
  5
BE
330
BD
100
AcDbEntity
  8
@__WIDOCZNE
  6
Continuous
 62
     4
370
    20
100
AcDbText
 10
-1758.592128589804
 20
2694.063231968149
 30
0.0
 40
30.0
  1
04
  7
GENERATED_STYLE_1
 11
-1758.592128589804
 21
2685.196825718149
 31
0.0
100
AcDbAttribute
  2
txt
 70
     0
 74
     1
  0
SEQEND
  5
BF
330
BD
100
AcDbEntity
  8
@__WIDOCZNE
  6
Continuous
 62
     4
370
    20
  0
LINE
  5
C2
330
1F
100
AcDbEntity
  8
Linia Izolacji - ARCHICAD
  6
IZOLACJA GRUBA
370
    13
100
AcDbLine
 10
-1830.432274582651
 20
2576.245863674365
 30
0.0
 11
-1830.432274582651
 21
1577.650634453682
 31
0.0
  0
LINE
  5
C4
330
1F
100
AcDbEntity
  8
0
  6
Continuous
370
    13
100
AcDbLine
 10
-1150.432274582644
 20
568.7458636743658
 30
0.0
 11
-969.5321009912778
 21
568.7458636743658
 31
0.0
  0
LINE
  5
C5
330
1F
100
AcDbEntity
  8
0
  6
Continuous
370
    13
100
AcDbLine
 10
-808.2633007413567
 20
533.2458636743656
 30
0.0
 11
-267.9500366762248
 21
533.2458636743656
 31
0.0
  0
LINE
  5
C6
330
1F
100
AcDbEntity
  8
0
  6
Continuous
370
    13
100
AcDbLine
 10
-1795.432274582647
 20
1559.722534385189
 30
0.0
 11
-1931.61827826589
 21
1559.722534385189
 31
0.0
  0
LINE
  5
C7
330
1F
100
AcDbEntity
  8
0
  6
Continuous
370
    13
100
AcDbLine
 10
-1743.309144664031
 20
2334.813520888707
 30
0.0
 11
-1743.309144664031
 21
1770.064139287223
 31
0.0
  0
LINE
  5
C9
330
1F
100
AcDbEntity
  8
0
  6
Przerywana
370
    13
100
AcDbLine
 10
-1931.61827826589
 20
2101.325807870561
 30
0.0
 11
-1931.61827826589
 21
1896.29308643782
 31
0.0
  0
LINE
  5
CA
330
1F
100
AcDbEntity
  8
0
  6
Continuous
370
    35
100
AcDbLine
 10
-1795.432274582647
 20
2576.245863674365
 30
0.0
 11
-1822.094184786167
 21
2576.245863674365
 31
0.0
  0
LINE
  5
CB
330
1F
100
AcDbEntity
  8
0
  6
Przerywana
370
    13
100
AcDbLine
 10
-1931.61827826589
 20
2768.671959614673
 30
0.0
 11
-1931.61827826589
 21
2101.325807870562
 31
0.0
  0
LINE
  5
CC
330
1F
100
AcDbEntity
  8
0
  6
Continuous
370
    13
100
AcDbLine
 10
-1788.775759845709
 20
1999.687040438299
 30
0.0
 11
-1788.775759845709
 21
2012.704389102387
 31
0.0
  0
LINE
  5
CD
330
1F
100
AcDbEntity
  8
0
  6
Continuous
370
    13
100
AcDbLine
 10
-1787.778722384693
 20
1581.632778107226
 30
0.0
 11
-1787.778722384693
 21
1598.079158395028
 31
0.0
  0
LINE
  5
CE
330
1F
100
AcDbEntity
  8
0
  6
Continuous
370
    13
100
AcDbLine
 10
-1788.775759845709
 20
2037.108708950001
 30
0.0
 11
-1788.775759845709
 21
2024.66987779555
 31
0.0
  0
LINE
  5
CF
330
1F
100
AcDbEntity
  8
0
  6
Continuous
370
    13
100
AcDbLine
 10
-1695.284209490097
 20
2403.02110570729
 30
0.0
 11
-1705.822230099346
 21
2390.265178101513
 31
0.0
  0
LINE
  5
D0
330
1F
100
AcDbEntity
  8
0
  6
Continuous
370
    13
100
AcDbLine
 10
-1705.118495611699
 20
2411.145478393423
 30
0.0
 11
-1712.522117830154
 21
2402.349844938894
 31
0.0
  0
LINE
  5
D1
330
1F
100
AcDbEntity
  8
0
  6
Continuous
370
    13
100
AcDbLine
 10
-1730.973060228688
 20
2375.718422295958
 30
0.0
 11
-1726.630528796181
 21
2381.185677947919
 31
0.0
  0
LINE
  5
D2
330
1F
100
AcDbEntity
  8
0
  6
Continuous
370
    13
100
AcDbLine
 10
-1788.775759845709
 20
2024.66987779555
 30
0.0
 11
-1750.28183088489
 21
2024.66987779555
 31
0.0
  0
LINE
  5
D3
330
1F
100
AcDbEntity
  8
0
  6
Continuous
370
    13
100
AcDbLine
 10
-1788.775759845709
 20
2012.704389102387
 30
0.0
 11
-1750.28183088489
 21
2012.704389102387
 31
0.0
  0
LINE
  5
D4
330
1F
100
AcDbEntity
  8
0
  6
Continuous
370
    13
100
AcDbLine
 10
-1654.661164831018
 20
2439.534591095508
 30
0.0
 11
-1619.598337597544
 21
2456.684894483134
 31
0.0
  0
LINE
  5
D5
330
1F
100
AcDbEntity
  8
0
  6
Continuous
370
    13
100
AcDbLine
 10
-1751.970404544866
 20
1581.632778107226
 30
0.0
 11
-1751.970404544866
 21
1598.079158395028
 31
0.0
  0
LINE
  5
D6
330
1F
100
AcDbEntity
  8
0
  6
Continuous
370
    13
100
AcDbLine
 10
-1704.565700344705
 20
2409.672833604312
 30
0.0
 11
-1675.324383400994
 21
2445.546201813612
 31
0.0
  0
LINE
  5
D7
330
1F
100
AcDbEntity
  8
0
  6
Continuous
370
    13
100
AcDbLine
 10
-1697.460545938507
 20
2403.863325001595
 30
0.0
 11
-1668.228744321161
 21
2431.615035397811
 31
0.0
  0
LINE
  5
D8
330
1F
100
AcDbEntity
  8
0
  6
Continuous
370
    13
100
AcDbLine
 10
-1619.598337597544
 20
2456.684894483134
 30
0.0
 11
-1597.316124679608
 21
2463.602924360281
 31
0.0
  0
LINE
  5
D9
330
1F
100
AcDbEntity
  8
0
  6
Continuous
370
    13
100
AcDbLine
 10
-1619.406923856775
 20
2475.090559643401
 30
0.0
 11
-1575.087897324998
 21
2495.336184203131
 31
0.0
  0
LINE
  5
DA
330
1F
100
AcDbEntity
  8
0
  6
Continuous
370
    13
100
AcDbLine
 10
-1589.391462841468
 20
2459.692512176624
 30
0.0
 11
-1583.422007095151
 21
2451.819769073893
 31
0.0
  0
LINE
  5
DB
330
1F
100
AcDbEntity
  8
0
  6
Continuous
370
    13
100
AcDbLine
 10
-1661.50138215968
 20
2453.759359021458
 30
0.0
 11
-1619.406923856775
 21
2475.090559643401
 31
0.0
  0
LINE
  5
DC
330
1F
100
AcDbEntity
  8
0
  6
Continuous
370
    13
100
AcDbLine
 10
-1788.775759845709
 20
2446.761208882868
 30
0.0
 11
-1788.775759845709
 21
2459.778557546956
 31
0.0
  0
LINE
  5
DD
330
1F
100
AcDbEntity
  8
0
  6
Continuous
370
    13
100
AcDbLine
 10
-1795.432274582647
 20
1577.650634453682
 30
0.0
 11
-1931.61827826589
 21
1577.650634453682
 31
0.0
  0
LINE
  5
DE
330
1F
100
AcDbEntity
  8
0
  6
Continuous
370
    35
100
AcDbLine
 10
-1795.432274582647
 20
1577.650634453682
 30
0.0
 11
-1795.432274582647
 21
2576.245863674365
 31
0.0
  0
LINE
  5
DF
330
1F
100
AcDbEntity
  8
0
  6
Continuous
370
    13
100
AcDbLine
 10
-1788.775759845709
 20
2484.182877394569
 30
0.0
 11
-1788.775759845709
 21
2471.744046240119
 31
0.0
  0
LINE
  5
E0
330
1F
100
AcDbEntity
  8
0
  6
Continuous
370
    13
100
AcDbLine
 10
-1838.432274582647
 20
2768.671959614673
 30
0.0
 11
-1838.432274582647
 21
1577.650634453682
 31
0.0
  0
LINE
  5
E1
330
1F
100
AcDbEntity
  8
0
  6
Continuous
370
    13
100
AcDbLine
 10
-1810.432274582648
 20
2576.245863674365
 30
0.0
 11
-1838.432274582647
 21
2576.245863674365
 31
0.0
  0
LINE
  5
E2
330
1F
100
AcDbEntity
  8
0
  6
Continuous
370
    13
100
AcDbLine
 10
-1795.432274582647
 20
1559.722534385189
 30
0.0
 11
-1810.432274582648
 21
1559.722534385189
 31
0.0
  0
LINE
  5
E3
330
1F
100
AcDbEntity
  8
0
  6
Continuous
370
    13
100
AcDbLine
 10
-1795.432274582647
 20
1577.650634453682
 30
0.0
 11
-1810.432274582648
 21
1577.650634453682
 31
0.0
  0
LINE
  5
E4
330
1F
100
AcDbEntity
  8
0
  6
Continuous
370
    13
100
AcDbLine
 10
-1469.737419214704
 20
2553.107153674366
 30
0.0
 11
-1469.737419214704
 21
2382.498359900284
 31
0.0
  0
LINE
  5
E5
330
1F
100
AcDbEntity
  8
0
  6
Continuous
370
    13
100
AcDbLine
 10
-1469.737419214704
 20
2576.245863674365
 30
0.0
 11
-1463.537419214704
 21
2553.107153674366
 31
0.0
  0
LINE
  5
E6
330
1F
100
AcDbEntity
  8
0
  6
Continuous
370
    13
100
AcDbLine
 10
-1469.737419214704
 20
2576.245863674365
 30
0.0
 11
-1475.937419214704
 21
2553.107153674366
 31
0.0
  0
LINE
  5
E7
330
1F
100
AcDbEntity
  8
0
  6
Continuous
370
    13
100
AcDbLine
 10
-1463.537419214704
 20
2553.107153674366
 30
0.0
 11
-1475.937419214704
 21
2553.107153674366
 31
0.0
  0
HATCH
  5
E8
330
1F
100
AcDbEntity
  8
0
  6
Continuous
370
    13
100
AcDbHatch
 10
0.0
 20
0.0
 30
0.0
210
0.0
220
0.0
230
1.0
  2
SOLID
 70
     1
 71
     0
 91
        1
 92
        2
 72
     0
 73
     1
 93
        3
 10
-1469.737419214704
 20
2576.245863674365
 10
-1463.537419214704
 20
2553.107153674366
 10
-1475.937419214704
 20
2553.107153674366
 97
        0
 75
     0
 76
     1
 98
        0
  0
LINE
  5
E9
330
1F
100
AcDbEntity
  8
0
  6
Continuous
370
    13
100
AcDbLine
 10
-1690.247443247237
 20
2576.245863674365
 30
0.0
 11
-1361.305903399244
 21
2576.245863674365
 31
0.0
  0
LINE
  5
EA
330
1F
100
AcDbEntity
  8
0
  6
Continuous
370
    35
100
AcDbLine
 10
-1795.432274582647
 20
591.212431621766
 30
0.0
 11
-1795.432274582647
 21
1559.722534385189
 31
0.0
  0
LINE
  5
EB
330
1F
100
AcDbEntity
  8
0
  6
Continuous
370
    13
100
AcDbLine
 10
-1795.432274582647
 20
1577.650634453682
 30
0.0
 11
-1795.432274582647
 21
1559.722534385189
 31
0.0
  0
LINE
  5
EC
330
1F
100
AcDbEntity
  8
0
  6
Continuous
370
    13
100
AcDbLine
 10
-1750.28183088489
 20
2338.627639847124
 30
0.0
 11
-1750.28183088489
 21
1772.043874052462
 31
0.0
  0
LINE
  5
ED
330
1F
100
AcDbEntity
  8
0
  6
Continuous
370
    13
100
AcDbLine
 10
-1134.982187786959
 20
390.0000000000009
 30
0.0
 11
-975.8234701300694
 21
390.0000000000009
 31
0.0
  0
LINE
  5
EE
330
1F
100
AcDbEntity
  8
0
  6
Continuous
370
    13
100
AcDbLine
 10
-1134.982187786959
 20
444.755611878453
 30
0.0
 11
-1134.982187786959
 21
390.0000000000009
 31
0.0
  0
LINE
  5
EF
330
1F
100
AcDbEntity
  8
0
  6
Continuous
370
    13
100
AcDbLine
 10
-941.8987447299927
 20
403.7321911208452
 30
0.0
 11
-838.263300741356
 21
402.8222229248282
 31
0.0
  0
LINE
  5
F0
330
1F
100
AcDbEntity
  8
0
  6
Continuous
370
    13
100
AcDbLine
 10
-939.7902442831996
 20
453.7156048704569
 30
0.0
 11
-838.263300741356
 21
452.8241503052406
 31
0.0
  0
LINE
  5
F1
330
1F
100
AcDbEntity
  8
0
  6
Continuous
370
    13
100
AcDbLine
 10
-850.8237202088982
 20
533.2458636743656
 30
0.0
 11
-838.263300741356
 21
533.2458636743656
 31
0.0
  0
LINE
  5
F2
330
1F
100
AcDbEntity
  8
0
  6
Continuous
370
    13
100
AcDbLine
 10
-1150.432274582644
 20
561.2458636743656
 30
0.0
 11
-969.5321009912778
 21
561.2458636743656
 31
0.0
  0
LINE
  5
F3
330
1F
100
AcDbEntity
  8
0
  6
Continuous
370
    13
100
AcDbLine
 10
-1150.432274582644
 20
576.2458636743658
 30
0.0
 11
-969.5321009912778
 21
576.2458636743658
 31
0.0
  0
LINE
  5
F4
330
1F
100
AcDbEntity
  8
0
  6
Continuous
370
    13
100
AcDbLine
 10
-969.5321009912778
 20
533.2458636743656
 30
0.0
 11
-838.263300741356
 21
533.2458636743656
 31
0.0
  0
LINE
  5
F5
330
1F
100
AcDbEntity
  8
Linia Izolacji - ARCHICAD
  6
IZOLACJA GRUBA
370
    13
100
AcDbLine
 10
-1143.321302602558
 20
541.2458636743656
 30
0.0
 11
-1143.321302602558
 21
561.2458636743656
 31
0.0
  0
LINE
  5
F6
330
1F
100
AcDbEntity
  8
0
  6
Continuous
370
    13
100
AcDbLine
 10
-1150.432274582644
 20
518.2458636743656
 30
0.0
 11
-969.5321009912778
 21
518.2458636743656
 31
0.0
  0
LINE
  5
F7
330
1F
100
AcDbEntity
  8
0
  6
Continuous
370
    13
100
AcDbLine
 10
-1150.432274582644
 20
533.2458636743656
 30
0.0
 11
-969.5321009912778
 21
533.2458636743656
 31
0.0
  0
LINE
  5
F8
330
1F
100
AcDbEntity
  8
0
  6
Continuous
370
    35
100
AcDbLine
 10
-961.5321009912773
 20
576.2458636743658
 30
0.0
 11
-961.5321009912773
 21
561.2458636743656
 31
0.0
  0
LINE
  5
F9
330
1F
100
AcDbEntity
  8
0
  6
Continuous
370
    13
100
AcDbLine
 10
-1134.982187786959
 20
518.2458636743656
 30
0.0
 11
-1134.982187786959
 21
503.1428018532498
 31
0.0
  0
LINE
  5
FA
330
1F
100
AcDbEntity
  8
Linia Izolacji - ARCHICAD
  6
IZOLACJA GRUBA
370
    13
100
AcDbLine
 10
-976.6485261819046
 20
541.2458636743656
 30
0.0
 11
-976.6485261819046
 21
561.2458636743656
 31
0.0
  0
LINE
  5
FB
330
1F
100
AcDbEntity
  8
0
  6
Continuous
370
    13
100
AcDbLine
 10
-984.9821877869591
 20
518.2458636743656
 30
0.0
 11
-984.9821877869591
 21
444.755611878453
 31
0.0
  0
LINE
  5
FC
330
1F
100
AcDbEntity
  8
0
  6
Continuous
370
    13
100
AcDbLine
 10
-1150.432274582644
 20
533.2458636743656
 30
0.0
 11
-1150.432274582644
 21
518.2458636743656
 31
0.0
  0
LINE
  5
FD
330
1F
100
AcDbEntity
  8
0
  6
Continuous
370
    13
100
AcDbLine
 10
-969.5321009912778
 20
533.2458636743656
 30
0.0
 11
-969.5321009912778
 21
518.2458636743656
 31
0.0
  0
LINE
  5
FE
330
1F
100
AcDbEntity
  8
0
  6
Continuous
370
    13
100
AcDbLine
 10
-984.9821877869591
 20
533.2458636743656
 30
0.0
 11
-984.9821877869591
 21
561.2458636743656
 31
0.0
  0
LINE
  5
FF
330
1F
100
AcDbEntity
  8
0
  6
Continuous
370
    13
100
AcDbLine
 10
-1134.982187786959
 20
533.2458636743656
 30
0.0
 11
-1134.982187786959
 21
561.2458636743656
 31
0.0
  0
LINE
  5
100
330
1F
100
AcDbEntity
  8
Linia Izolacji - ARCHICAD
  6
IZOLACJA GRUBA
370
    13
100
AcDbLine
 10
-1134.982187786959
 20
541.2458636743656
 30
0.0
 11
-1830.432274582648
 21
541.2458636743656
 31
0.0
  0
LINE
  5
101
330
1F
100
AcDbEntity
  8
Linia Izolacji - ARCHICAD
  6
IZOLACJA GRUBA
370
    13
100
AcDbLine
 10
-838.263300741356
 20
541.2458636743656
 30
0.0
 11
-984.9821877869591
 21
541.2458636743656
 31
0.0
  0
LINE
  5
102
330
1F
100
AcDbEntity
  8
0
  6
Continuous
370
    35
100
AcDbLine
 10
-1150.432274582644
 20
576.2458636743658
 30
0.0
 11
-1150.432274582644
 21
561.2458636743656
 31
0.0
  0
LINE
  5
103
330
1F
100
AcDbEntity
  8
0
  6
Continuous
370
    35
100
AcDbLine
 10
-969.5321009912778
 20
576.2458636743658
 30
0.0
 11
-969.5321009912778
 21
561.2458636743656
 31
0.0
  0
LINE
  5
104
330
1F
100
AcDbEntity
  8
0
  6
Continuous
370
    35
100
AcDbLine
 10
-969.5321009912778
 20
576.2458636743658
 30
0.0
 11
-839.0208604412514
 21
576.2458636743658
 31
0.0
  0
LINE
  5
105
330
1F
100
AcDbEntity
  8
0
  6
Continuous
370
    13
100
AcDbLine
 10
-969.5321009912778
 20
561.2458636743656
 30
0.0
 11
-838.263300741356
 21
561.2458636743656
 31
0.0
  0
LINE
  5
106
330
1F
100
AcDbEntity
  8
0
  6
Continuous
370
    35
100
AcDbLine
 10
-1158.432274582645
 20
576.2458636743658
 30
0.0
 11
-1158.432274582645
 21
561.2458636743656
 31
0.0
  0
LINE
  5
107
330
1F
100
AcDbEntity
  8
0
  6
Continuous
370
    13
100
AcDbLine
 10
-1779.486848279691
 20
533.2458636743656
 30
0.0
 11
-1150.432274582644
 21
533.2458636743656
 31
0.0
  0
LINE
  5
108
330
1F
100
AcDbEntity
  8
0
  6
Continuous
370
    13
100
AcDbLine
 10
-1838.432274582647
 20
533.2458636743656
 30
0.0
 11
-1150.432274582644
 21
533.2458636743656
 31
0.0
  0
LINE
  5
109
330
1F
100
AcDbEntity
  8
0
  6
Continuous
370
    13
100
AcDbLine
 10
-1134.982187786959
 20
503.1428018532498
 30
0.0
 11
-1161.424696029879
 21
503.1428018532498
 31
0.0
  0
LINE
  5
10A
330
1F
100
AcDbEntity
  8
0
  6
Continuous
370
    13
100
AcDbLine
 10
-984.9821877869591
 20
444.755611878453
 30
0.0
 11
-1134.982187786959
 21
444.755611878453
 31
0.0
  0
LINE
  5
10B
330
1F
100
AcDbEntity
  8
0
  6
Continuous
370
    13
100
AcDbLine
 10
-1134.982187786959
 20
453.1428018532498
 30
0.0
 11
-1161.424696029879
 21
453.1428018532498
 31
0.0
  0
LINE
  5
10C
330
1F
100
AcDbEntity
  8
0
  6
Continuous
370
    13
100
AcDbLine
 10
-1134.982187786959
 20
453.1428018532498
 30
0.0
 11
-1134.982187786959
 21
444.755611878453
 31
0.0
  0
LINE
  5
10D
330
1F
100
AcDbEntity
  8
0
  6
Continuous
370
    13
100
AcDbLine
 10
-1169.811886004676
 20
449.169922391504
 30
0.0
 11
-1161.424696029879
 21
449.169922391504
 31
0.0
  0
LINE
  5
10E
330
1F
100
AcDbEntity
  8
0
  6
Continuous
370
    13
100
AcDbLine
 10
-1161.424696029879
 20
503.1428018532498
 30
0.0
 11
-1161.424696029879
 21
507.115681314996
 31
0.0
  0
LINE
  5
10F
330
1F
100
AcDbEntity
  8
0
  6
Continuous
370
    13
100
AcDbLine
 10
-1161.424696029879
 20
507.115681314996
 30
0.0
 11
-1169.811886004676
 21
507.115681314996
 31
0.0
  0
LINE
  5
110
330
1F
100
AcDbEntity
  8
0
  6
Continuous
370
    13
100
AcDbLine
 10
-1161.424696029879
 20
503.1428018532498
 30
0.0
 11
-1161.424696029879
 21
449.169922391504
 31
0.0
  0
LINE
  5
111
330
1F
100
AcDbEntity
  8
0
  6
Continuous
370
    13
100
AcDbLine
 10
-1169.811886004676
 20
507.115681314996
 30
0.0
 11
-1169.811886004676
 21
449.169922391504
 31
0.0
  0
LINE
  5
112
330
1F
100
AcDbEntity
  8
0
  6
Continuous
370
    13
100
AcDbLine
 10
-808.2633007413567
 20
533.2458636743656
 30
0.0
 11
-267.9500366762248
 21
533.2458636743656
 31
0.0
  0
LINE
  5
113
330
1F
100
AcDbEntity
  8
Linia Izolacji - ARCHICAD
  6
IZOLACJA GRUBA
370
    13
100
AcDbLine
 10
-275.950036676224
 20
541.2458636743656
 30
0.0
 11
-808.2633007413567
 21
541.2458636743656
 31
0.0
  0
LINE
  5
114
330
1F
100
AcDbEntity
  8
0
  6
Continuous
370
    13
100
AcDbLine
 10
-808.2633007413567
 20
561.2458636743656
 30
0.0
 11
-295.9500366762235
 21
561.2458636743656
 31
0.0
  0
LINE
  5
115
330
1F
100
AcDbEntity
  8
0
  6
Przerywana
370
    13
100
AcDbLine
 10
-838.263300741356
 20
370.0000000000009
 30
0.0
 11
-1931.61827826589
 21
370.0000000000009
 31
0.0
  0
LINE
  5
116
330
1F
100
AcDbEntity
  8
0
  6
Przerywana
370
    13
100
AcDbLine
 10
-170.0000000003172
 20
370.0000000000009
 30
0.0
 11
-808.2633007413567
 21
370.0000000000009
 31
0.0
  0
LINE
  5
117
330
1F
100
AcDbEntity
  8
0
  6
Continuous
370
    13
100
AcDbLine
 10
-1795.432274582647
 20
1581.632778107226
 30
0.0
 11
-1662.469245642568
 21
1581.632778107226
 31
0.0
  0
LINE
  5
118
330
1F
100
AcDbEntity
  8
0
  6
Continuous
370
    13
100
AcDbLine
 10
-1795.432274582647
 20
1555.724427288517
 30
0.0
 11
-1751.970404544866
 21
1555.724427288517
 31
0.0
  0
LINE
  5
119
330
1F
100
AcDbEntity
  8
Linia Izolacji - ARCHICAD
  6
IZOLACJA GRUBA
370
    13
100
AcDbLine
 10
-1830.432274582648
 20
1594.554479869358
 30
0.0
 11
-1830.432274582648
 21
541.2458636743656
 31
0.0
  0
LINE
  5
11A
330
1F
100
AcDbEntity
  8
0
  6
Continuous
370
    35
100
AcDbLine
 10
-1795.431696413099
 20
591.3441285602156
 30
0.0
 11
-1810.431118221263
 21
591.3441285602156
 31
0.0
  0
LINE
  5
11B
330
1F
100
AcDbEntity
  8
0
  6
Continuous
370
    13
100
AcDbLine
 10
-1627.3685169118
 20
1447.469216392843
 30
0.0
 11
-1678.059308776628
 21
1442.8956244724
 31
0.0
  0
LINE
  5
11C
330
1F
100
AcDbEntity
  8
0
  6
Continuous
370
    13
100
AcDbLine
 10
-1633.161025703841
 20
1457.971476286837
 30
0.0
 11
-1661.111511687991
 21
1454.413530031605
 31
0.0
  0
LINE
  5
11D
330
1F
100
AcDbEntity
  8
0
  6
Continuous
370
    13
100
AcDbLine
 10
-1701.673493899054
 20
1558.074628756307
 30
0.0
 11
-1709.216400879458
 21
1511.960429091187
 31
0.0
  0
LINE
  5
11E
330
1F
100
AcDbEntity
  8
0
  6
Continuous
370
    13
100
AcDbLine
 10
-1691.64799513631
 20
1558.785803071304
 30
0.0
 11
-1699.334172648938
 21
1511.960429091187
 31
0.0
  0
LINE
  5
11F
330
1F
100
AcDbEntity
  8
0
  6
Continuous
370
    13
100
AcDbLine
 10
-1665.93804748415
 20
1552.145526897061
 30
0.0
 11
-1636.560894823858
 21
1552.145526897061
 31
0.0
  0
LINE
  5
120
330
1F
100
AcDbEntity
  8
0
  6
Continuous
370
    13
100
AcDbLine
 10
-1666.122728587609
 20
1558.785803071304
 30
0.0
 11
-1666.122728587609
 21
1552.145526897061
 31
0.0
  0
LINE
  5
121
330
1F
100
AcDbEntity
  8
0
  6
Continuous
370
    13
100
AcDbLine
 10
-1838.432274582647
 20
1559.722534385189
 30
0.0
 11
-1838.432274582647
 21
533.2458636743656
 31
0.0
  0
LINE
  5
122
330
1F
100
AcDbEntity
  8
0
  6
Continuous
370
    13
100
AcDbLine
 10
-1686.046068316013
 20
1597.692012022801
 30
0.0
 11
-1686.615646000461
 21
1581.632778107226
 31
0.0
  0
LINE
  5
123
330
1F
100
AcDbEntity
  8
0
  6
Continuous
370
    13
100
AcDbLine
 10
-1743.607200847424
 20
1558.785803071304
 30
0.0
 11
-1666.122728587609
 21
1558.785803071304
 31
0.0
  0
LINE
  5
124
330
1F
100
AcDbEntity
  8
0
  6
Continuous
370
    13
100
AcDbLine
 10
-1702.983345452853
 20
1597.692012022801
 30
0.0
 11
-1702.413767768405
 21
1581.632778107226
 31
0.0
  0
LINE
  5
125
330
1F
100
AcDbEntity
  8
0
  6
Continuous
370
    13
100
AcDbLine
 10
-1702.983345452853
 20
1597.692012022801
 30
0.0
 11
-1686.046068316016
 21
1597.692012022801
 31
0.0
  0
LINE
  5
126
330
1F
100
AcDbEntity
  8
0
  6
Continuous
370
    13
100
AcDbLine
 10
-1838.432274582647
 20
2768.671959614673
 30
0.0
 11
-1828.432274582645
 21
2768.671959614673
 31
0.0
  0
LINE
  5
127
330
1F
100
AcDbEntity
  8
0
  6
Continuous
370
    13
100
AcDbLine
 10
-310.9500366762241
 20
591.2458636743658
 30
0.0
 11
-295.9500366762235
 21
591.2458636743658
 31
0.0
  0
LINE
  5
128
330
1F
100
AcDbEntity
  8
0
  6
Continuous
370
    35
100
AcDbLine
 10
-295.9500366762235
 20
741.2458636743658
 30
0.0
 11
-267.951115967652
 21
741.2458636743658
 31
0.0
  0
LINE
  5
129
330
1F
100
AcDbEntity
  8
0
  6
Continuous
370
    13
100
AcDbLine
 10
-295.9500366762235
 20
741.2458636743658
 30
0.0
 11
-295.9500366762235
 21
561.2458636743656
 31
0.0
  0
LINE
  5
12A
330
1F
100
AcDbEntity
  8
0
  6
Continuous
370
    35
100
AcDbLine
 10
-310.9500366762241
 20
741.2458636743658
 30
0.0
 11
-310.9500366762241
 21
591.2458636743658
 31
0.0
  0
LINE
  5
12B
330
1F
100
AcDbEntity
  8
0
  6
Continuous
370
    13
100
AcDbLine
 10
-278.4013639051246
 20
553.8669999281901
 30
0.0
 11
-278.9736216018632
 21
553.8669999281901
 31
0.0
  0
LINE
  5
12C
330
1F
100
AcDbEntity
  8
0
  6
Continuous
370
    13
100
AcDbLine
 10
-275.6048644769671
 20
540.0668301813856
 30
0.0
 11
-274.9378150862036
 21
542.7350277444386
 31
0.0
  0
LINE
  5
12D
330
1F
100
AcDbEntity
  8
0
  6
Continuous
370
    13
100
AcDbLine
 10
-278.2730620400209
 20
540.4003548767674
 30
0.0
 11
-276.2719138677305
 21
542.7350277444386
 31
0.0
  0
LINE
  5
12E
330
1F
100
AcDbEntity
  8
0
  6
Continuous
370
    13
100
AcDbLine
 10
-275.6048644769671
 20
540.0668301813856
 30
0.0
 11
-276.2719138677305
 21
542.7350277444386
 31
0.0
  0
LINE
  5
12F
330
1F
100
AcDbEntity
  8
0
  6
Continuous
370
    13
100
AcDbLine
 10
-278.2730620400209
 20
540.4003548767674
 30
0.0
 11
-275.6048644769671
 21
540.0668301813856
 31
0.0
  0
LINE
  5
130
330
1F
100
AcDbEntity
  8
0
  6
Continuous
370
    13
100
AcDbLine
 10
-276.2719138677305
 20
542.7350277444386
 30
0.0
 11
-275.9383891723488
 21
541.4009289629122
 31
0.0
  0
LINE
  5
131
330
1F
100
AcDbEntity
  8
0
  6
Continuous
370
    13
100
AcDbLine
 10
-276.2719138677305
 20
542.7350277444386
 30
0.0
 11
-275.6048644769671
 21
540.0668301813856
 31
0.0
  0
LINE
  5
132
330
1F
100
AcDbEntity
  8
Linia Izolacji - ARCHICAD
  6
IZOLACJA GRUBA
370
    13
100
AcDbLine
 10
-275.950036676224
 20
541.2458636743656
 30
0.0
 11
-275.5135196025684
 21
741.0664213922792
 31
0.0
  0
LINE
  5
133
330
1F
100
AcDbEntity
  8
0
  6
Continuous
370
    35
100
AcDbLine
 10
-310.9500366762241
 20
741.2458636743658
 30
0.0
 11
-295.9500366762235
 21
741.2458636743658
 31
0.0
  0
LINE
  5
134
330
1F
100
AcDbEntity
  8
0
  6
Continuous
370
    13
100
AcDbLine
 10
-1688.982279188063
 20
1641.221710009276
 30
0.0
 11
-1688.982279188063
 21
1630.004646589571
 31
0.0
  0
LINE
  5
135
330
1F
100
AcDbEntity
  8
0
  6
Continuous
370
    13
100
AcDbLine
 10
-1469.737419214704
 20
599.3845736743657
 30
0.0
 11
-1469.737419214704
 21
736.4668982963886
 31
0.0
  0
LINE
  5
136
330
1F
100
AcDbEntity
  8
0
  6
Continuous
370
    13
100
AcDbLine
 10
-1469.737419214704
 20
576.2458636743658
 30
0.0
 11
-1475.937419214704
 21
599.3845736743657
 31
0.0
  0
LINE
  5
137
330
1F
100
AcDbEntity
  8
0
  6
Continuous
370
    13
100
AcDbLine
 10
-1469.737419214704
 20
576.2458636743658
 30
0.0
 11
-1463.537419214704
 21
599.3845736743657
 31
0.0
  0
LINE
  5
138
330
1F
100
AcDbEntity
  8
0
  6
Continuous
370
    13
100
AcDbLine
 10
-1475.937419214704
 20
599.3845736743657
 30
0.0
 11
-1463.537419214704
 21
599.3845736743657
 31
0.0
  0
HATCH
  5
139
330
1F
100
AcDbEntity
  8
0
  6
Continuous
370
    13
100
AcDbHatch
 10
0.0
 20
0.0
 30
0.0
210
0.0
220
0.0
230
1.0
  2
SOLID
 70
     1
 71
     0
 91
        1
 92
        2
 72
     0
 73
     1
 93
        3
 10
-1469.737419214704
 20
576.2458636743658
 10
-1475.937419214704
 20
599.3845736743657
 10
-1463.537419214704
 20
599.3845736743657
 97
        0
 75
     0
 76
     1
 98
        0
  0
LINE
  5
13A
330
1F
100
AcDbEntity
  8
Linia Izolacji - ARCHICAD
  6
IZOLACJA GRUBA
370
    13
100
AcDbLine
 10
-1830.432274582651
 20
1585.650634453682
 30
0.0
 11
-1810.432274582648
 21
1585.650634453682
 31
0.0
  0
LINE
  5
13B
330
1F
100
AcDbEntity
  8
Linia Izolacji - ARCHICAD
  6
IZOLACJA GRUBA
370
    13
100
AcDbLine
 10
-1830.432274582648
 20
1551.722534385189
 30
0.0
 11
-1810.432274582648
 21
1551.722534385189
 31
0.0
  0
LINE
  5
13C
330
1F
100
AcDbEntity
  8
0
  6
Continuous
 62
    22
370
    50
100
AcDbLine
 10
-1830.432274582648
 20
1551.722534385189
 30
0.0
 11
-1830.432274582648
 21
1491.804932065452
 31
0.0
  0
LINE
  5
13D
330
1F
100
AcDbEntity
  8
0
  6
Continuous
 62
    22
370
    50
100
AcDbLine
 10
-1830.432274582648
 20
1585.650634453682
 30
0.0
 11
-1830.432274582648
 21
1645.568236773419
 31
0.0
  0
LINE
  5
13E
330
1F
100
AcDbEntity
  8
0
  6
Continuous
 62
    22
370
    50
100
AcDbLine
 10
-1142.98218778696
 20
541.2458636743656
 30
0.0
 11
-1264.004061900326
 21
541.2458636743656
 31
0.0
  0
LINE
  5
13F
330
1F
100
AcDbEntity
  8
0
  6
Continuous
 62
    22
370
    50
100
AcDbLine
 10
-976.98218778696
 20
541.2458636743656
 30
0.0
 11
-889.0503251221713
 21
541.2458636743656
 31
0.0
  0
LINE
  5
140
330
1F
100
AcDbEntity
  8
@__WIDOCZNE
  6
Przerywana gęsta
370
    13
100
AcDbLine
 10
-310.5063122910103
 20
929.1893406510752
 30
0.0
 11
-170.0000000003172
 21
929.1893406510752
 31
0.0
  0
LINE
  5
141
330
1F
100
AcDbEntity
  8
0
  6
Continuous
370
    13
100
AcDbLine
 10
-267.9500366762248
 20
533.2458636743656
 30
0.0
 11
-267.9500366762284
 21
929.1893406510752
 31
0.0
  0
LINE
  5
142
330
1F
100
AcDbEntity
  8
0
  6
Przerywana
370
    13
100
AcDbLine
 10
-170.0000000003172
 20
374.9862421696676
 30
0.0
 11
-170.0000000003172
 21
929.1893406510752
 31
0.0
  0
LINE
  5
143
330
1F
100
AcDbEntity
  8
0
  6
Continuous
370
    35
100
AcDbLine
 10
-1150.432274582644
 20
576.2458636743658
 30
0.0
 11
-1780.432274582647
 21
576.2458636743658
 31
0.0
  0
LINE
  5
144
330
1F
100
AcDbEntity
  8
0
  6
Continuous
370
    35
100
AcDbLine
 10
-1780.432274582647
 20
576.2458636743658
 30
0.0
 11
-1780.432274582647
 21
561.2458636743656
 31
0.0
  0
LINE
  5
145
330
1F
100
AcDbEntity
  8
0
  6
Continuous
370
    35
100
AcDbLine
 10
-818.2632977143876
 20
576.2458636743658
 30
0.0
 11
-325.9500366762247
 21
576.2458636743658
 31
0.0
  0
LINE
  5
146
330
1F
100
AcDbEntity
  8
0
  6
Continuous
370
    13
100
AcDbLine
 10
-325.9500366762247
 20
576.2458636743658
 30
0.0
 11
-325.9500366762247
 21
561.2458636743656
 31
0.0
  0
LINE
  5
147
330
1F
100
AcDbEntity
  8
0
  6
Continuous
370
    13
100
AcDbLine
 10
-1810.432274582648
 20
2576.245863674365
 30
0.0
 11
-1795.432274582647
 21
2576.245863674365
 31
0.0
  0
LINE
  5
148
330
1F
100
AcDbEntity
  8
0
  6
Continuous
370
    13
100
AcDbLine
 10
-1795.432274582647
 20
1577.650634453682
 30
0.0
 11
-1810.432274582648
 21
1577.650634453682
 31
0.0
  0
LINE
  5
149
330
1F
100
AcDbEntity
  8
0
  6
Continuous
370
    13
100
AcDbLine
 10
-1545.440241625474
 20
2495.488089148192
 30
0.0
 11
-1531.708584120049
 21
2479.750295518955
 31
0.0
  0
LINE
  5
14A
330
1F
100
AcDbEntity
  8
0
  6
Przerywana
370
    13
100
AcDbLine
 10
-343.7320424979679
 20
1296.977729784073
 30
0.0
 11
-343.7320424979679
 21
1726.915283441145
 31
0.0
  0
LINE
  5
14B
330
1F
100
AcDbEntity
  8
0
  6
Przerywana
370
    13
100
AcDbLine
 10
-845.9810497521482
 20
1296.977729784073
 30
0.0
 11
-343.7320424979679
 21
1296.977729784073
 31
0.0
  0
LINE
  5
14C
330
1F
100
AcDbEntity
  8
0
  6
Continuous
370
    13
100
AcDbLine
 10
-645.981049752149
 20
1389.799560556183
 30
0.0
 11
-645.981049752149
 21
1296.977729784073
 31
0.0
  0
LINE
  5
14D
330
1F
100
AcDbEntity
  8
0
  6
Przerywana
370
    13
100
AcDbLine
 10
-845.9810497521482
 20
1726.915283441145
 30
0.0
 11
-845.9810497521482
 21
1296.977729784073
 31
0.0
  0
LINE
  5
14E
330
1F
100
AcDbEntity
  8
0
  6
Continuous
370
    13
100
AcDbLine
 10
-387.5239765527832
 20
1724.900163034742
 30
0.0
 11
-554.7801458650667
 21
1484.901675693697
 31
0.0
  0
CIRCLE
  5
14F
330
1F
100
AcDbEntity
  8
0
  6
Continuous
370
    13
100
AcDbCircle
 10
-557.6389308165055
 20
1480.799560556183
 30
0.0
 40
5.0
  0
HATCH
  5
150
330
1F
100
AcDbEntity
  8
0
  6
Continuous
370
    13
100
AcDbHatch
 10
0.0
 20
0.0
 30
0.0
210
0.0
220
0.0
230
1.0
  2
SOLID
 70
     1
 71
     0
 91
        1
 92
        2
 72
     0
 73
     1
 93
       16
 10
-552.6389308165055
 20
1480.799560556183
 10
-553.019533153949
 20
1482.712977718008
 10
-554.1033969105728
 20
1484.335094462115
 10
-555.7255136546801
 20
1485.418958218739
 10
-557.6389308165055
 20
1485.799560556183
 10
-559.552347978331
 20
1485.418958218739
 10
-561.1744647224383
 20
1484.335094462115
 10
-562.258328479062
 20
1482.712977718008
 10
-562.6389308165055
 20
1480.799560556183
 10
-562.258328479062
 20
1478.886143394357
 10
-561.1744647224383
 20
1477.26402665025
 10
-559.552347978331
 20
1476.180162893626
 10
-557.6389308165055
 20
1475.799560556183
 10
-555.7255136546801
 20
1476.180162893626
 10
-554.1033969105728
 20
1477.26402665025
 10
-553.019533153949
 20
1478.886143394357
 97
        0
 75
     0
 76
     1
 98
        0
  0
LINE
  5
151
330
1F
100
AcDbEntity
  8
0
  6
Continuous
370
    13
100
AcDbLine
 10
-645.981049752149
 20
1584.799560556184
 30
0.0
 11
-845.9810497521482
 21
1584.799560556184
 31
0.0
  0
LINE
  5
152
330
1F
100
AcDbEntity
  8
0
  6
Continuous
370
    13
100
AcDbLine
 10
-645.981049752149
 20
1564.799560556184
 30
0.0
 11
-845.9810497521482
 21
1564.799560556184
 31
0.0
  0
LINE
  5
153
330
1F
100
AcDbEntity
  8
0
  6
Continuous
370
    13
100
AcDbLine
 10
-645.981049752149
 20
1544.799560556186
 30
0.0
 11
-845.9810497521482
 21
1544.799560556186
 31
0.0
  0
LINE
  5
154
330
1F
100
AcDbEntity
  8
0
  6
Continuous
370
    13
100
AcDbLine
 10
-568.7306157737427
 20
1679.799560556183
 30
0.0
 11
-343.7320424979679
 21
1679.799560556183
 31
0.0
  0
LINE
  5
155
330
1F
100
AcDbEntity
  8
0
  6
Continuous
370
    13
100
AcDbLine
 10
-568.7306157737427
 20
1464.799560556183
 30
0.0
 11
-343.7320424979679
 21
1464.799560556183
 31
0.0
  0
LINE
  5
156
330
1F
100
AcDbEntity
  8
0
  6
Continuous
370
    13
100
AcDbLine
 10
-568.7306157737427
 20
1604.799560556182
 30
0.0
 11
-343.7320424979679
 21
1604.799560556182
 31
0.0
  0
LINE
  5
157
330
1F
100
AcDbEntity
  8
0
  6
Continuous
 62
    22
370
    50
100
AcDbLine
 10
-629.9810497521507
 20
1480.799560556183
 30
0.0
 11
-372.2770182145529
 21
1480.799560556183
 31
0.0
  0
LINE
  5
158
330
1F
100
AcDbEntity
  8
0
  6
Continuous
370
    13
100
AcDbLine
 10
-493.7306157737398
 20
1679.799560556183
 30
0.0
 11
-493.7306157737398
 21
1604.799560556182
 31
0.0
  0
LINE
  5
159
330
1F
100
AcDbEntity
  8
0
  6
Continuous
370
    13
100
AcDbLine
 10
-568.7306157737427
 20
1679.799560556183
 30
0.0
 11
-568.7306157737427
 21
1604.799560556182
 31
0.0
  0
LINE
  5
15A
330
1F
100
AcDbEntity
  8
0
  6
Continuous
370
    13
100
AcDbLine
 10
-645.981049752149
 20
1464.799560556183
 30
0.0
 11
-645.981049752149
 21
1604.799560556182
 31
0.0
  0
LINE
  5
15B
330
1F
100
AcDbEntity
  8
0
  6
Continuous
370
    13
100
AcDbLine
 10
-568.7306157737427
 20
1464.799560556183
 30
0.0
 11
-568.7306157737427
 21
1389.799560556183
 31
0.0
  0
LINE
  5
15C
330
1F
100
AcDbEntity
  8
0
  6
Continuous
370
    13
100
AcDbLine
 10
-645.981049752149
 20
1524.799560556186
 30
0.0
 11
-845.9810497521482
 21
1524.799560556186
 31
0.0
  0
LINE
  5
15D
330
1F
100
AcDbEntity
  8
0
  6
Continuous
370
    13
100
AcDbLine
 10
-645.981049752149
 20
1504.799560556188
 30
0.0
 11
-845.9810497521482
 21
1504.799560556188
 31
0.0
  0
LINE
  5
15E
330
1F
100
AcDbEntity
  8
0
  6
Continuous
370
    13
100
AcDbLine
 10
-645.981049752149
 20
1484.799560556188
 30
0.0
 11
-845.9810497521482
 21
1484.799560556188
 31
0.0
  0
LINE
  5
15F
330
1F
100
AcDbEntity
  8
0
  6
Continuous
370
    13
100
AcDbLine
 10
-845.9810497521482
 20
1604.799560556182
 30
0.0
 11
-568.7306157737427
 21
1604.799560556182
 31
0.0
  0
LINE
  5
160
330
1F
100
AcDbEntity
  8
0
  6
Continuous
370
    13
100
AcDbLine
 10
-845.9810497521482
 20
1679.799560556183
 30
0.0
 11
-568.7306157737427
 21
1679.799560556183
 31
0.0
  0
LINE
  5
161
330
1F
100
AcDbEntity
  8
0
  6
Continuous
370
    13
100
AcDbLine
 10
-845.9810497521482
 20
1464.799560556183
 30
0.0
 11
-568.7306157737427
 21
1464.799560556183
 31
0.0
  0
LINE
  5
162
330
1F
100
AcDbEntity
  8
0
  6
Continuous
370
    13
100
AcDbLine
 10
-845.9810497521482
 20
1389.799560556183
 30
0.0
 11
-568.7306157737427
 21
1389.799560556183
 31
0.0
  0
LINE
  5
163
330
1F
100
AcDbEntity
  8
0
  6
Continuous
370
    13
100
AcDbLine
 10
-460.7063726770339
 20
1723.196490074281
 30
0.0
 11
-525.9272529988011
 21
1629.61003114343
 31
0.0
  0
CIRCLE
  5
164
330
1F
100
AcDbEntity
  8
0
  6
Continuous
370
    13
100
AcDbCircle
 10
-528.7860379502399
 20
1625.507916005915
 30
0.0
 40
5.0
  0
HATCH
  5
165
330
1F
100
AcDbEntity
  8
0
  6
Continuous
370
    13
100
AcDbHatch
 10
0.0
 20
0.0
 30
0.0
210
0.0
220
0.0
230
1.0
  2
SOLID
 70
     1
 71
     0
 91
        1
 92
        2
 72
     0
 73
     1
 93
       16
 10
-523.7860379502399
 20
1625.507916005915
 10
-524.1666402876834
 20
1627.421333167741
 10
-525.2505040443071
 20
1629.043449911848
 10
-526.8726207884145
 20
1630.127313668472
 10
-528.7860379502399
 20
1630.507916005915
 10
-530.6994551120654
 20
1630.127313668472
 10
-532.3215718561727
 20
1629.043449911848
 10
-533.4054356127964
 20
1627.421333167741
 10
-533.7860379502399
 20
1625.507916005915
 10
-533.4054356127964
 20
1623.59449884409
 10
-532.3215718561727
 20
1621.972382099983
 10
-530.6994551120654
 20
1620.888518343359
 10
-528.7860379502399
 20
1620.507916005915
 10
-526.8726207884145
 20
1620.888518343359
 10
-525.2505040443071
 20
1621.972382099983
 10
-524.1666402876834
 20
1623.59449884409
 97
        0
 75
     0
 76
     1
 98
        0
  0
LINE
  5
166
330
1F
100
AcDbEntity
  8
0
  6
Continuous
370
    13
100
AcDbLine
 10
-606.3279027893907
 20
1725.441763038525
 30
0.0
 11
-563.9899193806217
 21
1664.690329970587
 31
0.0
  0
CIRCLE
  5
167
330
1F
100
AcDbEntity
  8
0
  6
Continuous
370
    13
100
AcDbCircle
 10
-561.1311344291829
 20
1660.588214833072
 30
0.0
 40
5.0
  0
HATCH
  5
168
330
1F
100
AcDbEntity
  8
0
  6
Continuous
370
    13
100
AcDbHatch
 10
0.0
 20
0.0
 30
0.0
210
0.0
220
0.0
230
1.0
  2
SOLID
 70
     1
 71
     0
 91
        1
 92
        2
 72
     0
 73
     1
 93
       16
 10
-556.1311344291829
 20
1660.588214833072
 10
-556.5117367666264
 20
1662.501631994898
 10
-557.5956005232501
 20
1664.123748739005
 10
-559.2177172673574
 20
1665.207612495629
 10
-561.1311344291829
 20
1665.588214833072
 10
-563.0445515910084
 20
1665.207612495629
 10
-564.6666683351157
 20
1664.123748739005
 10
-565.7505320917394
 20
1662.501631994898
 10
-566.1311344291829
 20
1660.588214833072
 10
-565.7505320917394
 20
1658.674797671247
 10
-564.6666683351157
 20
1657.05268092714
 10
-563.0445515910084
 20
1655.968817170516
 10
-561.1311344291829
 20
1655.588214833072
 10
-559.2177172673574
 20
1655.968817170516
 10
-557.5956005232501
 20
1657.05268092714
 10
-556.5117367666264
 20
1658.674797671247
 97
        0
 75
     0
 76
     1
 98
        0
  0
LINE
  5
169
330
1F
100
AcDbEntity
  8
0
  6
Continuous
370
    13
100
AcDbLine
 10
-708.444138268666
 20
1725.920514302553
 30
0.0
 11
-665.7725106633778
 21
1664.690329970587
 31
0.0
  0
CIRCLE
  5
16A
330
1F
100
AcDbEntity
  8
0
  6
Continuous
370
    13
100
AcDbCircle
 10
-662.913725711939
 20
1660.588214833072
 30
0.0
 40
5.0
  0
HATCH
  5
16B
330
1F
100
AcDbEntity
  8
0
  6
Continuous
370
    13
100
AcDbHatch
 10
0.0
 20
0.0
 30
0.0
210
0.0
220
0.0
230
1.0
  2
SOLID
 70
     1
 71
     0
 91
        1
 92
        2
 72
     0
 73
     1
 93
       16
 10
-657.913725711939
 20
1660.588214833072
 10
-658.2943280493826
 20
1662.501631994898
 10
-659.3781918060063
 20
1664.123748739005
 10
-661.0003085501136
 20
1665.207612495629
 10
-662.913725711939
 20
1665.588214833072
 10
-664.8271428737645
 20
1665.207612495629
 10
-666.4492596178718
 20
1664.123748739005
 10
-667.5331233744955
 20
1662.501631994898
 10
-667.913725711939
 20
1660.588214833072
 10
-667.5331233744955
 20
1658.674797671247
 10
-666.4492596178718
 20
1657.05268092714
 10
-664.8271428737645
 20
1655.968817170516
 10
-662.913725711939
 20
1655.588214833072
 10
-661.0003085501136
 20
1655.968817170516
 10
-659.3781918060063
 20
1657.05268092714
 10
-658.2943280493826
 20
1658.674797671247
 97
        0
 75
     0
 76
     1
 98
        0
  0
LINE
  5
16D
330
1F
100
AcDbEntity
  8
0
  6
Kreski i kropki
370
    13
100
AcDbLine
 10
-1795.432274582647
 20
1999.687040438299
 30
0.0
 11
-1788.775759845709
 21
1999.687040438299
 31
0.0
  0
LINE
  5
16E
330
1F
100
AcDbEntity
  8
0
  6
Continuous
370
    13
100
AcDbLine
 10
-1788.775759845709
 20
2484.182877394569
 30
0.0
 11
-1795.432274582647
 21
2484.182877394569
 31
0.0
  0
LINE
  5
16F
330
1F
100
AcDbEntity
  8
0
  6
Continuous
370
    13
100
AcDbLine
 10
-1788.775759845709
 20
2446.761208882868
 30
0.0
 11
-1795.432274582647
 21
2446.761208882868
 31
0.0
  0
LINE
  5
170
330
1F
100
AcDbEntity
  8
0
  6
Kreski i kropki
370
    13
100
AcDbLine
 10
-1795.432274582647
 20
2037.046266990834
 30
0.0
 11
-1788.775759845709
 21
2037.046266990834
 31
0.0
  0
LINE
  5
171
330
1F
100
AcDbEntity
  8
0
  6
Continuous
370
    35
100
AcDbLine
 10
-1810.432274582648
 20
2576.245863674365
 30
0.0
 11
-1810.432274582648
 21
1577.650634453682
 31
0.0
  0
LINE
  5
172
330
1F
100
AcDbEntity
  8
0
  6
Continuous
370
    35
100
AcDbLine
 10
-1810.432286458885
 20
1559.722534385189
 30
0.0
 11
-1810.432286458885
 21
561.2458636743656
 31
0.0
  0
LINE
  5
173
330
1F
100
AcDbEntity
  8
0
  6
Continuous
370
    35
100
AcDbLine
 10
-1810.431157372874
 20
561.2458636743656
 30
0.0
 11
-1150.432274582644
 21
561.2458636743655
 31
0.0
  0
LINE
  5
174
330
1F
100
AcDbEntity
  8
0
  6
Continuous
370
    35
100
AcDbLine
 10
-969.5321121151333
 20
561.2458517981289
 30
0.0
 11
-838.263300741356
 21
561.2458517981289
 31
0.0
  0
LINE
  5
175
330
1F
100
AcDbEntity
  8
0
  6
Continuous
370
    35
100
AcDbLine
 10
-818.263297714388
 20
561.2458742551147
 30
0.0
 11
-295.9500366762235
 21
561.2458742551147
 31
0.0
  0
LINE
  5
176
330
1F
100
AcDbEntity
  8
0
  6
Continuous
370
    35
100
AcDbLine
 10
-295.950051819017
 20
561.2458820028114
 30
0.0
 11
-295.950051819017
 21
741.2458548826721
 31
0.0
  0
LINE
  5
177
330
1F
100
AcDbEntity
  8
0
  6
Continuous
370
    35
100
AcDbLine
 10
-1795.432274582647
 20
2418.245863674365
 30
0.0
 11
-1810.432274582648
 21
2418.245863674365
 31
0.0
  0
LINE
  5
178
330
1F
100
AcDbEntity
  8
0
  6
Continuous
370
    35
100
AcDbLine
 10
-1795.432274582647
 20
2426.245863674365
 30
0.0
 11
-1810.432274582648
 21
2426.245863674365
 31
0.0
  0
LINE
  5
179
330
1F
100
AcDbEntity
  8
0
  6
Continuous
370
    35
100
AcDbLine
 10
-1795.432274582647
 20
1810.245863674366
 30
0.0
 11
-1810.432274582648
 21
1810.245863674366
 31
0.0
  0
LINE
  5
17A
330
1F
100
AcDbEntity
  8
0
  6
Continuous
370
    35
100
AcDbLine
 10
-1795.432274582647
 20
1802.245863674366
 30
0.0
 11
-1810.432274582648
 21
1802.245863674366
 31
0.0
  0
LINE
  5
17B
330
1F
100
AcDbEntity
  8
0
  6
Continuous
370
    35
100
AcDbLine
 10
-1422.432274578051
 20
576.2468315690966
 30
0.0
 11
-1422.432274578051
 21
561.2468315690966
 31
0.0
  0
LINE
  5
17C
330
1F
100
AcDbEntity
  8
0
  6
Continuous
370
    35
100
AcDbLine
 10
-1414.43227457814
 20
576.2466013481632
 30
0.0
 11
-1414.43227457814
 21
561.2466013481626
 31
0.0
  0
LINE
  5
17D
330
1F
100
AcDbEntity
  8
0
  6
Continuous
370
    35
100
AcDbLine
 10
-511.9500366762248
 20
576.2458636743658
 30
0.0
 11
-511.9500366762248
 21
561.2458636743656
 31
0.0
  0
LINE
  5
17E
330
1F
100
AcDbEntity
  8
0
  6
Continuous
370
    35
100
AcDbLine
 10
-518.9500366762254
 20
576.2458636743658
 30
0.0
 11
-518.9500366762254
 21
561.2458636743656
 31
0.0
  0
LINE
  5
17F
330
1F
100
AcDbEntity
  8
0
  6
Continuous
370
    35
100
AcDbLine
 10
-1795.432274582647
 20
1376.245863674365
 30
0.0
 11
-1810.432274582648
 21
1376.245863674365
 31
0.0
  0
LINE
  5
180
330
1F
100
AcDbEntity
  8
0
  6
Continuous
370
    35
100
AcDbLine
 10
-1795.432274582647
 20
1384.245863674365
 30
0.0
 11
-1810.432274582648
 21
1384.245863674365
 31
0.0
  0
LINE
  5
181
330
1F
100
AcDbEntity
  8
0
  6
Continuous
370
    35
100
AcDbLine
 10
-1795.432274582647
 20
776.2458636743652
 30
0.0
 11
-1810.432274582648
 21
776.2458636743652
 31
0.0
  0
LINE
  5
182
330
1F
100
AcDbEntity
  8
0
  6
Continuous
370
    35
100
AcDbLine
 10
-1795.432274582647
 20
784.2458636743652
 30
0.0
 11
-1810.432274582648
 21
784.2458636743652
 31
0.0
  0
LWPOLYLINE
  5
183
330
1F
100
AcDbEntity
  8
@__WIDOCZNE
  6
Continuous
370
    13
100
AcDbPolyline
 90
        4
 70
   129
 43
0.0
 10
-1950.000000000318
 20
2870.0
 10
-149.9999999999089
 20
2870.0
 10
-150.0000000001367
 20
0.0000000000015543
 10
-1950.000000000318
 20
-0.000000000000222
  0
LWPOLYLINE
  5
184
330
1F
100
AcDbEntity
  8
@__WIDOCZNE
  6
Continuous
370
    13
100
AcDbPolyline
 90
        4
 70
   129
 43
0.0
 10
-100.0000000000001
 20
-49.99999999999825
 10
-2200.000000000363
 20
-49.99999999999825
 10
-2200.000000000363
 20
2920.000000000002
 10
-100.0000000000001
 20
2920.000000000002
  0
LWPOLYLINE
  5
185
330
1F
100
AcDbEntity
  8
@__WIDOCZNE
  6
Continuous
370
    13
100
AcDbPolyline
 90
        2
 70
   129
 43
0.0
 10
-150.0000000001367
 20
60.00000000000028
 10
-1414.269721801408
 20
60.00000000000028
  0
LWPOLYLINE
  5
186
330
1F
100
AcDbEntity
  8
@__WIDOCZNE
  6
Continuous
370
    13
100
AcDbPolyline
 90
        4
 70
   129
 43
0.0
 10
-1950.000000000318
 20
220.0000000000004
 10
-1950.000000000318
 20
-0.000000000000222
 10
-150.0000000001367
 20
0.0000000000015543
 10
-150.0000000001367
 20
220.0000000000004
  0
LWPOLYLINE
  5
187
330
1F
100
AcDbEntity
  8
@__WIDOCZNE
  6
Continuous
370
    13
100
AcDbPolyline
 90
        2
 70
   128
 43
0.0
 10
-290.0000000000094
 20
170.0000000000015
 10
-290.0000000000094
 20
220.0000000000004
  0
LWPOLYLINE
  5
188
330
1F
100
AcDbEntity
  8
@__WIDOCZNE
  6
Continuous
370
    13
100
AcDbPolyline
 90
        2
 70
   128
 43
0.0
 10
-150.0000000001367
 20
170.0000000000015
 10
-460.0000000000821
 20
170.0000000000015
  0
LWPOLYLINE
  5
189
330
1F
100
AcDbEntity
  8
@__WIDOCZNE
  6
Continuous
370
    13
100
AcDbPolyline
 90
        2
 70
   128
 43
0.0
 10
-460.0000000000821
 20
60.00000000000028
 10
-460.0000000000821
 20
220.0000000000004
  0
LWPOLYLINE
  5
18A
330
1F
100
AcDbEntity
  8
@__WIDOCZNE
  6
Continuous
370
    13
100
AcDbPolyline
 90
        2
 70
   128
 43
0.0
 10
-1414.269721801408
 20
220.0000000000004
 10
-1414.269721801408
 20
-0.000000000000222
  0
LWPOLYLINE
  5
18B
330
1F
100
AcDbEntity
  8
0
  6
Continuous
 62
    22
370
    50
100
AcDbPolyline
 90
        3
 70
   128
 43
0.0
 10
-275.950036676224
 20
627.6404157278047
 10
-275.950036676224
 20
541.2458636743656
 10
-362.3445887296637
 20
541.2458636743656
  0
LWPOLYLINE
  5
18C
330
1F
100
AcDbEntity
  8
0
  6
Continuous
 62
    22
370
    50
100
AcDbPolyline
 90
        3
 70
   128
 43
0.0
 10
-1830.432274582648
 20
627.6404157278047
 10
-1830.432274582648
 20
541.2458636743656
 10
-1744.037722529208
 20
541.2458636743656
  0
LWPOLYLINE
  5
18D
330
1F
100
AcDbEntity
  8
@__WIDOCZNE
  6
Continuous
370
    13
100
AcDbPolyline
 90
        2
 70
   128
 43
0.0
 10
-1660.000000000319
 20
335.3786023929262
 10
-1660.000000000319
 20
1277.563838629801
  0
LWPOLYLINE
  5
18E
330
1F
100
AcDbEntity
  8
@__WIDOCZNE
  6
Continuous
370
    13
100
AcDbPolyline
 90
        3
 70
   128
 43
0.0
 10
-1878.698613107643
 20
1766.92920696308
 10
-1660.000000000319
 20
1766.92920696308
 10
-1660.000000000319
 20
2206.929568449232
  0
LWPOLYLINE
  5
18F
330
1F
100
AcDbEntity
  8
0
  6
Continuous
370
    50
100
AcDbPolyline
 90
        9
 70
   128
 43
0.0
 10
-645.981049752149
 20
1296.977729784073
 10
-645.981049752149
 20
1389.799560556183
 10
-568.7306157737427
 20
1389.799560556183
 10
-568.7306157737427
 20
1464.799560556183
 10
-645.981049752149
 20
1464.799560556183
 10
-645.981049752149
 20
1604.799560556182
 10
-568.7306157737427
 20
1604.799560556182
 10
-568.7306157737427
 20
1679.799560556183
 10
-343.7320424979679
 20
1679.799560556183
  0
LWPOLYLINE
  5
190
330
1F
100
AcDbEntity
  8
@__WIDOCZNE
  6
Continuous
370
    13
100
AcDbPolyline
 90
        4
 70
   128
 43
0.0
 10
-1711.918304336099
 20
2381.436999850308
 10
-1711.918304336099
 20
2029.730021460563
 42
-0.414213562373095
 10
-1728.918304336099
 20
2012.730021460563
 10
-1743.309144664031
 20
2012.730021460563
  0
LWPOLYLINE
  5
191
330
1F
100
AcDbEntity
  8
@__WIDOCZNE
  6
Continuous
370
    13
100
AcDbPolyline
 90
        4
 70
   128
 43
0.0
 10
-1723.918304336099
 20
2380.245603871169
 10
-1723.918304336099
 20
2029.730021460563
 42
-0.414213562373095
 10
-1728.918304336099
 20
2024.730021460563
 10
-1743.309144664031
 20
2024.730021460563
  0
LWPOLYLINE
  5
192
330
1F
100
AcDbEntity
  8
@__WIDOCZNE
  6
Continuous
370
    13
100
AcDbPolyline
 90
        4
 70
   128
 43
0.0
 10
-1788.775759845709
 20
2471.744046240119
 10
-1728.918304336099
 20
2471.744046240119
 42
-0.414213562373095
 10
-1711.918304336099
 20
2454.744046240119
 10
-1711.918304336099
 20
2403.0671859933
  0
LWPOLYLINE
  5
193
330
1F
100
AcDbEntity
  8
@__WIDOCZNE
  6
Continuous
370
    13
100
AcDbPolyline
 90
        4
 70
   128
 43
0.0
 10
-1788.775759845709
 20
2459.744046240119
 10
-1728.918304336099
 20
2459.744046240119
 42
-0.414213562373095
 10
-1723.918304336099
 20
2454.744046240119
 10
-1723.918304336099
 20
2400.669693688458
  0
ARC
  5
194
330
1F
100
AcDbEntity
  8
0
  6
Continuous
370
    35
100
AcDbCircle
 10
-1764.51828719694
 20
2648.147876445826
 30
0.0
 40
78.2660466401036
100
AcDbArc
 50
199.1969226284295
 51
246.7349033129079
  0
ARC
  5
195
330
1F
100
AcDbEntity
  8
0
  6
Continuous
370
    13
100
AcDbCircle
 10
-1628.875061656884
 20
2379.776908915325
 30
0.0
 40
65.08382054285704
100
AcDbArc
 50
113.340733889466
 51
127.2044899357878
  0
ARC
  5
196
330
1F
100
AcDbEntity
  8
0
  6
Continuous
370
    13
100
AcDbCircle
 10
-1721.911749588663
 20
2404.186008878886
 30
0.0
 40
4.045795907624719
100
AcDbArc
 50
218.5528870447654
 51
353.4561776841993
  0
ELLIPSE
  5
197
330
1F
100
AcDbEntity
  8
0
  6
Continuous
370
    13
100
AcDbEllipse
 10
-1700.201352550898
 20
2407.083292050357
 30
0.0
 11
4.91714306080133
 21
-4.062186343066433
 31
0.0
210
0.0
220
0.0
230
0.9999999999999998
 40
0.2302158273381172
 41
2.478131093651931
 42
7.096372205846604
  0
ARC
  5
198
330
1F
100
AcDbEntity
  8
0
  6
Continuous
370
    13
100
AcDbCircle
 10
-1692.153039918387
 20
2331.753889809348
 30
0.0
 40
51.24752086773861
100
AcDbArc
 50
128.4214739533766
 51
176.5772342581692
  0
ARC
  5
199
330
1F
100
AcDbEntity
  8
0
  6
Continuous
370
    13
100
AcDbCircle
 10
-1699.125726139246
 20
2335.568008767766
 30
0.0
 40
51.24752086773861
100
AcDbArc
 50
128.4214739533766
 51
176.5772342581692
  0
ARC
  5
19A
330
1F
100
AcDbEntity
  8
0
  6
Continuous
370
    13
100
AcDbCircle
 10
-1560.107394582331
 20
2464.833518713504
 30
0.0
 40
33.9827612826728
100
AcDbArc
 50
64.43049583103566
 51
116.1566289094122
  0
ELLIPSE
  5
19B
330
1F
100
AcDbEntity
  8
0
  6
Continuous
370
    13
100
AcDbEllipse
 10
-1558.273148807344
 20
2467.760795164814
 30
0.0
 11
26.05662638516738
 21
14.1029453490322
 31
0.0
210
0.0
220
0.0
230
0.9999999999999998
 40
0.1001750832503704
 41
5.902567741850839
 42
9.788599124962431
  0
ARC
  5
19C
330
1F
100
AcDbEntity
  8
0
  6
Continuous
370
    13
100
AcDbCircle
 10
-1595.842406171371
 20
2456.604410587373
 30
0.0
 40
7.151995614589304
100
AcDbArc
 50
25.58069133291854
 51
101.8913797540546
  0
ARC
  5
19D
330
1F
100
AcDbEntity
  8
0
  6
Continuous
370
    13
100
AcDbCircle
 10
-1592.166932431485
 20
2321.328454017161
 30
0.0
 40
149.4831445995461
100
AcDbArc
 50
116.1124740747135
 51
123.8002919898385
  0
ARC
  5
19E
330
1F
100
AcDbEntity
  8
0
  6
Continuous
370
    13
100
AcDbCircle
 10
-1730.895562982368
 20
2387.256312963383
 30
0.0
 40
4.045795907624719
100
AcDbArc
 50
308.8261385233396
 51
86.50066498395292
  0
ARC
  5
19F
330
1F
100
AcDbEntity
  8
0
  6
Continuous
370
    13
100
AcDbCircle
 10
-1705.336026821111
 20
2394.653588297566
 30
0.0
 40
4.045795907624719
100
AcDbArc
 50
125.7816512235752
 51
263.4561776842007
  0
ARC
  5
1A0
330
1F
100
AcDbEntity
  8
0
  6
Continuous
370
    13
100
AcDbCircle
 10
-1718.214084040226
 20
2391.294565512429
 30
0.0
 40
12.43453587931049
100
AcDbArc
 50
215.3268035072644
 51
268.9095762592396
  0
ARC
  5
1A1
330
1F
100
AcDbEntity
  8
0
  6
Continuous
370
    13
100
AcDbCircle
 10
-1718.214084040226
 20
2391.294565512429
 30
0.0
 40
12.43453587931049
100
AcDbArc
 50
303.3727399482717
 51
356.9555127002847
  0
ARC
  5
1A2
330
1F
100
AcDbEntity
  8
0
  6
Continuous
370
    13
100
AcDbCircle
 10
-1718.214084040226
 20
2391.294565512429
 30
0.0
 40
12.43453587931049
100
AcDbArc
 50
32.28231620752081
 51
88.5171757291749
  0
ARC
  5
1A3
330
1F
100
AcDbEntity
  8
0
  6
Continuous
370
    13
100
AcDbCircle
 10
-1714.447193211753
 20
2378.278964768055
 30
0.0
 40
4.045795907624719
100
AcDbArc
 50
38.82613852334746
 51
171.7102907272414
  0
ARC
  5
1A4
330
1F
100
AcDbEntity
  8
0
  6
Continuous
370
    13
100
AcDbCircle
 10
-1718.214084040226
 20
2391.294565512429
 30
0.0
 40
12.43453587931049
100
AcDbArc
 50
123.491888999812
 51
180.0
  0
ARC
  5
1A5
330
1F
100
AcDbEntity
  8
0
  6
Continuous
370
    13
100
AcDbCircle
 10
-1289.165213963958
 20
1797.820413836032
 30
0.0
 40
461.836512636041
100
AcDbArc
 50
183.1995192082583
 51
200.5407555048805
  0
ARC
  5
1A6
330
1F
100
AcDbEntity
  8
0
  6
Continuous
370
    13
100
AcDbCircle
 10
-945.5501680163583
 20
364.3188309207641
 30
0.0
 40
89.58214059746663
100
AcDbArc
 50
86.31347123482283
 51
116.115190554277
  0
ARC
  5
1A7
330
1F
100
AcDbEntity
  8
0
  6
Continuous
370
    13
100
AcDbCircle
 10
-945.5501680163583
 20
364.3188309207641
 30
0.0
 40
39.5821405974657
100
AcDbArc
 50
84.70698120317599
 51
139.5508254753896
  0
ARC
  5
1A8
330
1F
100
AcDbEntity
  8
0
  6
Continuous
370
    13
100
AcDbCircle
 10
-1263.246005522807
 20
1808.153859459915
 30
0.0
 40
481.5718475419429
100
AcDbArc
 50
184.5365237341481
 51
200.7204939269023
  0
ARC
  5
1A9
330
1F
100
AcDbEntity
  8
0
  6
Continuous
370
    13
100
AcDbCircle
 10
-1621.613793671446
 20
1507.820159195484
 30
0.0
 40
77.83057974353198
100
AcDbArc
 50
176.9506585241514
 51
203.0250713095607
  0
ARC
  5
1AA
330
1F
100
AcDbEntity
  8
0
  6
Continuous
370
    13
100
AcDbCircle
 10
-1641.308883369745
 20
1487.506633636535
 30
0.0
 40
63.19161295094511
100
AcDbArc
 50
200.4794992602466
 51
218.717806668646
  0
ARC
  5
1AB
330
1F
100
AcDbEntity
  8
0
  6
Continuous
370
    13
100
AcDbCircle
 10
-1607.02954415813
 20
1506.978942625281
 30
0.0
 40
102.3082054089273
100
AcDbArc
 50
177.2091090024909
 51
203.9808763404195
  0
ARC
  5
1AC
330
1F
100
AcDbEntity
  8
0
  6
Continuous
370
    13
100
AcDbCircle
 10
-1619.75706953282
 20
1495.497289309972
 30
0.0
 40
75.68767692946714
100
AcDbArc
 50
193.8508788426248
 51
205.8266817807198
  0
ARC
  5
1AD
330
1F
100
AcDbEntity
  8
0
  6
Continuous
370
    13
100
AcDbCircle
 10
-1669.215120465153
 20
1477.653471767027
 30
0.0
 40
24.03036485966993
100
AcDbArc
 50
219.0206947360567
 51
254.6748841415038
  0
ARC
  5
1AE
330
1F
100
AcDbEntity
  8
0
  6
Continuous
370
    13
100
AcDbCircle
 10
-1662.469245642568
 20
1555.724427288517
 30
0.0
 40
25.90835081871035
100
AcDbArc
 50
352.0599464948177
 51
90.0
  0
ARC
  5
1AF
330
1F
100
AcDbEntity
  8
0
  6
Continuous
370
    13
100
AcDbCircle
 10
-1659.239490910731
 20
1475.981267931689
 30
0.0
 40
47.08832305374792
100
AcDbArc
 50
3.092676222464292
 51
41.89674524401499
  0
ARC
  5
1B0
330
1F
100
AcDbEntity
  8
0
  6
Continuous
370
    13
100
AcDbCircle
 10
-1650.316468611886
 20
1479.491571216274
 30
0.0
 40
47.08832305374792
100
AcDbArc
 50
3.092676222464292
 51
42.94138762991687
  0
ARC
  5
1B1
330
1F
100
AcDbEntity
  8
0
  6
Continuous
370
    13
100
AcDbCircle
 10
-1636.025877101338
 20
1479.162752839422
 30
0.0
 40
32.85468213119745
100
AcDbArc
 50
285.2781153787219
 51
5.010178871782262
  0
ARC
  5
1B2
330
1F
100
AcDbEntity
  8
0
  6
Continuous
370
    13
100
AcDbCircle
 10
-1635.253406104503
 20
1481.04866615284
 30
0.0
 40
23.17185249074074
100
AcDbArc
 50
275.1807720538511
 51
353.7393520192695
  0
ARC
  5
1B3
330
1F
100
AcDbEntity
  8
0
  6
Continuous
370
    13
100
AcDbCircle
 10
-1676.089789069503
 20
1465.795159186793
 30
0.0
 40
22.98407487832582
100
AcDbArc
 50
230.8100994277108
 51
265.0842604154177
  0
ARC
  5
1B4
330
1F
100
AcDbEntity
  8
0
  6
Continuous
370
    13
100
AcDbCircle
 10
-1667.911148313546
 20
1550.964982392466
 30
0.0
 40
96.7905884434597
100
AcDbArc
 50
265.463780708303
 51
274.0284045417289
  0
ARC
  5
1B5
330
1F
100
AcDbEntity
  8
0
  6
Continuous
370
    13
100
AcDbCircle
 10
-1751.970404544866
 20
1568.678602697872
 30
0.0
 40
12.95417540935437
100
AcDbArc
 50
270.0
 51
90.0
  0
ARC
  5
1B6
330
1F
100
AcDbEntity
  8
0
  6
Continuous
370
    35
100
AcDbCircle
 10
-321.1283573391974
 20
797.8467575261992
 30
0.0
 40
57.50877668969167
100
AcDbArc
 50
280.1943250002066
 51
337.6230428135233
  0
ARC
  5
1B7
330
1F
100
AcDbEntity
  8
0
  6
Continuous
370
    13
100
AcDbCircle
 10
-1679.783168552155
 20
1485.462543385758
 30
0.0
 40
156.0305791303183
100
AcDbArc
 50
93.32990477914096
 51
133.8000272559614
  0
ARC
  5
1B8
330
1F
100
AcDbEntity
  8
0
  6
Continuous
370
    13
100
AcDbCircle
 10
-1680.740358455743
 20
1535.643881168454
 30
0.0
 40
94.72002590908492
100
AcDbArc
 50
94.99181886362025
 51
138.7644606405828
  0
ARC
  5
1B9
330
1F
100
AcDbEntity
  8
0
  6
Continuous
370
    13
100
AcDbCircle
 10
-1376.1959371454
 20
1798.34852198731
 30
0.0
 40
373.7292006452263
100
AcDbArc
 50
207.4002056679889
 51
212.47309333694
  0
ARC
  5
1BA
330
1F
100
AcDbEntity
  8
0
  6
Continuous
370
    13
100
AcDbCircle
 10
-1382.260379505204
 20
1792.284079627505
 30
0.0
 40
373.7292006452263
100
AcDbArc
 50
206.8228332143222
 51
211.3776506860836
  0
ARC
  5
1BB
330
1F
100
AcDbEntity
  8
0
  6
Continuous
370
    13
100
AcDbCircle
 10
-1376.1959371454
 20
1798.34852198731
 30
0.0
 40
373.7292006452263
100
AcDbArc
 50
221.2064205701631
 51
230.1157813479433
  0
ARC
  5
1BC
330
1F
100
AcDbEntity
  8
0
  6
Continuous
370
    13
100
AcDbCircle
 10
-1376.1959371454
 20
1798.34852198731
 30
0.0
 40
373.7292006452263
100
AcDbArc
 50
213.9191694335452
 51
215.4416616491896
  0
ARC
  5
1BD
330
1F
100
AcDbEntity
  8
0
  6
Continuous
370
    13
100
AcDbCircle
 10
-1382.260379505204
 20
1792.284079627505
 30
0.0
 40
373.7292006452263
100
AcDbArc
 50
218.665992101075
 51
229.6588364862631
  0
ARC
  5
1BE
330
1F
100
AcDbEntity
  8
0
  6
Continuous
370
    35
100
AcDbCircle
 10
-328.4629404062927
 20
593.7587674044325
 30
0.0
 40
17.6922718217638
100
AcDbArc
 50
278.1655608717068
 51
351.834439128297
  0
ARC
  5
1BF
330
1F
100
AcDbEntity
  8
0
  6
Continuous
370
    35
100
AcDbCircle
 10
-1777.919370852579
 20
593.7587674044325
 30
0.0
 40
17.6922718217638
100
AcDbArc
 50
188.1655608717025
 51
261.8344391282932
  0
ELLIPSE
  5
1C0
330
1F
100
AcDbEntity
  8
0
  6
Continuous
370
    13
100
AcDbEllipse
 10
-1557.621380253266
 20
2465.725197169486
 30
0.0
 11
26.05662638516738
 21
14.1029453490322
 31
0.0
210
0.0
220
0.0
230
0.9999999999999998
 40
0.1001750832503704
 41
0.0
 42
6.283185307179586
  0
CIRCLE
  5
1C1
330
1F
100
AcDbEntity
  8
0
  6
Continuous
370
    13
100
AcDbCircle
 10
-1718.214084040226
 20
2391.294565512429
 30
0.0
 40
5.058128111267299
  0
CIRCLE
  5
1C2
330
1F
100
AcDbEntity
  8
0
  6
Przerywana
370
    25
100
AcDbCircle
 10
-969.8606410503044
 20
554.3456082129801
 30
0.0
 40
73.72293492738041
  0
ARC
  5
1C3
330
1F
100
AcDbEntity
  8
0
  6
Continuous
370
    13
100
AcDbCircle
 10
-1560.107394582331
 20
2464.833518713504
 30
0.0
 40
33.9827612826728
100
AcDbArc
 50
64.43049583103566
 51
116.1566289094122
  0
CIRCLE
  5
1C4
330
1F
100
AcDbEntity
  8
0
  6
Przerywana
370
    13
100
AcDbCircle
 10
-582.9049469153836
 20
1485.511310044638
 30
0.0
 40
395.8746391262691
  0
ELLIPSE
  5
1C5
330
1F
100
AcDbEntity
  8
0
  6
Continuous
370
    13
100
AcDbEllipse
 10
-531.2306157737412
 20
1622.634715475143
 30
0.0
 11
37.50000000000142
 21
0.0
 31
0.0
210
0.0
220
0.0
230
1.0
 40
0.4756041311722718
 41
0.0
 42
6.283185307179586
  0
INSERT
  5
1CE
330
1F
100
AcDbEntity
  8
@__WIDOCZNE
  6
Continuous
370
    13
100
AcDbBlockReference
  2
Etykieta_1_2
 10
-929.3376723214906
 20
615.9326209649427
 30
0.0
  0
MTEXT
  5
1CF
330
1F
100
AcDbEntity
  8
@__WIDOCZNE
  6
Continuous
370
    13
100
AcDbMText
 10
-459.8744154123033
 20
166.0000130984719
 30
0.0
 40
15.0
 41
0.0
 71
     1
 72
     1
  1
{ nr rys:}
  7
GENERATED_STYLE_1
 73
     1
 44
1.0
  0
MTEXT
  5
1D1
330
1F
100
AcDbEntity
  8
@__WIDOCZNE
  6
Continuous
370
    13
100
AcDbMText
 10
-1350.268818171601
 20
136.1735858476678
 30
0.0
 40
29.99999999999998
 41
0.0
 71
     4
 72
     1
  1
{IZOLACJE POMIESZCZEŃ MOKRYCH\P- ŁAZIENKA UŻYTECZNOŚCI PUBLICZNEJ}
  7
GENERATED_STYLE_2
 73
     1
 44
0.7910444183426422
  0
MTEXT
  5
1D2
330
1F
100
AcDbEntity
  8
@__WIDOCZNE
  6
Continuous
370
    13
100
AcDbMText
 10
-434.2857142860797
 20
206.5714285714292
 30
0.0
 40
15.0
 41
0.0
 71
     2
 72
     1
  1
{ data:}
  7
GENERATED_STYLE_1
 73
     1
 44
1.0
  0
MTEXT
  5
1D3
330
1F
100
AcDbEntity
  8
@__WIDOCZNE
  6
Continuous
370
    13
100
AcDbMText
 10
-260.4285714287931
 20
206.5714285714292
 30
0.0
 40
15.0
 41
0.0
 71
     2
 72
     1
  1
{ skala:}
  7
GENERATED_STYLE_1
 73
     1
 44
1.0
  0
MTEXT
  5
1D4
330
1F
100
AcDbEntity
  8
@__WIDOCZNE
  6
Continuous
370
    13
100
AcDbMText
 10
-228.5714596651061
 20
176.4372491370383
 30
0.0
 40
19.99999999999999
 41
0.0
 71
     7
 72
     1
  1
{1:10}
  7
GENERATED_STYLE_1
 73
     1
 44
1.0
  0
MTEXT
  5
1D5
330
1F
100
AcDbEntity
  8
@__WIDOCZNE
  6
Continuous
370
    13
100
AcDbMText
 10
-1404.000000000042
 20
28.41451671597667
 30
0.0
 40
15.0
 41
0.0
 71
     4
 72
     1
  1
{Rysunek nie wyczerpuje wszystkich aspektów technicznych zagadnienia, a jego integralną częścią są karty techniczne \Pposzczególnych produktów. Szczegółowych informacji udzielają technicy zastosowań i doradcy handlowo-techniczni Botament. }
  7
GENERATED_STYLE_1
 73
     1
 44
0.9278263558916976
  0
MTEXT
  5
1D6
330
1F
100
AcDbEntity
  8
@__WIDOCZNE
  6
Continuous
 62
    20
370
     0
100
AcDbMText
 10
-208.6397788047231
 20
75.79204375242675
 30
0.0
 40
30.00000000000001
 41
0.0
 71
     9
 72
     1
  1
{\P\C256;\H1.333333x; 01.02.00.}
  7
GENERATED_STYLE_2
 73
     1
 44
1.068159463616948
  0
MTEXT
  5
1D7
330
1F
100
AcDbEntity
  8
@__WIDOCZNE
  6
Continuous
370
    13
100
AcDbMText
 10
-404.1029433751867
 20
176.4371713433316
 30
0.0
 40
20.0
 41
0.0
 71
     7
 72
     1
  1
{2022.07. }
  7
GENERATED_STYLE_1
 73
     1
 44
1.0
  0
MTEXT
  5
1D8
330
1F
100
AcDbEntity
  8
@__WIDOCZNE
  6
Continuous
370
    13
100
AcDbMText
 10
-1682.384354501804
 20
30.26957004651211
 30
0.0
 40
15.0
 41
0.0
 71
     5
 72
     1
  1
{ ul. Prądzyńskiego 20, 63-000 Środa Wlkp., botament.pl\P +48 606-318-643, 61-286-45-17, technik@botament.pl  }
  7
GENERATED_STYLE_1
 73
     1
 44
0.9181612291118326
  0
MTEXT
  5
1D9
330
1F
100
AcDbEntity
  8
0
  6
Continuous
370
    13
100
AcDbMText
 10
-1497.737419214704
 20
2542.238586767974
 30
0.0
 40
20.0
 41
0.0
 71
     3
 72
     1
  1
{> 2000 mm}
  7
GENERATED_STYLE_1
 11
6.123233995736766E-17
 21
1.0
 31
0.0
 73
     1
 44
1.0
  0
MTEXT
  5
1DA
330
1F
100
AcDbEntity
  8
0
  6
Continuous
370
    13
100
AcDbMText
 10
-1650.000000000319
 20
1272.992410058372
 30
0.0
 40
20.0
 41
0.0
 71
     1
 72
     1
  3
\A1;{\fArial|b1|i0|c238|p38;P O D Ł O G A   Ł A Z I E N K I\P\fArial|b0|i0|c238|p38;• PŁYTKI CERAMICZNE\P• ZAPRAWA DO SPOIN CHEMOODPORNA\P  \fArial|b1|i0|c238|p38;- BOTAMENT CF200\P\fArial|b0|i0|c238|p38;  \fArial|b1|i0|c238|p38;- BOTAMENT MULTIFUGE
  3
 Diamond MAX\P\fArial|b0|i0|c238|p38;• ZAPRAWA KLEJOWA DO PŁYTEK - POSADZKOWA \P- \fArial|b1|i0|c238|p38;BOTAMENT M29 / M29 HP\fArial|b0|i0|c238|p38; (wysokoelastyczna o konsystencji rozpływnej) lub \P  \fArial|b1|i0|c238|p38;BOTAMENT M 21 / BOTAMEN
  3
T M 21 HP, MULTILIGHT, MULTISTONE\fArial|b0|i0|c238|p38; \P  (wysokoelastyczne zaprawy klejowe)\P• IZOLACJA\P\fArial|b1|i0|c238|p38; - BOTAMENT MD28\fArial|b0|i0|c238|p38; (izolacja wysokoelastyczna) \P\fArial|b1|i0|c238|p38; - MULTIPROOF\fArial|b0|
  3
i0|c238|p38; (izolacja hybrydowa)\P\fArial|b1|i0|c238|p38; - BOTAMENT AE\fArial|b0|i0|c238|p38; (mata hydroizolacyjna 2w1) KLEJONA NA \fArial|b1|i0|c238|p38;BOTAMENT M21\P\fArial|b0|i0|c238|p38;•  ŚRODEK GRUNTUJĄCY - \fArial|b1|i0|c238|p38;BOTAMENT 
  1
D11 / D1 SPEED}
  7
GENERATED_STYLE_2
 73
     1
 44
0.9228386430615008
  0
MTEXT
  5
1DB
330
1F
100
AcDbEntity
  8
0
  6
Continuous
370
    13
100
AcDbMText
 10
-971.8291958099882
 20
2424.087434098324
 30
0.0
 40
20.0
 41
0.0
 71
     1
 72
     1
  1
\A1;{\fArial|b0|i0|c238|p38;- ELASTYCZNA SPOINA SILIKONOWA\P   - \fArial|b1|i0|c238|p38;BOTAMENT\fArial|b0|i0|c238|p38; \fArial|b1|i0|c238|p38;S5/S3 SUPAX\fArial|b0|i0|c238|p38; (uszczelnienie)  }
  7
GENERATED_STYLE_1
 73
     1
 44
0.9216692827178626
  0
MTEXT
  5
1DC
330
1F
100
AcDbEntity
  8
0
  6
Continuous
370
    13
100
AcDbMText
 10
-971.8291958099882
 20
2666.287964686423
 30
0.0
 40
20.0
 41
0.0
 71
     4
 72
     1
  1
\A1;{\fArial|b0|i0|c238|p38;- TAŚMA USZCZELNIAJĄCA - \fArial|b1|i0|c238|p38;BOTAMENT SB78 \fArial|b0|i0|c238|p38; \P  (narożnikowa taśma wklejona w warstwę izolacyjną)}
  7
GENERATED_STYLE_1
 73
     1
 44
0.9186980100444311
  0
MTEXT
  5
1DD
330
1F
100
AcDbEntity
  8
0
  6
Continuous
370
    13
100
AcDbMText
 10
-1034.444661700785
 20
2765.576073173039
 30
0.0
 40
30.0
 41
0.0
 71
     1
 72
     1
  1
{\LLEGENDA:}
  7
GENERATED_STYLE_1
 73
     1
 44
1.0
  0
MTEXT
  5
1DE
330
1F
100
AcDbEntity
  8
0
  6
Continuous
370
    13
100
AcDbMText
 10
-971.8291958099882
 20
2576.227334707025
 30
0.0
 40
20.0
 41
0.0
 71
     4
 72
     1
  1
\A1;{\fArial|b0|i0|c238|p38;- IZOLACJA PRZEJŚĆ INSTALACYJNYCH - \fArial|b1|i0|c238|p38;BOTAMENT SB78\P\fArial|b0|i0|c238|p38;  (mankiet uszczelniający o wymiarach 120x120mm\P   wklejony w warstwę izolacji)}
  7
GENERATED_STYLE_1
 73
     1
 44
0.9262325910374362
  0
MTEXT
  5
1DF
330
1F
100
AcDbEntity
  8
0
  6
Continuous
370
    13
100
AcDbMText
 10
-971.8291958099882
 20
2352.761827315584
 30
0.0
 40
20.0
 41
0.0
 71
     1
 72
     1
  1
{- WPUST PODŁOGOWY}
  7
GENERATED_STYLE_1
 73
     1
 44
1.0
  0
MTEXT
  5
1E0
330
1F
100
AcDbEntity
  8
0
  6
Continuous
370
    13
100
AcDbMText
 10
-971.8291958099882
 20
2476.049215985404
 30
0.0
 40
20.0
 41
0.0
 71
     4
 72
     1
  1
\A1;{\fArial|b0|i0|c238|p38;- IZOLACJA WPUSTU PODŁOGOWEGO - \fArial|b1|i0|c238|p38;BOTAMENT SB78\P\fArial|b0|i0|c238|p38;  (mankiet uszczelniający o wymiarach 425x425mm\P   wklejony w warstwę izolacji)}
  7
GENERATED_STYLE_1
 73
     1
 44
0.9277402777035897
  0
MTEXT
  5
1E1
330
1F
100
AcDbEntity
  8
0
  6
Continuous
370
    13
100
AcDbMText
 10
-971.8291958099882
 20
2282.761827315584
 30
0.0
 40
20.0
 41
0.0
 71
     1
 72
     1
  1
{- SZNUR DYLATACYJNY}
  7
GENERATED_STYLE_1
 73
     1
 44
1.0
  0
MTEXT
  5
1E2
330
1F
100
AcDbEntity
  8
0
  6
Continuous
370
    13
100
AcDbMText
 10
-595.0679631332924
 20
1231.58100345066
 30
0.0
 40
25.0
 41
0.0
 71
     5
 72
     1
  1
\A1;{\fArial|b1|i0|c238|p38;\L\LSZCZEGÓŁ A\P\fArial|b0|i0|c238|p38;SKALA 1:2}
  7
GENERATED_STYLE_2
 73
     1
 44
0.791350123494833
  0
MTEXT
  5
1E3
330
1F
100
AcDbEntity
  8
0
  6
Continuous
370
    13
100
AcDbMText
 10
-1650.000000000319
 20
2207.798139877804
 30
0.0
 40
19.99999999999999
 41
0.0
 71
     1
 72
     1
  3
\A1;{\fArial|b1|i0|c238|p38;Ś C I A N A  Ł A Z I E N K I\P\fArial|b0|i0|c238|p38;• PŁYTKI CERAMICZNE\P• ZAPRAWA DO SPOIN CHEMOODPORNA\P  \fArial|b1|i0|c238|p38;- BOTAMENT CF200\P\fArial|b0|i0|c238|p38; \fArial|b1|i0|c238|p38; - BOTAMENT MULTIFUGE Di
  3
amond MA \fArial|b0|i0|c238|p38;(wielofunkcyjna zaprawa \P    do spoin na bazie żywic reaktywnych)\P• ZAPRAWA KLEJOWA DO PŁYTEK - \fArial|b1|i0|c238|p38;BOTAMENT M21\P  / BOTAMENT M21 HP,  MULTILIGHT, MULTISTONE\P\fArial|b0|i0|c238|p38;• IZOLACJA\P 
  3
 \fArial|b1|i0|c238|p38;- BOTAMENT MD28\fArial|b0|i0|c238|p38; (izolacja wysokoelastyczna)\P  - \fArial|b1|i0|c238|p38;MULTIPROOF\fArial|b0|i0|c238|p38; (izolacja hybrydowa)\P  \fArial|b1|i0|c238|p38;- BOTAMENT AE\fArial|b0|i0|c238|p38; (mata hydroi
  1
zolacyjna 2w1) KLEJONA\P    NA \fArial|b1|i0|c238|p38;BOTAMENT M21\P\fArial|b0|i0|c238|p38;• ŚRODEK GRUNTUJĄCY - \fArial|b1|i0|c238|p38;BOTAMENT D11 / D1 SPEED}
  7
GENERATED_STYLE_2
 73
     1
 44
0.9225052576348599
  0
MTEXT
  5
1E4
330
1F
100
AcDbEntity
  8
@__WIDOCZNE
  6
Continuous
370
    50
100
AcDbMText
 10
-1950.91739925016
 20
356.1232875958589
 30
0.0
 40
20.0
 41
0.0
 71
     9
 72
     1
  1
{druk: 220718, rys. od 030400}
  7
GENERATED_STYLE_1
 11
6.123233995736766E-17
 21
1.0
 31
0.0
 73
     1
 44
1.0
  0
WIPEOUT
  5
1E5
330
1F
100
AcDbEntity
  8
@__WIDOCZNE
  6
Wipeout_Contour
 62
   254
 48
3841.124751827858
370
     0
 92
      140
310
8C000000010000008400000006000000050000004003D53B1B328AC06AB9690A4E8B824000000000000000004003D53B1B328AC00E5DA281F941764000000000000000004003D53B1B9289C00E5DA281F941764000000000000000004003D53B1B9289C06AB9690A4E8B824000000000000000004003D53B1B328AC06AB969
310
0A4E8B82400000000000000000
100
AcDbWipeout
 90
        0
 10
-838.2632977143876
 20
356.123414644463
 30
0.0
 11
20.0
 21
0.0
 31
0.0
 12
0.0
 22
237.2896911542306
 32
0.0
 13
1.0
 23
1.0
340
0
 70
    15
280
     1
281
    50
282
    50
283
     0
360
0
 71
     2
 91
        5
 14
-0.5
 24
-0.5
 14
-0.5
 24
0.5
 14
0.5
 24
0.5
 14
0.5
 24
-0.5
 14
-0.5
 24
-0.5
  0
WIPEOUT
  5
1E6
330
1F
100
AcDbEntity
  8
@__WIDOCZNE
  6
Wipeout_Contour
 62
   254
 48
13347.16430070923
370
     0
 92
      140
310
8C000000010000008400000006000000050000005CBF0259D5009CC078D37DCEDDA8A54000000000000000009BF43F8351249EC078D37DCEDDA8A54000000000000000009BF43F8351249EC0BF53E985419CA54000000000000000005CBF0259D5009CC0BF53E985419CA54000000000000000005CBF0259D5009CC078D37D
310
CEDDA8A5400000000000000000
100
AcDbWipeout
 90
        0
 10
-1929.079602240853
 20
2766.127974788163
 30
0.0
 11
136.8712548793553
 21
0.0
 31
0.0
 12
0.0
 22
6.305241242018838
 32
0.0
 13
1.0
 23
1.0
340
0
 70
    15
280
     1
281
    50
282
    50
283
     0
360
0
 71
     2
 91
        5
 14
0.5000000000000008
 24
-0.4999999999999639
 14
-0.4999999999999992
 24
-0.4999999999999639
 14
-0.4999999999999992
 24
0.5000000000000361
 14
0.5000000000000008
 24
0.5000000000000361
 14
0.5000000000000008
 24
-0.4999999999999639
  0
WIPEOUT
  5
1E7
330
1F
100
AcDbEntity
  8
@__WIDOCZNE
  6
Wipeout_Contour
 62
   254
 48
9738.36333508285
370
     0
 92
      140
310
8C0000000100000084000000060000000500000046929CA988249EC09FD3DE315F6198400000000000000000D0876ADBB5059CC09FD3DE315F6198400000000000000000D0876ADBB5059CC07EDF3BDA5EA49840000000000000000046929CA988249EC07EDF3BDA5EA49840000000000000000046929CA988249EC09FD3DE
310
315F6198400000000000000000
100
AcDbWipeout
 90
        0
 10
-1929.133459516933
 20
1560.342963678042
 30
0.0
 11
135.7058646983037
 21
0.0
 31
0.0
 12
0.0
 22
16.7496656931396
 32
0.0
 13
1.0
 23
1.0
340
0
 70
    15
280
     1
281
    50
282
    50
283
     0
360
0
 71
     2
 91
        5
 14
-0.5
 24
0.4999999999999932
 14
0.5
 24
0.4999999999999932
 14
0.5
 24
-0.5000000000000068
 14
-0.5
 24
-0.5000000000000068
 14
-0.5
 24
0.4999999999999932
  0
INSERT
  5
1ED
330
1F
100
AcDbEntity
  8
@__WIDOCZNE
  6
Continuous
 62
     4
370
    20
100
AcDbBlockReference
 66
     1
  2
Sygnał termostatu 12_7
 10
-1132.657756137538
 20
690.7750269106568
 30
0.0
 41
-1.0
  0
ATTRIB
  5
1EE
330
1ED
100
AcDbEntity
  8
@__WIDOCZNE
  6
Continuous
 62
     4
370
    20
100
AcDbText
 10
-1155.423594663394
 20
677.4894343544142
 30
0.0
 40
30.0
  1
05
  7
GENERATED_STYLE_1
 11
-1155.423594663394
 21
668.6230281044143
 31
0.0
100
AcDbAttribute
  2
txt
 70
     0
 74
     1
  0
SEQEND
  5
1EF
330
1ED
100
AcDbEntity
  8
@__WIDOCZNE
  6
Continuous
 62
     4
370
    20
  0
INSERT
  5
1F5
330
1F
100
AcDbEntity
  8
@__WIDOCZNE
  6
Continuous
 62
     4
370
    20
100
AcDbBlockReference
 66
     1
  2
Sygnał termostatu 12_8
 10
-1237.957098406793
 20
690.7750269106568
 30
0.0
 41
-1.0
  0
ATTRIB
  5
1F6
330
1F5
100
AcDbEntity
  8
@__WIDOCZNE
  6
Continuous
 62
     4
370
    20
100
AcDbText
 10
-1260.722936932649
 20
677.4894343544142
 30
0.0
 40
30.0
  1
04
  7
GENERATED_STYLE_1
 11
-1260.722936932649
 21
668.6230281044143
 31
0.0
100
AcDbAttribute
  2
txt
 70
     0
 74
     1
  0
SEQEND
  5
1F7
330
1F5
100
AcDbEntity
  8
@__WIDOCZNE
  6
Continuous
 62
     4
370
    20
  0
INSERT
  5
1F8
330
1F
100
AcDbEntity
  8
@__WIDOCZNE
  6
Continuous
 62
     4
370
    20
100
AcDbBlockReference
 66
     1
  2
Sygnał termostatu 12
 10
-1735.826290063948
 20
760.3585161619513
 30
0.0
  0
ATTRIB
  5
1F9
330
1F8
100
AcDbEntity
  8
@__WIDOCZNE
  6
Continuous
 62
     4
370
    20
100
AcDbText
 10
-1758.592047994363
 20
747.0728966140294
 30
0.0
 40
30.0
  1
01
  7
GENERATED_STYLE_1
 11
-1758.592047994363
 21
738.2064903640295
 31
0.0
100
AcDbAttribute
  2
txt
 70
     0
 74
     1
  0
SEQEND
  5
1FA
330
1F8
100
AcDbEntity
  8
@__WIDOCZNE
  6
Continuous
 62
     4
370
    20
  0
INSERT
  5
200
330
1F
100
AcDbEntity
  8
@__WIDOCZNE
  6
Continuous
 62
     4
370
    20
100
AcDbBlockReference
 66
     1
  2
Sygnał termostatu 12_9
 10
-1328.383382661149
 20
690.7750269106568
 30
0.0
 41
-1.0
  0
ATTRIB
  5
201
330
200
100
AcDbEntity
  8
@__WIDOCZNE
  6
Continuous
 62
     4
370
    20
100
AcDbText
 10
-1351.149221187004
 20
677.4894343544142
 30
0.0
 40
30.0
  1
03
  7
GENERATED_STYLE_1
 11
-1351.149221187004
 21
668.6230281044143
 31
0.0
100
AcDbAttribute
  2
txt
 70
     0
 74
     1
  0
SEQEND
  5
202
330
200
100
AcDbEntity
  8
@__WIDOCZNE
  6
Continuous
 62
     4
370
    20
  0
INSERT
  5
208
330
1F
100
AcDbEntity
  8
@__WIDOCZNE
  6
Continuous
 62
     4
370
    20
100
AcDbBlockReference
 66
     1
  2
Sygnał termostatu 12_10
 10
-417.9500377001906
 20
644.126945329262
 30
0.0
 41
-1.0
  0
ATTRIB
  5
209
330
208
100
AcDbEntity
  8
@__WIDOCZNE
  6
Continuous
 62
     4
370
    20
100
AcDbText
 10
-440.7157956306058
 20
630.8413257813403
 30
0.0
 40
30.0
  1
01
  7
GENERATED_STYLE_1
 11
-440.7157956306058
 21
621.9749195313403
 31
0.0
100
AcDbAttribute
  2
txt
 70
     0
 74
     1
  0
SEQEND
  5
20A
330
208
100
AcDbEntity
  8
@__WIDOCZNE
  6
Continuous
 62
     4
370
    20
  0
INSERT
  5
20B
330
1F
100
AcDbEntity
  8
@__WIDOCZNE
  6
Continuous
 62
     4
370
    20
100
AcDbBlockReference
 66
     1
  2
Sygnał termostatu 12_8
 10
-417.9500377001906
 20
736.7336904353223
 30
0.0
 41
-1.0
  0
ATTRIB
  5
20C
330
20B
100
AcDbEntity
  8
@__WIDOCZNE
  6
Continuous
 62
     4
370
    20
100
AcDbText
 10
-440.7158762260468
 20
723.4480978790798
 30
0.0
 40
30.0
  1
04
  7
GENERATED_STYLE_1
 11
-440.7158762260468
 21
714.5816916290798
 31
0.0
100
AcDbAttribute
  2
txt
 70
     0
 74
     1
  0
SEQEND
  5
20D
330
20B
100
AcDbEntity
  8
@__WIDOCZNE
  6
Continuous
 62
     4
370
    20
  0
INSERT
  5
20E
330
1F
100
AcDbEntity
  8
@__WIDOCZNE
  6
Continuous
 62
     4
370
    20
100
AcDbBlockReference
 66
     1
  2
Sygnał termostatu 12_8
 10
-417.9500377001906
 20
943.042415567441
 30
0.0
 41
-1.0
  0
ATTRIB
  5
20F
330
20E
100
AcDbEntity
  8
@__WIDOCZNE
  6
Continuous
 62
     4
370
    20
100
AcDbText
 10
-440.7158762260468
 20
929.7568230111985
 30
0.0
 40
30.0
  1
04
  7
GENERATED_STYLE_1
 11
-440.7158762260468
 21
920.8904167611986
 31
0.0
100
AcDbAttribute
  2
txt
 70
     0
 74
     1
  0
SEQEND
  5
210
330
20E
100
AcDbEntity
  8
@__WIDOCZNE
  6
Continuous
 62
     4
370
    20
  0
INSERT
  5
211
330
1F
100
AcDbEntity
  8
@__WIDOCZNE
  6
Continuous
 62
     4
370
    20
100
AcDbBlockReference
 66
     1
  2
Sygnał termostatu 12_9
 10
-372.4263015602239
 20
1746.564052477383
 30
0.0
 41
-1.0
  0
ATTRIB
  5
212
330
211
100
AcDbEntity
  8
@__WIDOCZNE
  6
Continuous
 62
     4
370
    20
100
AcDbText
 10
-395.1921400860799
 20
1733.278459921141
 30
0.0
 40
30.0
  1
03
  7
GENERATED_STYLE_1
 11
-395.1921400860799
 21
1724.412053671141
 31
0.0
100
AcDbAttribute
  2
txt
 70
     0
 74
     1
  0
SEQEND
  5
213
330
211
100
AcDbEntity
  8
@__WIDOCZNE
  6
Continuous
 62
     4
370
    20
  0
INSERT
  5
214
330
1F
100
AcDbEntity
  8
@__WIDOCZNE
  6
Continuous
 62
     4
370
    20
100
AcDbBlockReference
 66
     1
  2
Sygnał termostatu 12_8
 10
-623.1142938104726
 20
1749.528817462526
 30
0.0
 41
-1.0
  0
ATTRIB
  5
215
330
214
100
AcDbEntity
  8
@__WIDOCZNE
  6
Continuous
 62
     4
370
    20
100
AcDbText
 10
-645.8801323363285
 20
1736.243224906284
 30
0.0
 40
30.0
  1
04
  7
GENERATED_STYLE_1
 11
-645.8801323363285
 21
1727.376818656284
 31
0.0
100
AcDbAttribute
  2
txt
 70
     0
 74
     1
  0
SEQEND
  5
216
330
214
100
AcDbEntity
  8
@__WIDOCZNE
  6
Continuous
 62
     4
370
    20
  0
INSERT
  5
217
330
1F
100
AcDbEntity
  8
@__WIDOCZNE
  6
Continuous
 62
     4
370
    20
100
AcDbBlockReference
 66
     1
  2
Sygnał termostatu 12_7
 10
-724.8968850932288
 20
1749.528817462526
 30
0.0
 41
-1.0
  0
ATTRIB
  5
218
330
217
100
AcDbEntity
  8
@__WIDOCZNE
  6
Continuous
 62
     4
370
    20
100
AcDbText
 10
-747.6627236190847
 20
1736.243224906284
 30
0.0
 40
30.0
  1
05
  7
GENERATED_STYLE_1
 11
-747.6627236190847
 21
1727.376818656284
 31
0.0
100
AcDbAttribute
  2
txt
 70
     0
 74
     1
  0
SEQEND
  5
219
330
217
100
AcDbEntity
  8
@__WIDOCZNE
  6
Continuous
 62
     4
370
    20
  0
INSERT
  5
21F
330
1F
100
AcDbEntity
  8
@__WIDOCZNE
  6
Continuous
 62
     4
370
    20
100
AcDbBlockReference
 66
     1
  2
Sygnał termostatu 12_11
 10
-445.7904029970409
 20
1749.528817462526
 30
0.0
 41
-1.0
  0
ATTRIB
  5
220
330
21F
100
AcDbEntity
  8
@__WIDOCZNE
  6
Continuous
 62
     4
370
    20
100
AcDbText
 10
-468.5562415228968
 20
1736.243224906284
 30
0.0
 40
30.0
  1
06
  7
GENERATED_STYLE_1
 11
-468.5562415228968
 21
1727.376818656284
 31
0.0
100
AcDbAttribute
  2
txt
 70
     0
 74
     1
  0
SEQEND
  5
221
330
21F
100
AcDbEntity
  8
@__WIDOCZNE
  6
Continuous
 62
     4
370
    20
  0
INSERT
  5
222
330
1F
100
AcDbEntity
  8
@__WIDOCZNE
  6
Continuous
 62
     4
370
    20
100
AcDbBlockReference
 66
     1
  2
Sygnał termostatu 12_4
 10
-1735.826290063948
 20
663.5888037746992
 30
0.0
  0
ATTRIB
  5
223
330
222
100
AcDbEntity
  8
@__WIDOCZNE
  6
Continuous
 62
     4
370
    20
100
AcDbText
 10
-1758.592128589804
 20
650.3032112184566
 30
0.0
 40
30.0
  1
04
  7
GENERATED_STYLE_1
 11
-1758.592128589804
 21
641.4368049684566
 31
0.0
100
AcDbAttribute
  2
txt
 70
     0
 74
     1
  0
SEQEND
  5
224
330
222
100
AcDbEntity
  8
@__WIDOCZNE
  6
Continuous
 62
     4
370
    20
  0
INSERT
  5
225
330
1F
100
AcDbEntity
  8
@__WIDOCZNE
  6
Continuous
 62
     4
370
    20
100
AcDbBlockReference
 66
     1
  2
Sygnał termostatu 12_2
 10
-1735.826290063948
 20
1359.010502330372
 30
0.0
  0
ATTRIB
  5
226
330
225
100
AcDbEntity
  8
@__WIDOCZNE
  6
Continuous
 62
     4
370
    20
100
AcDbText
 10
-1758.592128589804
 20
1345.72490977413
 30
0.0
 40
30.0
  1
02
  7
GENERATED_STYLE_1
 11
-1758.592128589804
 21
1336.85850352413
 31
0.0
100
AcDbAttribute
  2
txt
 70
     0
 74
     1
  0
SEQEND
  5
227
330
225
100
AcDbEntity
  8
@__WIDOCZNE
  6
Continuous
 62
     4
370
    20
  0
LINE
  5
228
330
1F
100
AcDbEntity
  8
@__WIDOCZNE
  6
Przerywana gęsta
370
    13
100
AcDbLine
 10
-1931.61827826589
 20
2768.671959614673
 30
0.0
 11
-1792.208347361498
 21
2768.671959614673
 31
0.0
  0
LINE
  5
229
330
1F
100
AcDbEntity
  8
@__WIDOCZNE
  6
Przerywana gęsta
370
    13
100
AcDbLine
 10
-818.263297714388
 20
356.123414644463
 30
0.0
 11
-818.2632977143879
 21
585.8750105617837
 31
0.0
  0
LINE
  5
22A
330
1F
100
AcDbEntity
  8
@__WIDOCZNE
  6
Przerywana gęsta
370
    13
100
AcDbLine
 10
-838.263297714388
 20
356.123414644463
 30
0.0
 11
-838.2632977143879
 21
585.8750105617837
 31
0.0
  0
LINE
  5
22B
330
1F
100
AcDbEntity
  8
0
  6
Continuous
 62
    22
370
    50
100
AcDbLine
 10
-629.9810497521507
 20
1586.735816244991
 30
0.0
 11
-629.9810497521507
 21
1480.799560556183
 31
0.0
  0
LINE
  5
22C
330
1F
100
AcDbEntity
  8
0
  6
Continuous
370
    13
100
AcDbLine
 10
-1752.747418804493
 20
734.0072493790209
 30
0.0
 11
-1827.565257357104
 21
627.1082648092154
 31
0.0
  0
CIRCLE
  5
22D
330
1F
100
AcDbEntity
  8
0
  6
Continuous
370
    13
100
AcDbCircle
 10
-1830.432274582648
 20
623.0118990750024
 30
0.0
 40
5.0
  0
HATCH
  5
22E
330
1F
100
AcDbEntity
  8
0
  6
Continuous
370
    13
100
AcDbHatch
 10
0.0
 20
0.0
 30
0.0
210
0.0
220
0.0
230
1.0
  2
SOLID
 70
     1
 71
     0
 91
        1
 92
        2
 72
     0
 73
     1
 93
       16
 10
-1825.432274582648
 20
623.0118990750024
 10
-1825.812876920091
 20
624.9253162368278
 10
-1826.896740676715
 20
626.5474329809351
 10
-1828.518857420822
 20
627.6312967375588
 10
-1830.432274582648
 20
628.0118990750024
 10
-1832.345691744473
 20
627.6312967375588
 10
-1833.96780848858
 20
626.5474329809351
 10
-1835.051672245204
 20
624.9253162368278
 10
-1835.432274582648
 20
623.0118990750024
 10
-1835.051672245204
 20
621.0984819131769
 10
-1833.96780848858
 20
619.4763651690696
 10
-1832.345691744473
 20
618.3925014124459
 10
-1830.432274582648
 20
618.0118990750024
 10
-1828.518857420822
 20
618.3925014124459
 10
-1826.896740676715
 20
619.4763651690696
 10
-1825.812876920091
 20
621.0984819131769
 97
        0
 75
     0
 76
     1
 98
        0
  0
LINE
  5
22F
330
1F
100
AcDbEntity
  8
0
  6
Continuous
370
    13
100
AcDbLine
 10
-1311.574542119437
 20
665.8145937988137
 30
0.0
 11
-1227.218460442842
 21
545.3416238958107
 31
0.0
  0
CIRCLE
  5
230
330
1F
100
AcDbEntity
  8
0
  6
Continuous
370
    13
100
AcDbCircle
 10
-1224.350578261087
 20
541.2458636743656
 30
0.0
 40
5.0
  0
HATCH
  5
231
330
1F
100
AcDbEntity
  8
0
  6
Continuous
370
    13
100
AcDbHatch
 10
0.0
 20
0.0
 30
0.0
210
0.0
220
0.0
230
1.0
  2
SOLID
 70
     1
 71
     0
 91
        1
 92
        2
 72
     0
 73
     1
 93
       16
 10
-1219.350578261087
 20
541.2458636743656
 10
-1219.731180598531
 20
543.1592808361911
 10
-1220.815044355155
 20
544.7813975802984
 10
-1222.437161099262
 20
545.8652613369221
 10
-1224.350578261087
 20
546.2458636743656
 10
-1226.263995422913
 20
545.8652613369221
 10
-1227.88611216702
 20
544.7813975802984
 10
-1228.969975923644
 20
543.1592808361911
 10
-1229.350578261087
 20
541.2458636743656
 10
-1228.969975923644
 20
539.3324465125402
 10
-1227.88611216702
 20
537.7103297684329
 10
-1226.263995422913
 20
536.6264660118092
 10
-1224.350578261087
 20
536.2458636743656
 10
-1222.437161099262
 20
536.6264660118092
 10
-1220.815044355155
 20
537.7103297684329
 10
-1219.731180598531
 20
539.3324465125402
 97
        0
 75
     0
 76
     1
 98
        0
  0
LINE
  5
232
330
1F
100
AcDbEntity
  8
0
  6
Continuous
370
    13
100
AcDbLine
 10
-1219.182914671181
 20
666.9760953432574
 30
0.0
 11
-1153.299291808188
 21
572.8422294085786
 31
0.0
  0
CIRCLE
  5
233
330
1F
100
AcDbEntity
  8
0
  6
Continuous
370
    13
100
AcDbCircle
 10
-1150.432274582644
 20
568.7458636743658
 30
0.0
 40
5.0
  0
HATCH
  5
234
330
1F
100
AcDbEntity
  8
0
  6
Continuous
370
    13
100
AcDbHatch
 10
0.0
 20
0.0
 30
0.0
210
0.0
220
0.0
230
1.0
  2
SOLID
 70
     1
 71
     0
 91
        1
 92
        2
 72
     0
 73
     1
 93
       16
 10
-1145.432274582644
 20
568.7458636743658
 10
-1145.812876920088
 20
570.6592808361912
 10
-1146.896740676712
 20
572.2813975802985
 10
-1148.518857420819
 20
573.3652613369222
 10
-1150.432274582644
 20
573.7458636743658
 10
-1152.34569174447
 20
573.3652613369222
 10
-1153.967808488577
 20
572.2813975802985
 10
-1155.051672245201
 20
570.6592808361912
 10
-1155.432274582644
 20
568.7458636743658
 10
-1155.051672245201
 20
566.8324465125403
 10
-1153.967808488577
 20
565.210329768433
 10
-1152.34569174447
 20
564.1264660118093
 10
-1150.432274582644
 20
563.7458636743658
 10
-1148.518857420819
 20
564.1264660118093
 10
-1146.896740676712
 20
565.210329768433
 10
-1145.812876920088
 20
566.8324465125403
 97
        0
 75
     0
 76
     1
 98
        0
  0
LINE
  5
235
330
1F
100
AcDbEntity
  8
0
  6
Continuous
370
    13
100
AcDbLine
 10
-1115.484690665016
 20
666.1945110127541
 30
0.0
 11
-1050.118295392092
 21
572.8416238958107
 31
0.0
  0
CIRCLE
  5
236
330
1F
100
AcDbEntity
  8
0
  6
Continuous
370
    13
100
AcDbCircle
 10
-1047.250413210337
 20
568.7458636743658
 30
0.0
 40
5.0
  0
HATCH
  5
237
330
1F
100
AcDbEntity
  8
0
  6
Continuous
370
    13
100
AcDbHatch
 10
0.0
 20
0.0
 30
0.0
210
0.0
220
0.0
230
1.0
  2
SOLID
 70
     1
 71
     0
 91
        1
 92
        2
 72
     0
 73
     1
 93
       16
 10
-1042.250413210337
 20
568.7458636743658
 10
-1042.63101554778
 20
570.6592808361912
 10
-1043.714879304404
 20
572.2813975802985
 10
-1045.336996048511
 20
573.3652613369222
 10
-1047.250413210337
 20
573.7458636743658
 10
-1049.163830372162
 20
573.3652613369222
 10
-1050.785947116269
 20
572.2813975802985
 10
-1051.869810872893
 20
570.6592808361912
 10
-1052.250413210337
 20
568.7458636743658
 10
-1051.869810872893
 20
566.8324465125403
 10
-1050.785947116269
 20
565.210329768433
 10
-1049.163830372162
 20
564.1264660118093
 10
-1047.250413210337
 20
563.7458636743658
 10
-1045.336996048511
 20
564.1264660118093
 10
-1043.714879304404
 20
565.210329768433
 10
-1042.63101554778
 20
566.8324465125403
 97
        0
 75
     0
 76
     1
 98
        0
  0
LINE
  5
238
330
1F
100
AcDbEntity
  8
0
  6
Continuous
370
    13
100
AcDbLine
 10
-400.1763933841798
 20
618.7321388734406
 30
0.0
 11
-348.8113180298184
 21
545.3422294085786
 31
0.0
  0
CIRCLE
  5
239
330
1F
100
AcDbEntity
  8
0
  6
Continuous
370
    13
100
AcDbCircle
 10
-345.9443008042744
 20
541.2458636743656
 30
0.0
 40
5.0
  0
HATCH
  5
23A
330
1F
100
AcDbEntity
  8
0
  6
Continuous
370
    13
100
AcDbHatch
 10
0.0
 20
0.0
 30
0.0
210
0.0
220
0.0
230
1.0
  2
SOLID
 70
     1
 71
     0
 91
        1
 92
        2
 72
     0
 73
     1
 93
       16
 10
-340.9443008042744
 20
541.2458636743656
 10
-341.324903141718
 20
543.1592808361911
 10
-342.4087668983416
 20
544.7813975802984
 10
-344.0308836424489
 20
545.8652613369221
 10
-345.9443008042744
 20
546.2458636743656
 10
-347.8577179660999
 20
545.8652613369221
 10
-349.4798347102072
 20
544.7813975802984
 10
-350.5636984668308
 20
543.1592808361911
 10
-350.9443008042744
 20
541.2458636743656
 10
-350.5636984668308
 20
539.3324465125402
 10
-349.4798347102072
 20
537.7103297684329
 10
-347.8577179660999
 20
536.6264660118092
 10
-345.9443008042744
 20
536.2458636743656
 10
-344.0308836424489
 20
536.6264660118092
 10
-342.4087668983416
 20
537.7103297684329
 10
-341.324903141718
 20
539.3324465125402
 97
        0
 75
     0
 76
     1
 98
        0
  0
LINE
  5
23B
330
1F
100
AcDbEntity
  8
0
  6
Continuous
370
    13
100
AcDbLine
 10
-400.9454894309861
 20
711.2974057367553
 30
0.0
 11
-310.5405263264362
 21
576.06497596058
 31
0.0
  0
CIRCLE
  5
23C
330
1F
100
AcDbEntity
  8
0
  6
Continuous
370
    13
100
AcDbCircle
 10
-307.7617074571528
 20
571.9082746612664
 30
0.0
 40
5.0
  0
HATCH
  5
23D
330
1F
100
AcDbEntity
  8
0
  6
Continuous
370
    13
100
AcDbHatch
 10
0.0
 20
0.0
 30
0.0
210
0.0
220
0.0
230
1.0
  2
SOLID
 70
     1
 71
     0
 91
        1
 92
        2
 72
     0
 73
     1
 93
       16
 10
-302.7617074571528
 20
571.9082746612664
 10
-303.1423097945964
 20
573.8216918230919
 10
-304.2261735512201
 20
575.4438085671992
 10
-305.8482902953273
 20
576.5276723238229
 10
-307.7617074571528
 20
576.9082746612664
 10
-309.6751246189783
 20
576.5276723238229
 10
-311.2972413630856
 20
575.4438085671992
 10
-312.3811051197092
 20
573.8216918230919
 10
-312.7617074571528
 20
571.9082746612664
 10
-312.3811051197092
 20
569.994857499441
 10
-311.2972413630856
 20
568.3727407553338
 10
-309.6751246189783
 20
567.28887699871
 10
-307.7617074571528
 20
566.9082746612664
 10
-305.8482902953273
 20
567.28887699871
 10
-304.2261735512201
 20
568.3727407553338
 10
-303.1423097945964
 20
569.994857499441
 97
        0
 75
     0
 76
     1
 98
        0
  0
LINE
  5
23E
330
1F
100
AcDbEntity
  8
0
  6
Continuous
370
    13
100
AcDbLine
 10
-400.999061439936
 20
918.8230290582479
 30
0.0
 11
-287.8752044132126
 21
757.1927857804626
 31
0.0
  0
CIRCLE
  5
23F
330
1F
100
AcDbEntity
  8
0
  6
Continuous
370
    13
100
AcDbCircle
 10
-285.0081871876686
 20
753.0964200462496
 30
0.0
 40
5.0
  0
HATCH
  5
240
330
1F
100
AcDbEntity
  8
0
  6
Continuous
370
    13
100
AcDbHatch
 10
0.0
 20
0.0
 30
0.0
210
0.0
220
0.0
230
1.0
  2
SOLID
 70
     1
 71
     0
 91
        1
 92
        2
 72
     0
 73
     1
 93
       16
 10
-280.0081871876686
 20
753.0964200462496
 10
-280.3887895251122
 20
755.009837208075
 10
-281.4726532817359
 20
756.6319539521824
 10
-283.0947700258432
 20
757.7158177088061
 10
-285.0081871876686
 20
758.0964200462496
 10
-286.9216043494941
 20
757.7158177088061
 10
-288.5437210936014
 20
756.6319539521824
 10
-289.627584850225
 20
755.009837208075
 10
-290.0081871876686
 20
753.0964200462496
 10
-289.627584850225
 20
751.1830028844241
 10
-288.5437210936014
 20
749.5608861403168
 10
-286.9216043494941
 20
748.4770223836931
 10
-285.0081871876686
 20
748.0964200462496
 10
-283.0947700258432
 20
748.4770223836931
 10
-281.4726532817359
 20
749.5608861403168
 10
-280.3887895251122
 20
751.1830028844241
 97
        0
 75
     0
 76
     1
 98
        0
  0
LINE
  5
241
330
1F
100
AcDbEntity
  8
0
  6
Continuous
370
    13
100
AcDbLine
 10
-1754.322684704855
 20
2682.753465871562
 30
0.0
 11
-1818.046000419321
 21
2598.018152045669
 31
0.0
  0
CIRCLE
  5
242
330
1F
100
AcDbEntity
  8
0
  6
Continuous
370
    13
100
AcDbCircle
 10
-1821.051184136375
 20
2594.022045086796
 30
0.0
 40
5.0
  0
HATCH
  5
243
330
1F
100
AcDbEntity
  8
0
  6
Continuous
370
    13
100
AcDbHatch
 10
0.0
 20
0.0
 30
0.0
210
0.0
220
0.0
230
1.0
  2
SOLID
 70
     1
 71
     0
 91
        1
 92
        2
 72
     0
 73
     1
 93
       16
 10
-1816.051184136375
 20
2594.022045086796
 10
-1816.431786473819
 20
2595.935462248622
 10
-1817.515650230443
 20
2597.557578992729
 10
-1819.13776697455
 20
2598.641442749353
 10
-1821.051184136375
 20
2599.022045086796
 10
-1822.964601298201
 20
2598.641442749353
 10
-1824.586718042308
 20
2597.557578992729
 10
-1825.670581798932
 20
2595.935462248622
 10
-1826.051184136375
 20
2594.022045086796
 10
-1825.670581798932
 20
2592.108627924971
 10
-1824.586718042308
 20
2590.486511180864
 10
-1822.964601298201
 20
2589.40264742424
 10
-1821.051184136375
 20
2589.022045086796
 10
-1819.13776697455
 20
2589.40264742424
 10
-1817.515650230443
 20
2590.486511180864
 10
-1816.431786473819
 20
2592.108627924971
 97
        0
 75
     0
 76
     1
 98
        0
  0
LINE
  5
244
330
1F
100
AcDbEntity
  8
0
  6
Continuous
370
    13
100
AcDbLine
 10
-1795.432274582647
 20
1577.650634453682
 30
0.0
 11
-1795.432274582647
 21
1559.722534385189
 31
0.0
  0
LINE
  5
245
330
1F
100
AcDbEntity
  8
0
  6
Continuous
370
    13
100
AcDbLine
 10
-1752.994976140659
 20
639.2050692988369
 30
0.0
 11
-1797.500359895919
 21
575.9965363111719
 31
0.0
  0
CIRCLE
  5
246
330
1F
100
AcDbEntity
  8
0
  6
Continuous
370
    13
100
AcDbCircle
 10
-1800.378921460645
 20
571.9082746612664
 30
0.0
 40
5.0
  0
HATCH
  5
247
330
1F
100
AcDbEntity
  8
0
  6
Continuous
370
    13
100
AcDbHatch
 10
0.0
 20
0.0
 30
0.0
210
0.0
220
0.0
230
1.0
  2
SOLID
 70
     1
 71
     0
 91
        1
 92
        2
 72
     0
 73
     1
 93
       16
 10
-1795.378921460645
 20
571.9082746612664
 10
-1795.759523798088
 20
573.8216918230919
 10
-1796.843387554712
 20
575.4438085671992
 10
-1798.465504298819
 20
576.5276723238229
 10
-1800.378921460645
 20
576.9082746612664
 10
-1802.29233862247
 20
576.5276723238229
 10
-1803.914455366577
 20
575.4438085671992
 10
-1804.998319123201
 20
573.8216918230919
 10
-1805.378921460644
 20
571.9082746612664
 10
-1804.998319123201
 20
569.994857499441
 10
-1803.914455366577
 20
568.3727407553338
 10
-1802.29233862247
 20
567.28887699871
 10
-1800.378921460645
 20
566.9082746612664
 10
-1798.465504298819
 20
567.28887699871
 10
-1796.843387554712
 20
568.3727407553338
 10
-1795.759523798088
 20
569.994857499441
 97
        0
 75
     0
 76
     1
 98
        0
  0
LINE
  5
248
330
1F
100
AcDbEntity
  8
0
  6
Continuous
370
    13
100
AcDbLine
 10
-1752.513200859779
 20
1384.526608610331
 30
0.0
 11
-1826.798447520428
 21
1498.116851407072
 31
0.0
  0
CIRCLE
  5
249
330
1F
100
AcDbEntity
  8
0
  6
Continuous
370
    13
100
AcDbCircle
 10
-1829.535073767429
 20
1502.301451362173
 30
0.0
 40
5.0
  0
HATCH
  5
24A
330
1F
100
AcDbEntity
  8
0
  6
Continuous
370
    13
100
AcDbHatch
 10
0.0
 20
0.0
 30
0.0
210
0.0
220
0.0
230
1.0
  2
SOLID
 70
     1
 71
     0
 91
        1
 92
        2
 72
     0
 73
     1
 93
       16
 10
-1824.53507376743
 20
1502.301451362173
 10
-1824.915676104873
 20
1504.214868523998
 10
-1825.999539861497
 20
1505.836985268105
 10
-1827.621656605604
 20
1506.920849024729
 10
-1829.535073767429
 20
1507.301451362172
 10
-1831.448490929255
 20
1506.920849024729
 10
-1833.070607673362
 20
1505.836985268105
 10
-1834.154471429986
 20
1504.214868523998
 10
-1834.535073767429
 20
1502.301451362173
 10
-1834.154471429986
 20
1500.388034200347
 10
-1833.070607673362
 20
1498.76591745624
 10
-1831.448490929255
 20
1497.682053699616
 10
-1829.535073767429
 20
1497.301451362173
 10
-1827.621656605604
 20
1497.682053699616
 10
-1825.999539861497
 20
1498.76591745624
 10
-1824.915676104873
 20
1500.388034200347
 97
        0
 75
     0
 76
     1
 98
        0
  0
VIEWPORT
  5
5D
330
1B
100
AcDbEntity
 67
     1
  8
0
  6
Continuous
370
     0
100
AcDbViewport
 10
102.1654572952387
 20
148.3693624698952
 30
0.0
 40
258.8029024914271
 41
356.7135300722516
 68
     1
 69
     1
 12
102.1654572952387
 22
148.3693624698952
 13
0.0
 23
0.0
 14
0.5
 24
0.5
 15
0.0
 25
0.0
 16
0.0
 26
0.0
 36
1.0
 17
0.0
 27
0.0
 37
0.0
 42
50.0
 43
0.0
 44
0.0
 45
356.7135300722516
 50
0.0
 51
0.0
 72
   100
 90
   557152
  1

281
     0
 71
     1
 74
     0
110
0.0
120
0.0
130
0.0
111
1.0
121
0.0
131
0.0
112
0.0
122
1.0
132
0.0
 79
     0
146
0.0
170
     0
  0
INSERT
  5
252
102
{ACAD_XDICTIONARY
360
253
102
}
330
1B
100
AcDbEntity
 67
     1
  8
0
370
    13
100
AcDbBlockReference
  2
Rysunek_1
 10
0.0
 20
0.0
 30
0.0
  0
VIEWPORT
  5
256
330
1B
100
AcDbEntity
 67
     1
  8
NonPlottable_0
  6
Continuous
 62
    65
370
    20
100
AcDbViewport
 10
104.9999999999818
 20
148.3693624698952
 30
0.0
 40
210.0000000000364
 41
297.2612750602096
 68
     2
 69
     2
 12
0.0
 22
0.0
 13
0.0
 23
0.0
 14
0.5
 24
0.5
 15
0.0
 25
0.0
 16
0.0
 26
0.0
 36
1.0
 17
-1150.000000000182
 27
1434.000996542431
 37
0.0
 42
50.0
 43
0.0
 44
0.0
 45
2972.612750602096
 50
0.0
 51
0.0
 72
   100
 90
   622688
340
258
  1

281
     0
 71
     1
 74
     0
110
0.0
120
0.0
130
0.0
111
1.0
121
0.0
131
0.0
112
0.0
122
1.0
132
0.0
 79
     0
146
0.0
170
     0
  0
LWPOLYLINE
  5
258
102
{ACAD_REACTORS
330
256
102
}
330
1B
100
AcDbEntity
 67
     1
  8
NonPlottable_0
  6
Continuous
 62
    65
370
    20
100
AcDbPolyline
 90
        4
 70
   129
 43
0.0
 10
-0.0000000000363876
 20
-0.2612750602095926
 10
210.0
 20
-0.2612750602095926
 10
210.0
 20
297.0
 10
-0.0000000000363876
 20
297.0
  0
ENDSEC
  0
SECTION
  2
OBJECTS
  0
DICTIONARY
  5
C
330
0
100
AcDbDictionary
281
     1
  3
ACAD_GROUP
350
D
  3
ACAD_LAYOUT
350
1A
  3
ACAD_MLEADERSTYLE
350
25F
  3
ACAD_MLINESTYLE
350
17
  3
ACAD_PLOTSETTINGS
350
19
  3
ACAD_PLOTSTYLENAME
350
E
  3
ACAD_SCALELIST
350
3B
  3
ACAD_TABLESTYLE
350
25E
  3
ACAD_VISUALSTYLE
350
2A
  3
WATERMARKS
350
25C
  0
DICTIONARY
  5
253
330
252
100
AcDbDictionary
280
     1
281
     1
  3
ACAD_FILTER
360
254
  0
DICTIONARY
  5
D
102
{ACAD_REACTORS
330
C
102
}
330
C
100
AcDbDictionary
281
     1
  0
DICTIONARY
  5
1A
102
{ACAD_REACTORS
330
C
102
}
330
C
100
AcDbDictionary
281
     1
  3
A.14 01.02.00. ŁAZIENKA PUBL
350
1E
  3
Layout2
350
26
  3
Model
350
22
  0
DICTIONARY
  5
25F
102
{ACAD_REACTORS
330
C
102
}
330
C
100
AcDbDictionary
281
     1
  0
DICTIONARY
  5
17
102
{ACAD_REACTORS
330
C
102
}
330
C
100
AcDbDictionary
281
     1
  3
Standard
350
18
  0
DICTIONARY
  5
19
102
{ACAD_REACTORS
330
C
102
}
330
C
100
AcDbDictionary
281
     1
  0
ACDBDICTIONARYWDFLT
  5
E
102
{ACAD_REACTORS
330
C
102
}
330
C
100
AcDbDictionary
281
     1
  3
Normal
350
F
100
AcDbDictionaryWithDefault
340
F
  0
DICTIONARY
  5
3B
102
{ACAD_REACTORS
330
C
102
}
330
C
100
AcDbDictionary
281
     1
  3
A0
350
3C
  3
A1
350
3D
  3
A2
350
3E
  3
A3
350
3F
  3
A4
350
40
  3
A5
350
41
  3
A6
350
42
  3
A7
350
43
  3
A8
350
44
  3
A9
350
45
  3
B0
350
46
  3
B1
350
47
  3
B2
350
48
  3
B3
350
49
  3
B4
350
4A
  3
B5
350
4B
  3
B6
350
4C
  3
B7
350
4D
  3
B8
350
4E
  3
B9
350
4F
  3
C0
350
50
  3
C1
350
51
  3
C2
350
52
  3
C3
350
53
  3
C4
350
54
  3
C5
350
55
  3
C6
350
56
  3
C7
350
57
  3
C8
350
58
  3
C9
350
59
  3
D0
350
5A
  3
D1
350
5B
  3
D2
350
5C
  0
DICTIONARY
  5
25E
102
{ACAD_REACTORS
330
C
102
}
330
C
100
AcDbDictionary
281
     1
  0
DICTIONARY
  5
2A
102
{ACAD_REACTORS
330
C
102
}
330
C
100
AcDbDictionary
281
     1
  3
2dWireframe
350
2F
  3
3D Hidden
350
31
  3
3dWireframe
350
30
  3
Basic
350
32
  3
Brighten
350
36
  3
ColorChange
350
3A
  3
Conceptual
350
34
  3
Dim
350
35
  3
Facepattern
350
39
  3
Flat
350
2B
  3
FlatWithEdges
350
2C
  3
Gouraud
350
2D
  3
GouraudWithEdges
350
2E
  3
Linepattern
350
38
  3
Realistic
350
33
  3
Thicken
350
37
  0
DICTIONARY
  5
25C
102
{ACAD_REACTORS
330
C
102
}
330
C
100
AcDbDictionary
281
     1
  3
AC_WATERMARK
350
25D
  0
DICTIONARY
  5
254
102
{ACAD_REACTORS
330
253
102
}
330
253
100
AcDbDictionary
280
     1
281
     1
  3
SPATIAL
360
255
  0
LAYOUT
  5
1E
102
{ACAD_REACTORS
330
1A
102
}
330
1A
100
AcDbPlotSettings
  1

  2
none_device
  4

  6

 40
0.0
 41
0.0
 42
0.0
 43
0.0
 44
210.0
 45
297.0
 46
0.0
 47
0.0
 48
0.0
 49
0.0
140
0.0
141
0.0
142
1.0
143
1.0
 70
   688
 72
     1
 73
     0
 74
     5
  7

 75
    16
 76
     0
 77
     2
 78
   300
147
1.0
148
0.0
149
0.0
100
AcDbLayout
  1
A.14 01.02.00. ŁAZIENKA PUBL
 70
     0
 71
     1
 10
-5.669085409522604
 20
-0.2612750602095926
 11
210.0
 21
297.0
 12
0.0
 22
0.0
 32
0.0
 14
-5.669085409522604
 24
-0.2612750602095926
 34
0.0
 15
210.0
 25
297.0
 35
0.0
146
0.0
 13
0.0
 23
0.0
 33
0.0
 16
1.0
 26
0.0
 36
0.0
 17
0.0
 27
1.0
 37
0.0
 76
     0
330
1B
331
5D
  0
LAYOUT
  5
26
102
{ACAD_REACTORS
330
1A
102
}
330
1A
100
AcDbPlotSettings
  1

  2
none_device
  4

  6

 40
0.0
 41
0.0
 42
0.0
 43
0.0
 44
0.0
 45
0.0
 46
0.0
 47
0.0
 48
0.0
 49
0.0
140
0.0
141
0.0
142
1.0
143
1.0
 70
   688
 72
     0
 73
     0
 74
     5
  7

 75
    16
 76
     0
 77
     2
 78
   300
147
1.0
148
0.0
149
0.0
100
AcDbLayout
  1
Layout2
 70
     1
 71
     2
 10
0.0
 20
0.0
 11
0.0
 21
0.0
 12
0.0
 22
0.0
 32
0.0
 14
0.0
 24
0.0
 34
0.0
 15
0.0
 25
0.0
 35
0.0
146
0.0
 13
0.0
 23
0.0
 33
0.0
 16
1.0
 26
0.0
 36
0.0
 17
0.0
 27
1.0
 37
0.0
 76
     0
330
23
  0
LAYOUT
  5
22
102
{ACAD_REACTORS
330
1A
102
}
330
1A
100
AcDbPlotSettings
  1

  2
none_device
  4

  6

 40
0.0
 41
0.0
 42
0.0
 43
0.0
 44
0.0
 45
0.0
 46
0.0
 47
0.0
 48
0.0
 49
0.0
140
0.0
141
0.0
142
1.0
143
1.0
 70
  1712
 72
     0
 73
     0
 74
     0
  7

 75
     0
 76
     0
 77
     2
 78
   300
147
1.0
148
0.0
149
0.0
100
AcDbLayout
  1
Model
 70
     1
 71
     0
 10
0.0
 20
0.0
 11
12.0
 21
9.0
 12
0.0
 22
0.0
 32
0.0
 14
1.000000000000000E+20
 24
1.000000000000000E+20
 34
1.000000000000000E+20
 15
-1.000000000000000E+20
 25
-1.000000000000000E+20
 35
-1.000000000000000E+20
146
0.0
 13
0.0
 23
0.0
 33
0.0
 16
1.0
 26
0.0
 36
0.0
 17
0.0
 27
1.0
 37
0.0
 76
     0
330
1F
331
29
  0
MLINESTYLE
  5
18
102
{ACAD_REACTORS
330
17
102
}
330
17
100
AcDbMlineStyle
  2
Standard
 70
     0
  3

 62
   256
 51
90.0
 52
90.0
 71
     2
 49
0.5
 62
   256
  6
BYLAYER
 49
-0.5
 62
   256
  6
BYLAYER
  0
ACDBPLACEHOLDER
  5
F
102
{ACAD_REACTORS
330
E
102
}
330
E
  0
SCALE
  5
3C
102
{ACAD_REACTORS
330
3B
102
}
330
3B
100
AcDbScale
 70
     0
300
1:1
140
1.0
141
1.0
290
     1
  0
SCALE
  5
3D
102
{ACAD_REACTORS
330
3B
102
}
330
3B
100
AcDbScale
 70
     0
300
1:2
140
1.0
141
2.0
290
     0
  0
SCALE
  5
3E
102
{ACAD_REACTORS
330
3B
102
}
330
3B
100
AcDbScale
 70
     0
300
1:4
140
1.0
141
4.0
290
     0
  0
SCALE
  5
3F
102
{ACAD_REACTORS
330
3B
102
}
330
3B
100
AcDbScale
 70
     0
300
1:5
140
1.0
141
5.0
290
     0
  0
SCALE
  5
40
102
{ACAD_REACTORS
330
3B
102
}
330
3B
100
AcDbScale
 70
     0
300
1:8
140
1.0
141
8.0
290
     0
  0
SCALE
  5
41
102
{ACAD_REACTORS
330
3B
102
}
330
3B
100
AcDbScale
 70
     0
300
1:10
140
1.0
141
10.0
290
     0
  0
SCALE
  5
42
102
{ACAD_REACTORS
330
3B
102
}
330
3B
100
AcDbScale
 70
     0
300
1:16
140
1.0
141
16.0
290
     0
  0
SCALE
  5
43
102
{ACAD_REACTORS
330
3B
102
}
330
3B
100
AcDbScale
 70
     0
300
1:20
140
1.0
141
20.0
290
     0
  0
SCALE
  5
44
102
{ACAD_REACTORS
330
3B
102
}
330
3B
100
AcDbScale
 70
     0
300
1:30
140
1.0
141
30.0
290
     0
  0
SCALE
  5
45
102
{ACAD_REACTORS
330
3B
102
}
330
3B
100
AcDbScale
 70
     0
300
1:40
140
1.0
141
40.0
290
     0
  0
SCALE
  5
46
102
{ACAD_REACTORS
330
3B
102
}
330
3B
100
AcDbScale
 70
     0
300
1:50
140
1.0
141
50.0
290
     0
  0
SCALE
  5
47
102
{ACAD_REACTORS
330
3B
102
}
330
3B
100
AcDbScale
 70
     0
300
1:100
140
1.0
141
100.0
290
     0
  0
SCALE
  5
48
102
{ACAD_REACTORS
330
3B
102
}
330
3B
100
AcDbScale
 70
     0
300
2:1
140
2.0
141
1.0
290
     0
  0
SCALE
  5
49
102
{ACAD_REACTORS
330
3B
102
}
330
3B
100
AcDbScale
 70
     0
300
4:1
140
4.0
141
1.0
290
     0
  0
SCALE
  5
4A
102
{ACAD_REACTORS
330
3B
102
}
330
3B
100
AcDbScale
 70
     0
300
8:1
140
8.0
141
1.0
290
     0
  0
SCALE
  5
4B
102
{ACAD_REACTORS
330
3B
102
}
330
3B
100
AcDbScale
 70
     0
300
10:1
140
10.0
141
1.0
290
     0
  0
SCALE
  5
4C
102
{ACAD_REACTORS
330
3B
102
}
330
3B
100
AcDbScale
 70
     0
300
100:1
140
100.0
141
1.0
290
     0
  0
SCALE
  5
4D
102
{ACAD_REACTORS
330
3B
102
}
330
3B
100
AcDbScale
 70
     0
300
1/128" = 1'-0"
140
0.0078125
141
12.0
290
     0
  0
SCALE
  5
4E
102
{ACAD_REACTORS
330
3B
102
}
330
3B
100
AcDbScale
 70
     0
300
1/64" = 1'-0"
140
0.015625
141
12.0
290
     0
  0
SCALE
  5
4F
102
{ACAD_REACTORS
330
3B
102
}
330
3B
100
AcDbScale
 70
     0
300
1/32" = 1'-0"
140
0.03125
141
12.0
290
     0
  0
SCALE
  5
50
102
{ACAD_REACTORS
330
3B
102
}
330
3B
100
AcDbScale
 70
     0
300
1/16" = 1'-0"
140
0.0625
141
12.0
290
     0
  0
SCALE
  5
51
102
{ACAD_REACTORS
330
3B
102
}
330
3B
100
AcDbScale
 70
     0
300
3/32" = 1'-0"
140
0.09375
141
12.0
290
     0
  0
SCALE
  5
52
102
{ACAD_REACTORS
330
3B
102
}
330
3B
100
AcDbScale
 70
     0
300
1/8" = 1'-0"
140
0.125
141
12.0
290
     0
  0
SCALE
  5
53
102
{ACAD_REACTORS
330
3B
102
}
330
3B
100
AcDbScale
 70
     0
300
3/16" = 1'-0"
140
0.1875
141
12.0
290
     0
  0
SCALE
  5
54
102
{ACAD_REACTORS
330
3B
102
}
330
3B
100
AcDbScale
 70
     0
300
1/4" = 1'-0"
140
0.25
141
12.0
290
     0
  0
SCALE
  5
55
102
{ACAD_REACTORS
330
3B
102
}
330
3B
100
AcDbScale
 70
     0
300
3/8" = 1'-0"
140
0.375
141
12.0
290
     0
  0
SCALE
  5
56
102
{ACAD_REACTORS
330
3B
102
}
330
3B
100
AcDbScale
 70
     0
300
1/2" = 1'-0"
140
0.5
141
12.0
290
     0
  0
SCALE
  5
57
102
{ACAD_REACTORS
330
3B
102
}
330
3B
100
AcDbScale
 70
     0
300
3/4" = 1'-0"
140
0.75
141
12.0
290
     0
  0
SCALE
  5
58
102
{ACAD_REACTORS
330
3B
102
}
330
3B
100
AcDbScale
 70
     0
300
1" = 1'-0"
140
1.0
141
12.0
290
     0
  0
SCALE
  5
59
102
{ACAD_REACTORS
330
3B
102
}
330
3B
100
AcDbScale
 70
     0
300
1-1/2" = 1'-0"
140
1.5
141
12.0
290
     0
  0
SCALE
  5
5A
102
{ACAD_REACTORS
330
3B
102
}
330
3B
100
AcDbScale
 70
     0
300
3" = 1'-0"
140
3.0
141
12.0
290
     0
  0
SCALE
  5
5B
102
{ACAD_REACTORS
330
3B
102
}
330
3B
100
AcDbScale
 70
     0
300
6" = 1'-0"
140
6.0
141
12.0
290
     0
  0
SCALE
  5
5C
102
{ACAD_REACTORS
330
3B
102
}
330
3B
100
AcDbScale
 70
     0
300
1'-0" = 1'-0"
140
12.0
141
12.0
290
     0
  0
VISUALSTYLE
  5
2F
102
{ACAD_REACTORS
330
2A
102
}
330
2A
100
AcDbVisualStyle
  2
2dWireframe
 70
     4
 71
     0
 72
     2
 73
     0
 90
        0
 40
-0.6
 41
-30.0
 62
     5
 63
     7
421
 16777215
 74
     1
 91
        4
 64
     7
 65
   257
 75
     1
175
     1
 42
1.0
 92
        0
 66
   257
 43
1.0
 76
     1
 77
     6
 78
     2
 67
     7
 79
     5
170
     0
171
     0
290
     0
174
     0
 93
        1
 44
0.0
173
     0
291
     0
 45
0.0
1001
ACAD
1000
AcDbSavedByObjectVersion
1070
     0
  0
VISUALSTYLE
  5
31
102
{ACAD_REACTORS
330
2A
102
}
330
2A
100
AcDbVisualStyle
  2
3D Hidden
 70
     6
 71
     1
 72
     2
 73
     2
 90
        0
 40
-0.6
 41
-30.0
 62
     5
 63
     7
421
 16777215
 74
     2
 91
        2
 64
     7
 65
   257
 75
     2
175
     1
 42
40.0
 92
        0
 66
   257
 43
1.0
 76
     1
 77
     6
 78
     2
 67
     7
 79
     3
170
     0
171
     0
290
     0
174
     0
 93
        1
 44
0.0
173
     0
291
     0
 45
0.0
1001
ACAD
1000
AcDbSavedByObjectVersion
1070
     0
  0
VISUALSTYLE
  5
30
102
{ACAD_REACTORS
330
2A
102
}
330
2A
100
AcDbVisualStyle
  2
3dWireframe
 70
     5
 71
     0
 72
     2
 73
     0
 90
        0
 40
-0.6
 41
-30.0
 62
     5
 63
     7
421
 16777215
 74
     1
 91
        4
 64
     7
 65
   257
 75
     1
175
     1
 42
1.0
 92
        0
 66
   257
 43
1.0
 76
     1
 77
     6
 78
     2
 67
     7
 79
     5
170
     0
171
     0
290
     0
174
     0
 93
        1
 44
0.0
173
     0
291
     0
 45
0.0
1001
ACAD
1000
AcDbSavedByObjectVersion
1070
     0
  0
VISUALSTYLE
  5
32
102
{ACAD_REACTORS
330
2A
102
}
330
2A
100
AcDbVisualStyle
  2
Basic
 70
     7
 71
     1
 72
     0
 73
     1
 90
        0
 40
-0.6
 41
-30.0
 62
     5
 63
     7
421
 16777215
 74
     0
 91
        4
 64
     7
 65
   257
 75
     1
175
     1
 42
1.0
 92
        8
 66
     7
 43
1.0
 76
     1
 77
     6
 78
     2
 67
     7
 79
     5
170
     0
171
     0
290
     0
174
     0
 93
        1
 44
0.0
173
     0
291
     1
 45
0.0
1001
ACAD
1000
AcDbSavedByObjectVersion
1070
     0
  0
VISUALSTYLE
  5
36
102
{ACAD_REACTORS
330
2A
102
}
330
2A
100
AcDbVisualStyle
  2
Brighten
 70
    12
 71
     2
 72
     2
 73
     0
 90
        0
 40
-0.6
 41
-30.0
 62
     5
 63
     7
421
 16777215
 74
     1
 91
        4
 64
     7
 65
   257
 75
     1
175
     1
 42
1.0
 92
        8
 66
     7
 43
1.0
 76
     1
 77
     6
 78
     2
 67
     7
 79
     5
170
     0
171
     0
290
     0
174
     0
 93
        1
 44
50.0
173
     0
291
     1
 45
0.0
1001
ACAD
1000
AcDbSavedByObjectVersion
1070
     0
  0
VISUALSTYLE
  5
3A
102
{ACAD_REACTORS
330
2A
102
}
330
2A
100
AcDbVisualStyle
  2
ColorChange
 70
    16
 71
     2
 72
     2
 73
     3
 90
        0
 40
-0.6
 41
-30.0
 62
     5
 63
     8
421
  8421504
 74
     1
 91
        4
 64
     7
 65
   257
 75
     1
175
     1
 42
1.0
 92
        8
 66
     8
424
  8421504
 43
1.0
 76
     1
 77
     6
 78
     2
 67
     7
 79
     5
170
     0
171
     0
290
     0
174
     0
 93
        1
 44
0.0
173
     0
291
     1
 45
0.0
1001
ACAD
1000
AcDbSavedByObjectVersion
1070
     0
  0
VISUALSTYLE
  5
34
102
{ACAD_REACTORS
330
2A
102
}
330
2A
100
AcDbVisualStyle
  2
Conceptual
 70
     9
 71
     3
 72
     2
 73
     0
 90
        0
 40
-0.6
 41
-30.0
 62
     5
 63
     7
421
 16777215
 74
     2
 91
        2
 64
     7
 65
   257
 75
     1
175
     1
 42
40.0
 92
        8
 66
     7
 43
1.0
 76
     1
 77
     6
 78
     2
 67
     7
 79
     3
170
     0
171
     0
290
     0
174
     0
 93
        1
 44
0.0
173
     0
291
     0
 45
0.0
1001
ACAD
1000
AcDbSavedByObjectVersion
1070
     0
  0
VISUALSTYLE
  5
35
102
{ACAD_REACTORS
330
2A
102
}
330
2A
100
AcDbVisualStyle
  2
Dim
 70
    11
 71
     2
 72
     2
 73
     0
 90
        0
 40
-0.6
 41
-30.0
 62
     5
 63
     7
421
 16777215
 74
     1
 91
        4
 64
     7
 65
   257
 75
     1
175
     1
 42
1.0
 92
        8
 66
     7
 43
1.0
 76
     1
 77
     6
 78
     2
 67
     7
 79
     5
170
     0
171
     0
290
     0
174
     0
 93
        1
 44
-50.0
173
     0
291
     1
 45
0.0
1001
ACAD
1000
AcDbSavedByObjectVersion
1070
     0
  0
VISUALSTYLE
  5
39
102
{ACAD_REACTORS
330
2A
102
}
330
2A
100
AcDbVisualStyle
  2
Facepattern
 70
    15
 71
     2
 72
     2
 73
     0
 90
        0
 40
-0.6
 41
-30.0
 62
     5
 63
     7
421
 16777215
 74
     1
 91
        4
 64
     7
 65
   257
 75
     1
175
     1
 42
1.0
 92
        8
 66
     7
 43
1.0
 76
     1
 77
     6
 78
     2
 67
     7
 79
     5
170
     0
171
     0
290
     0
174
     0
 93
        1
 44
0.0
173
     0
291
     1
 45
0.0
1001
ACAD
1000
AcDbSavedByObjectVersion
1070
     0
  0
VISUALSTYLE
  5
2B
102
{ACAD_REACTORS
330
2A
102
}
330
2A
100
AcDbVisualStyle
  2
Flat
 70
     0
 71
     2
 72
     1
 73
     1
 90
        2
 40
-0.6
 41
30.0
 62
     5
 63
     7
421
 16777215
 74
     0
 91
        4
 64
     7
 65
   257
 75
     1
175
     1
 42
1.0
 92
        8
 66
     7
 43
1.0
 76
     1
 77
     6
 78
     2
 67
     7
 79
     5
170
     0
171
     0
290
     0
174
     0
 93
       13
 44
0.0
173
     0
291
     1
 45
0.0
1001
ACAD
1000
AcDbSavedByObjectVersion
1070
     0
  0
VISUALSTYLE
  5
2C
102
{ACAD_REACTORS
330
2A
102
}
330
2A
100
AcDbVisualStyle
  2
FlatWithEdges
 70
     1
 71
     2
 72
     1
 73
     1
 90
        2
 40
-0.6
 41
30.0
 62
     5
 63
     7
421
 16777215
 74
     1
 91
        4
 64
     7
 65
   257
 75
     1
175
     1
 42
1.0
 92
        0
 66
   257
 43
1.0
 76
     1
 77
     6
 78
     2
 67
     7
 79
     5
170
     0
171
     0
290
     0
174
     0
 93
       13
 44
0.0
173
     0
291
     1
 45
0.0
1001
ACAD
1000
AcDbSavedByObjectVersion
1070
     0
  0
VISUALSTYLE
  5
2D
102
{ACAD_REACTORS
330
2A
102
}
330
2A
100
AcDbVisualStyle
  2
Gouraud
 70
     2
 71
     2
 72
     2
 73
     1
 90
        2
 40
-0.6
 41
30.0
 62
     5
 63
     7
421
 16777215
 74
     0
 91
        4
 64
     7
 65
   257
 75
     1
175
     1
 42
1.0
 92
        0
 66
     7
 43
1.0
 76
     1
 77
     6
 78
     2
 67
     7
 79
     5
170
     0
171
     0
290
     0
174
     0
 93
       13
 44
0.0
173
     0
291
     1
 45
0.0
1001
ACAD
1000
AcDbSavedByObjectVersion
1070
     0
  0
VISUALSTYLE
  5
2E
102
{ACAD_REACTORS
330
2A
102
}
330
2A
100
AcDbVisualStyle
  2
GouraudWithEdges
 70
     3
 71
     2
 72
     2
 73
     1
 90
        2
 40
-0.6
 41
30.0
 62
     5
 63
     7
421
 16777215
 74
     1
 91
        4
 64
     7
 65
   257
 75
     1
175
     1
 42
1.0
 92
        0
 66
   257
 43
1.0
 76
     1
 77
     6
 78
     2
 67
     7
 79
     5
170
     0
171
     0
290
     0
174
     0
 93
       13
 44
0.0
173
     0
291
     1
 45
0.0
1001
ACAD
1000
AcDbSavedByObjectVersion
1070
     0
  0
VISUALSTYLE
  5
38
102
{ACAD_REACTORS
330
2A
102
}
330
2A
100
AcDbVisualStyle
  2
Linepattern
 70
    14
 71
     2
 72
     2
 73
     0
 90
        0
 40
-0.6
 41
-30.0
 62
     5
 63
     7
421
 16777215
 74
     1
 91
        4
 64
     7
 65
   257
 75
     7
175
     7
 42
1.0
 92
        8
 66
     7
 43
1.0
 76
     1
 77
     6
 78
     2
 67
     7
 79
     5
170
     0
171
     0
290
     0
174
     0
 93
        1
 44
0.0
173
     0
291
     1
 45
0.0
1001
ACAD
1000
AcDbSavedByObjectVersion
1070
     0
  0
VISUALSTYLE
  5
33
102
{ACAD_REACTORS
330
2A
102
}
330
2A
100
AcDbVisualStyle
  2
Realistic
 70
     8
 71
     2
 72
     2
 73
     0
 90
        0
 40
-0.6
 41
-30.0
 62
     5
 63
     7
421
 16777215
 74
     1
 91
        0
 64
     7
 65
   257
 75
     1
175
     1
 42
1.0
 92
        8
 66
     8
424
  7895160
 43
1.0
 76
     1
 77
     6
 78
     2
 67
     7
 79
     5
170
     0
171
     0
290
     0
174
     0
 93
       13
 44
0.0
173
     0
291
     0
 45
0.0
1001
ACAD
1000
AcDbSavedByObjectVersion
1070
     0
  0
VISUALSTYLE
  5
37
102
{ACAD_REACTORS
330
2A
102
}
330
2A
100
AcDbVisualStyle
  2
Thicken
 70
    13
 71
     2
 72
     2
 73
     0
 90
        0
 40
-0.6
 41
-30.0
 62
     5
 63
     7
421
 16777215
 74
     1
 91
        4
 64
     7
 65
   257
 75
     1
175
     1
 42
1.0
 92
       12
 66
     7
 43
1.0
 76
     1
 77
     6
 78
     2
 67
     7
 79
     5
170
     0
171
     0
290
     0
174
     0
 93
        1
 44
0.0
173
     0
291
     1
 45
0.0
1001
ACAD
1000
AcDbSavedByObjectVersion
1070
     0
  0
XRECORD
  5
25D
102
{ACAD_REACTORS
330
25C
102
}
330
25C
100
AcDbXrecord
280
     1
1000
Ten plik DWG został utworzony w programie ArchiCAD(TM)®
  0
SPATIAL_FILTER
  5
255
102
{ACAD_REACTORS
330
254
102
}
330
254
100
AcDbFilter
100
AcDbSpatialFilter
 70
     4
 10
-5.669085409522604
 20
0.0
 10
210.0
 20
0.0
 10
210.0
 20
297.0
 10
-5.669085409522604
 20
297.0
210
0.0
220
0.0
230
1.0
 11
0.0
 21
0.0
 31
0.0
 71
     1
 72
     0
 73
     0
 40
1.0
 40
0.0
 40
0.0
 40
0.0
 40
0.0
 40
1.0
 40
0.0
 40
0.0
 40
0.0
 40
0.0
 40
1.0
 40
0.0
 40
1.0
 40
0.0
 40
0.0
 40
0.0
 40
0.0
 40
1.0
 40
0.0
 40
0.0
 40
0.0
 40
0.0
 40
1.0
 40
0.0
  0
ENDSEC
  0
EOF
